  0
SECTION
  2
HEADER
  9
$ACADVER
  1
AC1015
  9
$ACADMAINTVER
 70
     6
  9
$DWGCODEPAGE
  3
ANSI_1252
  9
$INSBASE
 10
0.0
 20
0.0
 30
0.0
  9
$EXTMIN
 10
0.0
 20
0.0
 30
0.0
  9
$EXTMAX
 10
1189.0
 20
841.0
 30
0.0
  9
$LIMMIN
 10
0.0
 20
0.0
  9
$LIMMAX
 10
1189.0
 20
841.0
  9
$ORTHOMODE
 70
     0
  9
$REGENMODE
 70
     1
  9
$FILLMODE
 70
     1
  9
$QTEXTMODE
 70
     0
  9
$MIRRTEXT
 70
     1
  9
$LTSCALE
 40
1.0
  9
$ATTMODE
 70
     1
  9
$TEXTSIZE
 40
3.5
  9
$TRACEWID
 40
1.0
  9
$TEXTSTYLE
  7
Standard
  9
$CLAYER
  8
0
  9
$CELTYPE
  6
ByLayer
  9
$CECOLOR
 62
   256
  9
$CELTSCALE
 40
1.0
  9
$DISPSILH
 70
     0
  9
$DIMSCALE
 40
1.0
  9
$DIMASZ
 40
3.302
  9
$DIMEXO
 40
1.0
  9
$DIMDLI
 40
3.75
  9
$DIMRND
 40
0.0
  9
$DIMDLE
 40
0.0
  9
$DIMEXE
 40
1.0
  9
$DIMTP
 40
0.0
  9
$DIMTM
 40
0.0
  9
$DIMTXT
 40
3.5
  9
$DIMCEN
 40
2.5
  9
$DIMTSZ
 40
0.0
  9
$DIMTOL
 70
     0
  9
$DIMLIM
 70
     0
  9
$DIMTIH
 70
     1
  9
$DIMTOH
 70
     1
  9
$DIMSE1
 70
     0
  9
$DIMSE2
 70
     0
  9
$DIMTAD
 70
     1
  9
$DIMZIN
 70
     0
  9
$DIMBLK
  1

  9
$DIMASO
 70
     1
  9
$DIMSHO
 70
     1
  9
$DIMPOST
  1

  9
$DIMAPOST
  1

  9
$DIMALT
 70
     0
  9
$DIMALTD
 70
     3
  9
$DIMALTF
 40
0.0393700787
  9
$DIMLFAC
 40
5.0
  9
$DIMTOFL
 70
     1
  9
$DIMTVP
 40
0.0
  9
$DIMTIX
 70
     0
  9
$DIMSOXD
 70
     0
  9
$DIMSAH
 70
     0
  9
$DIMBLK1
  1

  9
$DIMBLK2
  1

  9
$DIMSTYLE
  2
ISO-25
  9
$DIMCLRD
 70
     0
  9
$DIMCLRE
 70
     0
  9
$DIMCLRT
 70
     0
  9
$DIMTFAC
 40
1.0
  9
$DIMGAP
 40
1.524
  9
$DIMJUST
 70
     0
  9
$DIMSD1
 70
     0
  9
$DIMSD2
 70
     0
  9
$DIMTOLJ
 70
     0
  9
$DIMTZIN
 70
     0
  9
$DIMALTZ
 70
     0
  9
$DIMALTTZ
 70
     0
  9
$DIMUPT
 70
     0
  9
$DIMDEC
 70
     2
  9
$DIMTDEC
 70
     2
  9
$DIMALTU
 70
     2
  9
$DIMALTTD
 70
     3
  9
$DIMTXSTY
  7
Standard
  9
$DIMAUNIT
 70
     0
  9
$DIMADEC
 70
     2
  9
$DIMALTRND
 40
0.0
  9
$DIMAZIN
 70
     0
  9
$DIMDSEP
 70
    44
  9
$DIMATFIT
 70
     3
  9
$DIMFRAC
 70
     0
  9
$DIMLDRBLK
  1

  9
$DIMLUNIT
 70
     2
  9
$DIMLWD
 70
    -2
  9
$DIMLWE
 70
    -2
  9
$DIMTMOVE
 70
     0
  9
$LUNITS
 70
     2
  9
$LUPREC
 70
     2
  9
$SKETCHINC
 40
1.0
  9
$FILLETRAD
 40
10.0
  9
$AUNITS
 70
     0
  9
$AUPREC
 70
     2
  9
$MENU
  1
.
  9
$ELEVATION
 40
0.0
  9
$PELEVATION
 40
0.0
  9
$THICKNESS
 40
0.0
  9
$LIMCHECK
 70
     0
  9
$CHAMFERA
 40
0.0
  9
$CHAMFERB
 40
0.0
  9
$CHAMFERC
 40
0.0
  9
$CHAMFERD
 40
0.0
  9
$SKPOLY
 70
     0
  9
$TDCREATE
 40
2458057.512617396
  9
$TDUCREATE
 40
2458057.512617396
  9
$TDUPDATE
 40
2458057.512617558
  9
$TDUUPDATE
 40
2458057.512617558
  9
$TDINDWG
 40
0.0000000116
  9
$TDUSRTIMER
 40
0.0000000116
  9
$USRTIMER
 70
     1
  9
$ANGBASE
 50
0.0
  9
$ANGDIR
 70
     0
  9
$PDMODE
 70
     0
  9
$PDSIZE
 40
-1.0
  9
$PLINEWID
 40
0.0
  9
$SPLFRAME
 70
     0
  9
$SPLINETYPE
 70
     6
  9
$SPLINESEGS
 70
     8
  9
$HANDSEED
  5
213
  9
$SURFTAB1
 70
     6
  9
$SURFTAB2
 70
     6
  9
$SURFTYPE
 70
     6
  9
$SURFU
 70
     6
  9
$SURFV
 70
     6
  9
$UCSBASE
  2

  9
$UCSNAME
  2

  9
$UCSORG
 10
0.0
 20
0.0
 30
0.0
  9
$UCSXDIR
 10
1.0
 20
0.0
 30
0.0
  9
$UCSYDIR
 10
0.0
 20
1.0
 30
0.0
  9
$UCSORTHOREF
  2

  9
$UCSORTHOVIEW
 70
     0
  9
$UCSORGTOP
 10
0.0
 20
0.0
 30
0.0
  9
$UCSORGBOTTOM
 10
0.0
 20
0.0
 30
0.0
  9
$UCSORGLEFT
 10
0.0
 20
0.0
 30
0.0
  9
$UCSORGRIGHT
 10
0.0
 20
0.0
 30
0.0
  9
$UCSORGFRONT
 10
0.0
 20
0.0
 30
0.0
  9
$UCSORGBACK
 10
0.0
 20
0.0
 30
0.0
  9
$PUCSBASE
  2

  9
$PUCSNAME
  2

  9
$PUCSORG
 10
0.0
 20
0.0
 30
0.0
  9
$PUCSXDIR
 10
1.0
 20
0.0
 30
0.0
  9
$PUCSYDIR
 10
0.0
 20
1.0
 30
0.0
  9
$PUCSORTHOREF
  2

  9
$PUCSORTHOVIEW
 70
     0
  9
$PUCSORGTOP
 10
0.0
 20
0.0
 30
0.0
  9
$PUCSORGBOTTOM
 10
0.0
 20
0.0
 30
0.0
  9
$PUCSORGLEFT
 10
0.0
 20
0.0
 30
0.0
  9
$PUCSORGRIGHT
 10
0.0
 20
0.0
 30
0.0
  9
$PUCSORGFRONT
 10
0.0
 20
0.0
 30
0.0
  9
$PUCSORGBACK
 10
0.0
 20
0.0
 30
0.0
  9
$USERI1
 70
     0
  9
$USERI2
 70
     0
  9
$USERI3
 70
     0
  9
$USERI4
 70
     0
  9
$USERI5
 70
     0
  9
$USERR1
 40
0.0
  9
$USERR2
 40
0.0
  9
$USERR3
 40
0.0
  9
$USERR4
 40
0.0
  9
$USERR5
 40
0.0
  9
$WORLDVIEW
 70
     1
  9
$SHADEDGE
 70
     3
  9
$SHADEDIF
 70
    70
  9
$TILEMODE
 70
     1
  9
$MAXACTVP
 70
    64
  9
$PINSBASE
 10
0.0
 20
0.0
 30
0.0
  9
$PLIMCHECK
 70
     0
  9
$PEXTMIN
 10
1.0000000000E+20
 20
1.0000000000E+20
 30
1.0000000000E+20
  9
$PEXTMAX
 10
-1.0000000000E+20
 20
-1.0000000000E+20
 30
-1.0000000000E+20
  9
$PLIMMIN
 10
0.0
 20
0.0
  9
$PLIMMAX
 10
420.0
 20
297.0
  9
$UNITMODE
 70
     0
  9
$VISRETAIN
 70
     1
  9
$PLINEGEN
 70
     0
  9
$PSLTSCALE
 70
     1
  9
$TREEDEPTH
 70
  3020
  9
$CMLSTYLE
  2
Standard
  9
$CMLJUST
 70
     0
  9
$CMLSCALE
 40
20.0
  9
$PROXYGRAPHICS
 70
     1
  9
$MEASUREMENT
 70
     1
  9
$CELWEIGHT
370
    -1
  9
$ENDCAPS
280
     0
  9
$JOINSTYLE
280
     0
  9
$LWDISPLAY
290
     1
  9
$INSUNITS
 70
     4
  9
$HYPERLINKBASE
  1

  9
$STYLESHEET
  1

  9
$XEDIT
290
     1
  9
$CEPSNTYPE
380
     0
  9
$PSTYLEMODE
290
     1
  9
$FINGERPRINTGUID
  2
{C2E3CA3D-906A-4F64-83AE-6D05648C10E6}
  9
$VERSIONGUID
  2
{FAEB1C32-E019-11D5-929B-00C0DF256EC4}
  9
$EXTNAMES
290
     1
  9
$PSVPSCALE
 40
0.0
  9
$OLESTARTUP
290
     0
  0
ENDSEC
  0
SECTION
  2
CLASSES
  0
CLASS
  1
ACDBDICTIONARYWDFLT
  2
AcDbDictionaryWithDefault
  3
ObjectDBX Classes
 90
        0
280
     0
281
     0
  0
CLASS
  1
VISUALSTYLE
  2
AcDbVisualStyle
  3
ObjectDBX Classes
 90
     4095
280
     0
281
     0
  0
CLASS
  1
MATERIAL
  2
AcDbMaterial
  3
ObjectDBX Classes
 90
     1153
280
     0
281
     0
  0
CLASS
  1
SCALE
  2
AcDbScale
  3
ObjectDBX Classes
 90
     1153
280
     0
281
     0
  0
CLASS
  1
TABLESTYLE
  2
AcDbTableStyle
  3
ObjectDBX Classes
 90
     4095
280
     0
281
     0
  0
CLASS
  1
MLEADERSTYLE
  2
AcDbMLeaderStyle
  3
ACDB_MLEADERSTYLE_CLASS
 90
     4095
280
     0
281
     0
  0
CLASS
  1
SUN
  2
AcDbSun
  3
SCENEOE
 90
     1153
280
     0
281
     0
  0
CLASS
  1
ACDBPLACEHOLDER
  2
AcDbPlaceHolder
  3
ObjectDBX Classes
 90
        0
280
     0
281
     0
  0
CLASS
  1
LAYOUT
  2
AcDbLayout
  3
ObjectDBX Classes
 90
        0
280
     0
281
     0
  0
ENDSEC
  0
SECTION
  2
TABLES
  0
TABLE
  2
VPORT
  5
8
330
0
100
AcDbSymbolTable
 70
     1
  0
VPORT
  5
29
330
8
100
AcDbSymbolTableRecord
100
AcDbViewportTableRecord
  2
*Active
 70
     0
 10
0.0
 20
0.0
 11
1.0
 21
1.0
 12
594.5
 22
420.5
 13
0.0
 23
0.0
 14
10.0
 24
10.0
 15
10.0
 25
10.0
 16
0.0
 26
0.0
 36
1.0
 17
0.0
 27
0.0
 37
0.0
 40
841.0
 41
1.4137931034
 42
50.0
 43
0.0
 44
0.0
 50
0.0
 51
0.0
 71
     0
 72
  2000
 73
     1
 74
     3
 75
     0
 76
     0
 77
     0
 78
     0
281
     0
 65
     1
110
0.0
120
0.0
130
0.0
111
1.0
121
0.0
131
0.0
112
0.0
122
1.0
132
0.0
 79
     0
146
0.0
  0
ENDTAB
  0
TABLE
  2
LTYPE
  5
5
330
0
100
AcDbSymbolTable
 70
     6
  0
LTYPE
  5
14
330
5
100
AcDbSymbolTableRecord
100
AcDbLinetypeTableRecord
  2
ByBlock
 70
     0
  3

 72
    65
 73
     0
 40
0.0
  0
LTYPE
  5
15
330
5
100
AcDbSymbolTableRecord
100
AcDbLinetypeTableRecord
  2
ByLayer
 70
     0
  3

 72
    65
 73
     0
 40
0.0
  0
LTYPE
  5
16
330
5
100
AcDbSymbolTableRecord
100
AcDbLinetypeTableRecord
  2
Continuous
 70
     0
  3
Solid line
 72
    65
 73
     0
 40
0.0
  0
LTYPE
  5
6E
330
5
100
AcDbSymbolTableRecord
100
AcDbLinetypeTableRecord
  2
HIDDEN
 70
     0
  3
Hidden __ __ __ __ __ __ __ __ __ __ __ __ __ __
 72
    65
 73
     2
 40
1.905
 49
1.27
 74
     0
 49
-0.635
 74
     0
  0
LTYPE
  5
6F
330
5
100
AcDbSymbolTableRecord
100
AcDbLinetypeTableRecord
  2
PHANTOM
 70
     0
  3
Phantom ______  __  __  ______  __  __  ______
 72
    65
 73
     6
 40
12.7
 49
6.35
 74
     0
 49
-1.27
 74
     0
 49
1.27
 74
     0
 49
-1.27
 74
     0
 49
1.27
 74
     0
 49
-1.27
 74
     0
  0
LTYPE
  5
70
330
5
100
AcDbSymbolTableRecord
100
AcDbLinetypeTableRecord
  2
CENTER
 70
     0
  3
Center ____ _ ____ _ ____ _ ____ _ ____ _ ____
 72
    65
 73
     4
 40
10.16
 49
6.35
 74
     0
 49
-1.27
 74
     0
 49
1.27
 74
     0
 49
-1.27
 74
     0
  0
LTYPE
  5
71
330
5
100
AcDbSymbolTableRecord
100
AcDbLinetypeTableRecord
  2
CENTERX2
 70
     0
  3
Center (2x) ________  __  ________  __  _____
 72
    65
 73
     4
 40
20.32
 49
12.7
 74
     0
 49
-2.54
 74
     0
 49
2.54
 74
     0
 49
-2.54
 74
     0
  0
LTYPE
  5
72
330
5
100
AcDbSymbolTableRecord
100
AcDbLinetypeTableRecord
  2
DOT2
 70
     0
  3
Dot (.5x) ........................................
 72
    65
 73
     2
 40
0.635
 49
0.0
 74
     0
 49
-0.635
 74
     0
  0
ENDTAB
  0
TABLE
  2
LAYER
  5
2
330
0
100
AcDbSymbolTable
 70
     2
  0
LAYER
  5
10
330
2
100
AcDbSymbolTableRecord
100
AcDbLayerTableRecord
  2
0
 70
     0
 62
     7
  6
Continuous
370
    -3
390
F
  0
LAYER
  5
73
330
2
100
AcDbSymbolTableRecord
100
AcDbLayerTableRecord
  2
FORMAT
 70
     0
 62
     7
  6
Continuous
370
    -3
390
F
  0
ENDTAB
  0
TABLE
  2
STYLE
  5
3
330
0
100
AcDbSymbolTable
 70
     1
  0
STYLE
  5
11
330
3
100
AcDbSymbolTableRecord
100
AcDbTextStyleTableRecord
  2
Standard
 70
     0
 40
0.0
 41
1.0
 50
0.0
 71
     0
 42
3.5
  3
txt
  4

  0
ENDTAB
  0
TABLE
  2
VIEW
  5
6
330
0
100
AcDbSymbolTable
 70
     0
  0
ENDTAB
  0
TABLE
  2
UCS
  5
7
330
0
100
AcDbSymbolTable
 70
     0
  0
ENDTAB
  0
TABLE
  2
APPID
  5
9
330
0
100
AcDbSymbolTable
 70
     1
  0
APPID
  5
12
330
9
100
AcDbSymbolTableRecord
100
AcDbRegAppTableRecord
  2
ACAD
 70
     0
  0
ENDTAB
  0
TABLE
  2
DIMSTYLE
  5
A
330
0
100
AcDbSymbolTable
 70
     1
100
AcDbDimStyleTable
  0
DIMSTYLE
105
27
330
A
100
AcDbSymbolTableRecord
100
AcDbDimStyleTableRecord
  2
ISO-25
 70
     0
 41
2.5
 42
0.625
 43
3.75
 44
1.25
 73
     0
 74
     0
 77
     1
 78
     8
140
2.5
141
2.5
143
0.0393700787
147
0.625
171
     3
172
     1
178
     0
271
     2
272
     2
274
     3
278
    44
283
     0
284
     8
340
11
  0
ENDTAB
  0
TABLE
  2
BLOCK_RECORD
  5
1
330
0
100
AcDbSymbolTable
 70
     1
  0
BLOCK_RECORD
  5
1F
330
1
100
AcDbSymbolTableRecord
100
AcDbBlockTableRecord
  2
*Model_Space
340
22
  0
BLOCK_RECORD
  5
1B
330
1
100
AcDbSymbolTableRecord
100
AcDbBlockTableRecord
  2
*Paper_Space
340
1E
  0
BLOCK_RECORD
  5
23
330
1
100
AcDbSymbolTableRecord
100
AcDbBlockTableRecord
  2
*Paper_Space0
340
26
  0
ENDTAB
  0
ENDSEC
  0
SECTION
  2
BLOCKS
  0
BLOCK
  5
20
330
1F
100
AcDbEntity
  8
0
100
AcDbBlockBegin
  2
*Model_Space
 70
     0
 10
0.0
 20
0.0
 30
0.0
  3
*Model_Space
  1

  0
ENDBLK
  5
21
330
1F
100
AcDbEntity
  8
0
100
AcDbBlockEnd
  0
BLOCK
  5
1C
330
1B
100
AcDbEntity
 67
     1
  8
0
100
AcDbBlockBegin
  2
*Paper_Space
 70
     0
 10
0.0
 20
0.0
 30
0.0
  3
*Paper_Space
  1

  0
ENDBLK
  5
1D
330
1B
100
AcDbEntity
 67
     1
  8
0
100
AcDbBlockEnd
  0
BLOCK
  5
24
330
23
100
AcDbEntity
  8
0
100
AcDbBlockBegin
  2
*Paper_Space0
 70
     0
 10
0.0
 20
0.0
 30
0.0
  3
*Paper_Space0
  1

  0
ENDBLK
  5
25
330
23
100
AcDbEntity
  8
0
100
AcDbBlockEnd
  0
ENDSEC
  0
SECTION
  2
ENTITIES
  0
LINE
  5
74
330
1F
100
AcDbEntity
  8
0
  6
Continuous
 62
     7
370
    15
100
AcDbLine
 10
489.9437598804
 20
334.0618034417
 30
0.0
 11
489.9437598804
 21
335.4018034417
 31
0.0
  0
LINE
  5
75
330
1F
100
AcDbEntity
  8
0
  6
Continuous
 62
     7
370
    15
100
AcDbLine
 10
473.9437598804
 20
335.4018034417
 30
0.0
 11
473.9437598804
 21
334.0618034417
 31
0.0
  0
LINE
  5
76
330
1F
100
AcDbEntity
  8
0
  6
Continuous
 62
     7
370
    15
100
AcDbLine
 10
492.6938850488
 20
305.1418034417
 30
0.0
 11
482.6137598804
 21
305.1418034417
 31
0.0
  0
LINE
  5
77
330
1F
100
AcDbEntity
  8
0
  6
Continuous
 62
     7
370
    15
100
AcDbLine
 10
481.2737598804
 20
305.1418034417
 30
0.0
 11
471.1936347119
 21
305.1418034417
 31
0.0
  0
LINE
  5
78
330
1F
100
AcDbEntity
  8
0
  6
Continuous
 62
     7
370
    15
100
AcDbLine
 10
471.1936347119
 20
304.3018034417
 30
0.0
 11
481.2737598804
 21
304.3018034417
 31
0.0
  0
LINE
  5
79
330
1F
100
AcDbEntity
  8
0
  6
Continuous
 62
     7
370
    15
100
AcDbLine
 10
482.6137598804
 20
304.3018034417
 30
0.0
 11
492.6938850488
 21
304.3018034417
 31
0.0
  0
LINE
  5
7A
330
1F
100
AcDbEntity
  8
0
  6
Continuous
 62
     7
370
    15
100
AcDbLine
 10
473.9437598804
 20
334.0618034417
 30
0.0
 11
473.9437598804
 21
332.7218034417
 31
0.0
  0
LINE
  5
7B
330
1F
100
AcDbEntity
  8
0
  6
Continuous
 62
     7
370
    15
100
AcDbLine
 10
489.9437598804
 20
332.7218034417
 30
0.0
 11
489.9437598804
 21
334.0618034417
 31
0.0
  0
LINE
  5
7C
330
1F
100
AcDbEntity
  8
0
  6
Continuous
 62
     7
370
    15
100
AcDbLine
 10
481.9437598804
 20
334.0618034417
 30
0.0
 11
489.9437598804
 21
334.0618034417
 31
0.0
  0
LINE
  5
7D
330
1F
100
AcDbEntity
  8
0
  6
Continuous
 62
     7
370
    15
100
AcDbLine
 10
473.9437598804
 20
334.0618034417
 30
0.0
 11
481.9437598804
 21
334.0618034417
 31
0.0
  0
LINE
  5
7E
330
1F
100
AcDbEntity
  8
0
  6
Continuous
 62
     7
370
    15
100
AcDbLine
 10
481.9437598804
 20
335.4018034417
 30
0.0
 11
489.9437598804
 21
335.4018034417
 31
0.0
  0
LINE
  5
7F
330
1F
100
AcDbEntity
  8
0
  6
Continuous
 62
     7
370
    15
100
AcDbLine
 10
473.9437598804
 20
335.4018034417
 30
0.0
 11
481.9437598804
 21
335.4018034417
 31
0.0
  0
LINE
  5
80
330
1F
100
AcDbEntity
  8
0
  6
Continuous
 62
     7
370
    15
100
AcDbLine
 10
488.5126229294
 20
328.488875103
 30
0.0
 11
488.5126229294
 21
334.0618034417
 31
0.0
  0
ARC
  5
81
330
1F
100
AcDbEntity
  8
0
  6
Continuous
 62
     7
370
    15
100
AcDbCircle
 10
490.6099291894
 20
328.449721606
 30
0.0
 40
2.097671696105085
100
AcDbArc
 50
178.9304997456
 51
230.4484248318
  0
LINE
  5
82
330
1F
100
AcDbEntity
  8
0
  6
Continuous
 62
     7
370
    15
100
AcDbLine
 10
493.6643693416
 20
323.4030467739
 30
0.0
 11
489.2741894441
 21
326.8323082768
 31
0.0
  0
ARC
  5
83
330
1F
100
AcDbEntity
  8
0
  6
Continuous
 62
     7
370
    15
100
AcDbCircle
 10
492.3286295963
 20
321.7856334447
 30
0.0
 40
2.097671696104972
100
AcDbArc
 50
358.9304997456
 51
50.4484248318
  0
LINE
  5
84
330
1F
100
AcDbEntity
  8
0
  6
Continuous
 62
     7
370
    15
100
AcDbLine
 10
494.4259358564
 20
303.7464799477
 30
0.0
 11
494.4259358564
 21
321.7464799477
 31
0.0
  0
LWPOLYLINE
  5
85
330
1F
100
AcDbEntity
  8
0
  6
Continuous
 62
     7
370
    15
100
AcDbPolyline
 90
       12
 70
   128
 43
0.0
 10
492.6938850488
 20
301.7464799477
 10
492.9403815794
 20
301.7668370639
 10
493.1818601514
 20
301.8274940004
 10
493.4134049575
 20
301.927215957
 10
493.6303024133
 20
302.063972882
 10
493.8281371119
 20
302.234980799
 10
494.0028817094
 20
302.4367584798
 10
494.1509789097
 20
302.6651983128
 10
494.2694138809
 20
302.9156499217
 10
494.3557756286
 20
303.183014834
 10
494.4083060766
 20
303.4618502711
 10
494.4259358564
 20
303.7464799477
  0
LINE
  5
86
330
1F
100
AcDbEntity
  8
0
  6
Continuous
 62
     7
370
    15
100
AcDbLine
 10
491.6546545643
 20
301.7464799477
 30
0.0
 11
492.6938850488
 21
301.7464799477
 31
0.0
  0
LWPOLYLINE
  5
87
330
1F
100
AcDbEntity
  8
0
  6
Continuous
 62
     7
370
    15
100
AcDbPolyline
 90
       12
 70
   128
 43
0.0
 10
489.9226037567
 20
303.7464799477
 10
489.9402335365
 20
303.4618502711
 10
489.9927639844
 20
303.183014834
 10
490.0791257321
 20
302.9156499217
 10
490.1975607033
 20
302.6651983128
 10
490.3456579037
 20
302.4367584798
 10
490.5204025012
 20
302.234980799
 10
490.7182371998
 20
302.063972882
 10
490.9351346555
 20
301.927215957
 10
491.1666794617
 20
301.8274940004
 10
491.4081580337
 20
301.7668370639
 10
491.6546545643
 20
301.7464799477
  0
LINE
  5
88
330
1F
100
AcDbEntity
  8
0
  6
Continuous
 62
     7
370
    15
100
AcDbLine
 10
489.9226037567
 20
304.3018034417
 30
0.0
 11
489.9226037567
 21
303.7464799477
 31
0.0
  0
LINE
  5
89
330
1F
100
AcDbEntity
  8
0
  6
Continuous
 62
     7
370
    15
100
AcDbLine
 10
491.6546545643
 20
304.2464799477
 30
0.0
 11
491.6546545643
 21
304.3018034417
 31
0.0
  0
ARC
  5
8A
330
1F
100
AcDbEntity
  8
0
  6
Continuous
 62
     7
370
    15
100
AcDbCircle
 10
492.123751658
 20
304.2152299477
 30
0.0
 40
0.4701368373498013
100
AcDbArc
 50
176.1887389505
 51
265.5980503477
  0
LINE
  5
8B
330
1F
100
AcDbEntity
  8
0
  6
Continuous
 62
     7
370
    15
100
AcDbLine
 10
492.2608723469
 20
303.7464799477
 30
0.0
 11
492.0876672661
 21
303.7464799477
 31
0.0
  0
ARC
  5
8C
330
1F
100
AcDbEntity
  8
0
  6
Continuous
 62
     7
370
    15
100
AcDbCircle
 10
492.2247879551
 20
304.2152299477
 30
0.0
 40
0.4701368373499887
100
AcDbArc
 50
274.4019496523
 51
3.8112610494
  0
LINE
  5
8D
330
1F
100
AcDbEntity
  8
0
  6
Continuous
 62
     7
370
    15
100
AcDbLine
 10
492.6938850488
 20
320.6847886828
 30
0.0
 11
492.6938850488
 21
304.2464799477
 31
0.0
  0
ARC
  5
8E
330
1F
100
AcDbEntity
  8
0
  6
Continuous
 62
     7
370
    15
100
AcDbCircle
 10
490.5965787888
 20
320.7239421798
 30
0.0
 40
2.097671696105371
100
AcDbArc
 50
358.9304997456
 51
50.4484248318
  0
LINE
  5
8F
330
1F
100
AcDbEntity
  8
0
  6
Continuous
 62
     7
370
    15
100
AcDbLine
 10
487.5421386366
 20
325.7706170119
 30
0.0
 11
491.932318534
 21
322.341355509
 31
0.0
  0
ARC
  5
90
330
1F
100
AcDbEntity
  8
0
  6
Continuous
 62
     7
370
    15
100
AcDbCircle
 10
488.8778783818
 20
327.3880303411
 30
0.0
 40
2.09767169610548
100
AcDbArc
 50
178.9304997456
 51
230.4484248318
  0
LINE
  5
91
330
1F
100
AcDbEntity
  8
0
  6
Continuous
 62
     7
370
    15
100
AcDbLine
 10
486.7805721218
 20
332.7218034417
 30
0.0
 11
486.7805721218
 21
327.4271838381
 31
0.0
  0
ARC
  5
92
330
1F
100
AcDbEntity
  8
0
  6
Continuous
 62
     7
370
    15
100
AcDbCircle
 10
492.9986295963
 20
321.7856334447
 30
0.0
 40
2.097671696104942
100
AcDbArc
 50
358.9304997456
 51
50.4484248318
  0
LINE
  5
93
330
1F
100
AcDbEntity
  8
0
  6
Continuous
 62
     7
370
    15
100
AcDbLine
 10
495.0959358564
 20
303.7464799477
 30
0.0
 11
495.0959358564
 21
321.7464799477
 31
0.0
  0
LINE
  5
94
330
1F
100
AcDbEntity
  8
0
  6
Continuous
 62
     7
370
    15
100
AcDbLine
 10
492.6938850488
 20
301.7464799477
 30
0.0
 11
493.3638850488
 21
301.7464799477
 31
0.0
  0
LWPOLYLINE
  5
95
330
1F
100
AcDbEntity
  8
0
  6
Continuous
 62
     7
370
    15
100
AcDbPolyline
 90
       12
 70
   128
 43
0.0
 10
493.3638850488
 20
301.7464799477
 10
493.6103815794
 20
301.7668370639
 10
493.8518601514
 20
301.8274940004
 10
494.0834049575
 20
301.927215957
 10
494.3003024133
 20
302.063972882
 10
494.4981371119
 20
302.234980799
 10
494.6728817094
 20
302.4367584798
 10
494.8209789097
 20
302.6651983128
 10
494.9394138809
 20
302.9156499217
 10
495.0257756286
 20
303.183014834
 10
495.0783060766
 20
303.4618502711
 10
495.0959358564
 20
303.7464799477
  0
LINE
  5
96
330
1F
100
AcDbEntity
  8
0
  6
Continuous
 62
     7
370
    15
100
AcDbLine
 10
494.3343693416
 20
323.4030467739
 30
0.0
 11
489.9441894441
 21
326.8323082768
 31
0.0
  0
ARC
  5
97
330
1F
100
AcDbEntity
  8
0
  6
Continuous
 62
     7
370
    15
100
AcDbCircle
 10
492.851228247
 20
304.2374611153
 30
0.0
 40
0.5266509116351568
100
AcDbArc
 50
179.0187688322
 51
229.5105816457
  0
LINE
  5
98
330
1F
100
AcDbEntity
  8
0
  6
Continuous
 62
     7
370
    15
100
AcDbLine
 10
492.3246545643
 20
304.2464799477
 30
0.0
 11
492.3246545643
 21
304.3018034417
 31
0.0
  0
ARC
  5
99
330
1F
100
AcDbEntity
  8
0
  6
Continuous
 62
     7
370
    15
100
AcDbCircle
 10
491.2799291894
 20
328.449721606
 30
0.0
 40
2.097671696105028
100
AcDbArc
 50
178.9304997456
 51
230.4484248318
  0
LINE
  5
9A
330
1F
100
AcDbEntity
  8
0
  6
Continuous
 62
     7
370
    15
100
AcDbLine
 10
489.1826229294
 20
328.488875103
 30
0.0
 11
489.1826229294
 21
334.0618034417
 31
0.0
  0
LINE
  5
9B
330
1F
100
AcDbEntity
  8
0
  6
Continuous
 62
     7
370
    15
100
AcDbLine
 10
477.1069476389
 20
332.7218034417
 30
0.0
 11
477.1069476389
 21
327.4271838381
 31
0.0
  0
ARC
  5
9C
330
1F
100
AcDbEntity
  8
0
  6
Continuous
 62
     7
370
    15
100
AcDbCircle
 10
475.0096413789
 20
327.3880303411
 30
0.0
 40
2.097671696105676
100
AcDbArc
 50
309.5515751682
 51
1.0695002544
  0
LINE
  5
9D
330
1F
100
AcDbEntity
  8
0
  6
Continuous
 62
     7
370
    15
100
AcDbLine
 10
476.3453811241
 20
325.7706170119
 30
0.0
 11
471.9552012267
 21
322.341355509
 31
0.0
  0
ARC
  5
9E
330
1F
100
AcDbEntity
  8
0
  6
Continuous
 62
     7
370
    15
100
AcDbCircle
 10
473.2909409719
 20
320.7239421798
 30
0.0
 40
2.097671696104918
100
AcDbArc
 50
129.5515751682
 51
181.0695002544
  0
LINE
  5
9F
330
1F
100
AcDbEntity
  8
0
  6
Continuous
 62
     7
370
    15
100
AcDbLine
 10
471.1936347119
 20
320.6847886828
 30
0.0
 11
471.1936347119
 21
304.2464799477
 31
0.0
  0
ARC
  5
A0
330
1F
100
AcDbEntity
  8
0
  6
Continuous
 62
     7
370
    15
100
AcDbCircle
 10
471.6627318056
 20
304.2152299477
 30
0.0
 40
0.4701368373500938
100
AcDbArc
 50
176.1887389506
 51
265.5980503477
  0
LINE
  5
A1
330
1F
100
AcDbEntity
  8
0
  6
Continuous
 62
     7
370
    15
100
AcDbLine
 10
471.6266474138
 20
303.7464799477
 30
0.0
 11
471.7998524946
 21
303.7464799477
 31
0.0
  0
ARC
  5
A2
330
1F
100
AcDbEntity
  8
0
  6
Continuous
 62
     7
370
    15
100
AcDbCircle
 10
471.7637681027
 20
304.2152299477
 30
0.0
 40
0.4701368373498783
100
AcDbArc
 50
274.4019496523
 51
3.8112610495
  0
LINE
  5
A3
330
1F
100
AcDbEntity
  8
0
  6
Continuous
 62
     7
370
    15
100
AcDbLine
 10
472.2328651965
 20
304.2464799477
 30
0.0
 11
472.2328651965
 21
304.3018034417
 31
0.0
  0
LINE
  5
A4
330
1F
100
AcDbEntity
  8
0
  6
Continuous
 62
     7
370
    15
100
AcDbLine
 10
473.964916004
 20
304.3018034417
 30
0.0
 11
473.964916004
 21
303.7464799477
 31
0.0
  0
LWPOLYLINE
  5
A5
330
1F
100
AcDbEntity
  8
0
  6
Continuous
 62
     7
370
    15
100
AcDbPolyline
 90
       12
 70
   128
 43
0.0
 10
473.964916004
 20
303.7464799477
 10
473.9472862242
 20
303.4618502711
 10
473.8947557763
 20
303.183014834
 10
473.8083940286
 20
302.9156499217
 10
473.6899590574
 20
302.6651983128
 10
473.541861857
 20
302.4367584798
 10
473.3671172595
 20
302.234980799
 10
473.1692825609
 20
302.063972882
 10
472.9523851052
 20
301.927215957
 10
472.720840299
 20
301.8274940004
 10
472.479361727
 20
301.7668370639
 10
472.2328651965
 20
301.7464799477
  0
LINE
  5
A6
330
1F
100
AcDbEntity
  8
0
  6
Continuous
 62
     7
370
    15
100
AcDbLine
 10
472.2328651965
 20
301.7464799477
 30
0.0
 11
471.1936347119
 21
301.7464799477
 31
0.0
  0
LWPOLYLINE
  5
A7
330
1F
100
AcDbEntity
  8
0
  6
Continuous
 62
     7
370
    15
100
AcDbPolyline
 90
       12
 70
   128
 43
0.0
 10
471.1936347119
 20
301.7464799477
 10
470.9471381814
 20
301.7668370639
 10
470.7056596093
 20
301.8274940004
 10
470.4741148032
 20
301.927215957
 10
470.2572173474
 20
302.063972882
 10
470.0593826488
 20
302.234980799
 10
469.8846380513
 20
302.4367584798
 10
469.736540851
 20
302.6651983128
 10
469.6181058798
 20
302.9156499217
 10
469.5317441321
 20
303.183014834
 10
469.4792136842
 20
303.4618502711
 10
469.4615839043
 20
303.7464799477
  0
LINE
  5
A8
330
1F
100
AcDbEntity
  8
0
  6
Continuous
 62
     7
370
    15
100
AcDbLine
 10
469.4615839043
 20
303.7464799477
 30
0.0
 11
469.4615839043
 21
321.7464799477
 31
0.0
  0
ARC
  5
A9
330
1F
100
AcDbEntity
  8
0
  6
Continuous
 62
     7
370
    15
100
AcDbCircle
 10
471.5588901644
 20
321.7856334447
 30
0.0
 40
2.097671696105254
100
AcDbArc
 50
129.5515751682
 51
181.0695002544
  0
LINE
  5
AA
330
1F
100
AcDbEntity
  8
0
  6
Continuous
 62
     7
370
    15
100
AcDbLine
 10
470.2231504191
 20
323.4030467739
 30
0.0
 11
474.6133303166
 21
326.8323082768
 31
0.0
  0
ARC
  5
AB
330
1F
100
AcDbEntity
  8
0
  6
Continuous
 62
     7
370
    15
100
AcDbCircle
 10
473.2775905713
 20
328.449721606
 30
0.0
 40
2.097671696105197
100
AcDbArc
 50
309.5515751682
 51
1.0695002544
  0
LINE
  5
AC
330
1F
100
AcDbEntity
  8
0
  6
Continuous
 62
     7
370
    15
100
AcDbLine
 10
475.3748968313
 20
328.488875103
 30
0.0
 11
475.3748968313
 21
334.0618034417
 31
0.0
  0
LINE
  5
AD
330
1F
100
AcDbEntity
  8
0
  6
Continuous
 62
     7
370
    15
100
AcDbLine
 10
468.7915839043
 20
303.7464799477
 30
0.0
 11
468.7915839043
 21
321.7464799477
 31
0.0
  0
LINE
  5
AE
330
1F
100
AcDbEntity
  8
0
  6
Continuous
 62
     7
370
    15
100
AcDbLine
 10
470.5236347119
 20
301.7464799477
 30
0.0
 11
471.1936347119
 21
301.7464799477
 31
0.0
  0
LWPOLYLINE
  5
AF
330
1F
100
AcDbEntity
  8
0
  6
Continuous
 62
     7
370
    15
100
AcDbPolyline
 90
       12
 70
   128
 43
0.0
 10
470.5236347119
 20
301.7464799477
 10
470.2771381814
 20
301.7668370639
 10
470.0356596093
 20
301.8274940004
 10
469.8041148032
 20
301.927215957
 10
469.5872173474
 20
302.063972882
 10
469.3893826488
 20
302.234980799
 10
469.2146380513
 20
302.4367584798
 10
469.066540851
 20
302.6651983128
 10
468.9481058798
 20
302.9156499217
 10
468.8617441321
 20
303.183014834
 10
468.8092136842
 20
303.4618502711
 10
468.7915839043
 20
303.7464799477
  0
ARC
  5
B0
330
1F
100
AcDbEntity
  8
0
  6
Continuous
 62
     7
370
    15
100
AcDbCircle
 10
470.8888901644
 20
321.7856334447
 30
0.0
 40
2.097671696104942
100
AcDbArc
 50
129.5515751682
 51
181.0695002544
  0
LINE
  5
B1
330
1F
100
AcDbEntity
  8
0
  6
Continuous
 62
     7
370
    15
100
AcDbLine
 10
469.5531504191
 20
323.4030467739
 30
0.0
 11
473.9433303166
 21
326.8323082768
 31
0.0
  0
ARC
  5
B2
330
1F
100
AcDbEntity
  8
0
  6
Continuous
 62
     7
370
    15
100
AcDbCircle
 10
471.0362915137
 20
304.2374611153
 30
0.0
 40
0.5266509116294379
100
AcDbArc
 50
310.4894183495
 51
0.981231168
  0
LINE
  5
B3
330
1F
100
AcDbEntity
  8
0
  6
Continuous
 62
     7
370
    15
100
AcDbLine
 10
471.5628651965
 20
304.2464799477
 30
0.0
 11
471.5628651965
 21
304.3018034417
 31
0.0
  0
ARC
  5
B4
330
1F
100
AcDbEntity
  8
0
  6
Continuous
 62
     7
370
    15
100
AcDbCircle
 10
472.6075905713
 20
328.449721606
 30
0.0
 40
2.097671696105085
100
AcDbArc
 50
309.5515751682
 51
1.0695002544
  0
LINE
  5
B5
330
1F
100
AcDbEntity
  8
0
  6
Continuous
 62
     7
370
    15
100
AcDbLine
 10
474.7048968313
 20
328.488875103
 30
0.0
 11
474.7048968313
 21
334.0618034417
 31
0.0
  0
LINE
  5
B6
330
1F
100
AcDbEntity
  8
0
  6
Continuous
 62
     7
370
    15
100
AcDbLine
 10
481.2737598804
 20
321.7464799477
 30
0.0
 11
481.2737598804
 21
323.4030467739
 31
0.0
  0
LINE
  5
B7
330
1F
100
AcDbEntity
  8
0
  6
Continuous
 62
     7
370
    15
100
AcDbLine
 10
482.6137598804
 20
321.7464799477
 30
0.0
 11
482.6137598804
 21
323.4030467739
 31
0.0
  0
LINE
  5
B8
330
1F
100
AcDbEntity
  8
0
  6
Continuous
 62
     7
370
    15
100
AcDbLine
 10
481.2737598804
 20
301.7464799477
 30
0.0
 11
482.6137598804
 21
301.7464799477
 31
0.0
  0
LINE
  5
B9
330
1F
100
AcDbEntity
  8
0
  6
Continuous
 62
     7
370
    15
100
AcDbLine
 10
481.2737598804
 20
301.7464799477
 30
0.0
 11
481.2737598804
 21
303.7464799477
 31
0.0
  0
LINE
  5
BA
330
1F
100
AcDbEntity
  8
0
  6
Continuous
 62
     7
370
    15
100
AcDbLine
 10
482.6137598804
 20
301.7464799477
 30
0.0
 11
482.6137598804
 21
303.7464799477
 31
0.0
  0
LINE
  5
BB
330
1F
100
AcDbEntity
  8
0
  6
Continuous
 62
     7
370
    15
100
AcDbLine
 10
481.2737598804
 20
303.7464799477
 30
0.0
 11
481.2737598804
 21
321.7464799477
 31
0.0
  0
LINE
  5
BC
330
1F
100
AcDbEntity
  8
0
  6
Continuous
 62
     7
370
    15
100
AcDbLine
 10
482.6137598804
 20
303.7464799477
 30
0.0
 11
482.6137598804
 21
321.7464799477
 31
0.0
  0
LINE
  5
BD
330
1F
100
AcDbEntity
  8
0
  6
Continuous
 62
     7
370
    15
100
AcDbLine
 10
481.2737598804
 20
323.4030467739
 30
0.0
 11
481.2737598804
 21
326.8323082768
 31
0.0
  0
LINE
  5
BE
330
1F
100
AcDbEntity
  8
0
  6
Continuous
 62
     7
370
    15
100
AcDbLine
 10
482.6137598804
 20
323.4030467739
 30
0.0
 11
482.6137598804
 21
326.8323082768
 31
0.0
  0
LINE
  5
BF
330
1F
100
AcDbEntity
  8
0
  6
Continuous
 62
     7
370
    15
100
AcDbLine
 10
481.2737598804
 20
326.8323082768
 30
0.0
 11
481.2737598804
 21
328.488875103
 31
0.0
  0
LINE
  5
C0
330
1F
100
AcDbEntity
  8
0
  6
Continuous
 62
     7
370
    15
100
AcDbLine
 10
482.6137598804
 20
326.8323082768
 30
0.0
 11
482.6137598804
 21
328.488875103
 31
0.0
  0
LINE
  5
C1
330
1F
100
AcDbEntity
  8
0
  6
Continuous
 62
     7
370
    15
100
AcDbLine
 10
481.2737598804
 20
328.488875103
 30
0.0
 11
481.2737598804
 21
334.0618034417
 31
0.0
  0
LINE
  5
C2
330
1F
100
AcDbEntity
  8
0
  6
Continuous
 62
     7
370
    15
100
AcDbLine
 10
482.6137598804
 20
328.488875103
 30
0.0
 11
482.6137598804
 21
334.0618034417
 31
0.0
  0
LINE
  5
C3
330
1F
100
AcDbEntity
  8
0
  6
Continuous
 62
     7
370
    15
100
AcDbLine
 10
482.6137598804
 20
334.0618034417
 30
0.0
 11
482.6137598804
 21
332.7218034417
 31
0.0
  0
LINE
  5
C4
330
1F
100
AcDbEntity
  8
0
  6
Continuous
 62
     7
370
    15
100
AcDbLine
 10
488.5126229294
 20
334.0618034417
 30
0.0
 11
488.5126229294
 21
332.7218034417
 31
0.0
  0
LINE
  5
C5
330
1F
100
AcDbEntity
  8
0
  6
Continuous
 62
     7
370
    15
100
AcDbLine
 10
482.6137598804
 20
334.0618034417
 30
0.0
 11
488.5126229294
 21
334.0618034417
 31
0.0
  0
LINE
  5
C6
330
1F
100
AcDbEntity
  8
0
  6
Continuous
 62
     7
370
    15
100
AcDbLine
 10
482.6137598804
 20
332.7218034417
 30
0.0
 11
488.5126229294
 21
332.7218034417
 31
0.0
  0
LINE
  5
C7
330
1F
100
AcDbEntity
  8
0
  6
Continuous
 62
     7
370
    15
100
AcDbLine
 10
475.3748968313
 20
334.0618034417
 30
0.0
 11
475.3748968313
 21
332.7218034417
 31
0.0
  0
LINE
  5
C8
330
1F
100
AcDbEntity
  8
0
  6
Continuous
 62
     7
370
    15
100
AcDbLine
 10
481.2737598804
 20
334.0618034417
 30
0.0
 11
481.2737598804
 21
332.7218034417
 31
0.0
  0
LINE
  5
C9
330
1F
100
AcDbEntity
  8
0
  6
Continuous
 62
     7
370
    15
100
AcDbLine
 10
475.3748968313
 20
334.0618034417
 30
0.0
 11
481.2737598804
 21
334.0618034417
 31
0.0
  0
LINE
  5
CA
330
1F
100
AcDbEntity
  8
0
  6
Continuous
 62
     7
370
    15
100
AcDbLine
 10
475.3748968313
 20
332.7218034417
 30
0.0
 11
481.2737598804
 21
332.7218034417
 31
0.0
  0
LINE
  5
CB
330
1F
100
AcDbEntity
  8
0
  6
Continuous
 62
     7
370
    15
100
AcDbLine
 10
474.7048968313
 20
334.0618034417
 30
0.0
 11
474.7048968313
 21
332.7218034417
 31
0.0
  0
LINE
  5
CC
330
1F
100
AcDbEntity
  8
0
  6
Continuous
 62
     7
370
    15
100
AcDbLine
 10
473.9437598804
 20
334.0618034417
 30
0.0
 11
474.7048968313
 21
334.0618034417
 31
0.0
  0
LINE
  5
CD
330
1F
100
AcDbEntity
  8
0
  6
Continuous
 62
     7
370
    15
100
AcDbLine
 10
473.9437598804
 20
332.7218034417
 30
0.0
 11
474.7048968313
 21
332.7218034417
 31
0.0
  0
LINE
  5
CE
330
1F
100
AcDbEntity
  8
0
  6
Continuous
 62
     7
370
    15
100
AcDbLine
 10
489.1826229294
 20
334.0618034417
 30
0.0
 11
489.1826229294
 21
332.7218034417
 31
0.0
  0
LINE
  5
CF
330
1F
100
AcDbEntity
  8
0
  6
Continuous
 62
     7
370
    15
100
AcDbLine
 10
489.1826229294
 20
334.0618034417
 30
0.0
 11
489.9437598804
 21
334.0618034417
 31
0.0
  0
LINE
  5
D0
330
1F
100
AcDbEntity
  8
0
  6
Continuous
 62
     7
370
    15
100
AcDbLine
 10
489.1826229294
 20
332.7218034417
 30
0.0
 11
489.9437598804
 21
332.7218034417
 31
0.0
  0
ARC
  5
D1
330
1F
100
AcDbEntity
  8
0
  6
Continuous
 62
     7
370
    15
100
AcDbCircle
 10
481.9437598804
 20
533.1986878472
 30
0.0
 40
12.72000000000006
100
AcDbArc
 50
247.6669564285
 51
266.9806646682
  0
ARC
  5
D2
330
1F
100
AcDbEntity
  8
0
  6
Continuous
 62
     7
370
    15
100
AcDbCircle
 10
481.9437598804
 20
533.1986878472
 30
0.0
 40
12.71999999999999
100
AcDbArc
 50
273.0193353318
 51
326.9806646682
  0
ARC
  5
D3
330
1F
100
AcDbEntity
  8
0
  6
Continuous
 62
     7
370
    15
100
AcDbCircle
 10
481.9437598804
 20
533.1986878472
 30
0.0
 40
12.71999999999997
100
AcDbArc
 50
333.0193353318
 51
26.9806646682
  0
ARC
  5
D4
330
1F
100
AcDbEntity
  8
0
  6
Continuous
 62
     7
370
    15
100
AcDbCircle
 10
481.9437598804
 20
533.1986878472
 30
0.0
 40
12.7200000000001
100
AcDbArc
 50
33.0193353318
 51
86.9806646682
  0
ARC
  5
D5
330
1F
100
AcDbEntity
  8
0
  6
Continuous
 62
     7
370
    15
100
AcDbCircle
 10
481.9437598804
 20
533.1986878472
 30
0.0
 40
12.7200000000001
100
AcDbArc
 50
93.0193353318
 51
146.9806646682
  0
ARC
  5
D6
330
1F
100
AcDbEntity
  8
0
  6
Continuous
 62
     7
370
    15
100
AcDbCircle
 10
481.9437598804
 20
533.1986878472
 30
0.0
 40
12.72000000000002
100
AcDbArc
 50
153.0193353318
 51
206.9806646682
  0
ARC
  5
D7
330
1F
100
AcDbEntity
  8
0
  6
Continuous
 62
     7
370
    15
100
AcDbCircle
 10
481.9437598804
 20
533.1986878472
 30
0.0
 40
12.72000000000006
100
AcDbArc
 50
213.0193353318
 51
247.6669564285
  0
CIRCLE
  5
D8
330
1F
100
AcDbEntity
  8
0
  6
Continuous
 62
     7
370
    15
100
AcDbCircle
 10
481.9437598804
 20
533.1986878472
 30
0.0
 40
1.0
  0
CIRCLE
  5
D9
330
1F
100
AcDbEntity
  8
0
  6
Continuous
 62
     7
370
    15
100
AcDbCircle
 10
481.9437598804
 20
533.1986878472
 30
0.0
 40
8.0
  0
ARC
  5
DA
330
1F
100
AcDbEntity
  8
0
  6
Continuous
 62
     7
370
    15
100
AcDbCircle
 10
481.9437598804
 20
533.1986878472
 30
0.0
 40
12.00000000000004
100
AcDbArc
 50
33.2006787726
 51
67.6669564285
  0
ARC
  5
DB
330
1F
100
AcDbEntity
  8
0
  6
Continuous
 62
     7
370
    15
100
AcDbCircle
 10
481.9437598804
 20
533.1986878472
 30
0.0
 40
11.99999999999999
100
AcDbArc
 50
333.2006787726
 51
26.7993212274
  0
ARC
  5
DC
330
1F
100
AcDbEntity
  8
0
  6
Continuous
 62
     7
370
    15
100
AcDbCircle
 10
481.9437598804
 20
533.1986878472
 30
0.0
 40
11.99999999999995
100
AcDbArc
 50
273.2006787726
 51
326.7993212274
  0
ARC
  5
DD
330
1F
100
AcDbEntity
  8
0
  6
Continuous
 62
     7
370
    15
100
AcDbCircle
 10
481.9437598804
 20
533.1986878472
 30
0.0
 40
11.99999999999994
100
AcDbArc
 50
213.2006787726
 51
266.7993212274
  0
ARC
  5
DE
330
1F
100
AcDbEntity
  8
0
  6
Continuous
 62
     7
370
    15
100
AcDbCircle
 10
481.9437598804
 20
533.1986878472
 30
0.0
 40
11.99999999999999
100
AcDbArc
 50
153.2006787726
 51
206.7993212274
  0
ARC
  5
DF
330
1F
100
AcDbEntity
  8
0
  6
Continuous
 62
     7
370
    15
100
AcDbCircle
 10
481.9437598804
 20
533.1986878472
 30
0.0
 40
12.00000000000013
100
AcDbArc
 50
93.2006787726
 51
146.7993212274
  0
ARC
  5
E0
330
1F
100
AcDbEntity
  8
0
  6
Continuous
 62
     7
370
    15
100
AcDbCircle
 10
481.9437598804
 20
533.1986878472
 30
0.0
 40
12.00000000000013
100
AcDbArc
 50
67.6669564285
 51
86.7993212274
  0
ARC
  5
E1
330
1F
100
AcDbEntity
  8
0
  6
Continuous
 62
     7
370
    15
100
AcDbCircle
 10
481.9437598804
 20
533.1986878472
 30
0.0
 40
12.16000000000007
100
AcDbArc
 50
33.1585215796
 51
67.6669564285
  0
ARC
  5
E2
330
1F
100
AcDbEntity
  8
0
  6
Continuous
 62
     7
370
    15
100
AcDbCircle
 10
481.9437598804
 20
533.1986878472
 30
0.0
 40
12.15999999999998
100
AcDbArc
 50
333.1585215796
 51
26.8414784203
  0
ARC
  5
E3
330
1F
100
AcDbEntity
  8
0
  6
Continuous
 62
     7
370
    15
100
AcDbCircle
 10
481.9437598804
 20
533.1986878472
 30
0.0
 40
12.15999999999997
100
AcDbArc
 50
273.1585215797
 51
326.8414784204
  0
ARC
  5
E4
330
1F
100
AcDbEntity
  8
0
  6
Continuous
 62
     7
370
    15
100
AcDbCircle
 10
481.9437598804
 20
533.1986878472
 30
0.0
 40
12.16
100
AcDbArc
 50
213.1585215797
 51
266.8414784204
  0
ARC
  5
E5
330
1F
100
AcDbEntity
  8
0
  6
Continuous
 62
     7
370
    15
100
AcDbCircle
 10
481.9437598804
 20
533.1986878472
 30
0.0
 40
12.15999999999998
100
AcDbArc
 50
153.1585215796
 51
206.8414784204
  0
ARC
  5
E6
330
1F
100
AcDbEntity
  8
0
  6
Continuous
 62
     7
370
    15
100
AcDbCircle
 10
481.9437598804
 20
533.1986878472
 30
0.0
 40
12.15999999999996
100
AcDbArc
 50
93.1585215796
 51
146.8414784204
  0
ARC
  5
E7
330
1F
100
AcDbEntity
  8
0
  6
Continuous
 62
     7
370
    15
100
AcDbCircle
 10
481.9437598804
 20
533.1986878472
 30
0.0
 40
12.16000000000008
100
AcDbArc
 50
67.6669564285
 51
86.8414784204
  0
LINE
  5
E8
330
1F
100
AcDbEntity
  8
0
  6
Continuous
 62
     7
370
    15
100
AcDbLine
 10
489.2741894441
 20
528.1928130045
 30
0.0
 11
488.5126229294
 21
528.6325036368
 31
0.0
  0
LINE
  5
E9
330
1F
100
AcDbEntity
  8
0
  6
Continuous
 62
     7
370
    15
100
AcDbLine
 10
489.9441894441
 20
529.3532870456
 30
0.0
 11
489.1826229294
 21
529.7929776779
 31
0.0
  0
LINE
  5
EA
330
1F
100
AcDbEntity
  8
0
  6
Continuous
 62
     7
370
    15
100
AcDbLine
 10
493.6643693416
 20
525.6581414589
 30
0.0
 11
489.2741894441
 21
528.1928130045
 31
0.0
  0
LINE
  5
EB
330
1F
100
AcDbEntity
  8
0
  6
Continuous
 62
     7
370
    15
100
AcDbLine
 10
494.3343693416
 20
526.8186155
 30
0.0
 11
489.9441894441
 21
529.3532870456
 31
0.0
  0
LINE
  5
EC
330
1F
100
AcDbEntity
  8
0
  6
Continuous
 62
     7
370
    15
100
AcDbLine
 10
494.4259358564
 20
525.2184508266
 30
0.0
 11
495.0959358564
 21
526.3789248677
 31
0.0
  0
LINE
  5
ED
330
1F
100
AcDbEntity
  8
0
  6
Continuous
 62
     7
370
    15
100
AcDbLine
 10
494.4259358564
 20
525.2184508266
 30
0.0
 11
493.6643693416
 21
525.6581414589
 31
0.0
  0
LINE
  5
EE
330
1F
100
AcDbEntity
  8
0
  6
Continuous
 62
     7
370
    15
100
AcDbLine
 10
495.0959358564
 20
526.3789248677
 30
0.0
 11
494.3343693416
 21
526.8186155
 31
0.0
  0
LINE
  5
EF
330
1F
100
AcDbEntity
  8
0
  6
Continuous
 62
     7
370
    15
100
AcDbLine
 10
473.9433303166
 20
537.0440886487
 30
0.0
 11
474.7048968313
 21
536.6043980164
 31
0.0
  0
LINE
  5
F0
330
1F
100
AcDbEntity
  8
0
  6
Continuous
 62
     7
370
    15
100
AcDbLine
 10
474.6133303166
 20
538.2045626898
 30
0.0
 11
475.3748968313
 21
537.7648720575
 31
0.0
  0
LINE
  5
F1
330
1F
100
AcDbEntity
  8
0
  6
Continuous
 62
     7
370
    15
100
AcDbLine
 10
469.5531504191
 20
539.5787601943
 30
0.0
 11
473.9433303166
 21
537.0440886487
 31
0.0
  0
LINE
  5
F2
330
1F
100
AcDbEntity
  8
0
  6
Continuous
 62
     7
370
    15
100
AcDbLine
 10
470.2231504191
 20
540.7392342354
 30
0.0
 11
474.6133303166
 21
538.2045626898
 31
0.0
  0
LINE
  5
F3
330
1F
100
AcDbEntity
  8
0
  6
Continuous
 62
     7
370
    15
100
AcDbLine
 10
469.4615839043
 20
541.1789248677
 30
0.0
 11
468.7915839043
 21
540.0184508266
 31
0.0
  0
LINE
  5
F4
330
1F
100
AcDbEntity
  8
0
  6
Continuous
 62
     7
370
    15
100
AcDbLine
 10
468.7915839043
 20
540.0184508266
 30
0.0
 11
469.5531504191
 21
539.5787601943
 31
0.0
  0
LINE
  5
F5
330
1F
100
AcDbEntity
  8
0
  6
Continuous
 62
     7
370
    15
100
AcDbLine
 10
469.4615839043
 20
541.1789248677
 30
0.0
 11
470.2231504191
 21
540.7392342354
 31
0.0
  0
LINE
  5
F6
330
1F
100
AcDbEntity
  8
0
  6
Continuous
 62
     7
370
    15
100
AcDbLine
 10
474.6133303166
 20
528.1928130045
 30
0.0
 11
475.3748968313
 21
528.6325036368
 31
0.0
  0
LINE
  5
F7
330
1F
100
AcDbEntity
  8
0
  6
Continuous
 62
     7
370
    15
100
AcDbLine
 10
473.9433303166
 20
529.3532870456
 30
0.0
 11
474.7048968313
 21
529.7929776779
 31
0.0
  0
LINE
  5
F8
330
1F
100
AcDbEntity
  8
0
  6
Continuous
 62
     7
370
    15
100
AcDbLine
 10
470.2231504191
 20
525.6581414589
 30
0.0
 11
474.6133303166
 21
528.1928130045
 31
0.0
  0
LINE
  5
F9
330
1F
100
AcDbEntity
  8
0
  6
Continuous
 62
     7
370
    15
100
AcDbLine
 10
469.5531504191
 20
526.8186155
 30
0.0
 11
473.9433303166
 21
529.3532870456
 31
0.0
  0
LINE
  5
FA
330
1F
100
AcDbEntity
  8
0
  6
Continuous
 62
     7
370
    15
100
AcDbLine
 10
468.7915839043
 20
526.3789248677
 30
0.0
 11
469.4615839043
 21
525.2184508266
 31
0.0
  0
LINE
  5
FB
330
1F
100
AcDbEntity
  8
0
  6
Continuous
 62
     7
370
    15
100
AcDbLine
 10
469.4615839043
 20
525.2184508266
 30
0.0
 11
470.2231504191
 21
525.6581414589
 31
0.0
  0
LINE
  5
FC
330
1F
100
AcDbEntity
  8
0
  6
Continuous
 62
     7
370
    15
100
AcDbLine
 10
468.7915839043
 20
526.3789248677
 30
0.0
 11
469.5531504191
 21
526.8186155
 31
0.0
  0
LINE
  5
FD
330
1F
100
AcDbEntity
  8
0
  6
Continuous
 62
     7
370
    15
100
AcDbLine
 10
481.2737598804
 20
542.0499634914
 30
0.0
 11
481.2737598804
 21
541.1705822268
 31
0.0
  0
LINE
  5
FE
330
1F
100
AcDbEntity
  8
0
  6
Continuous
 62
     7
370
    15
100
AcDbLine
 10
482.6137598804
 20
542.0499634914
 30
0.0
 11
482.6137598804
 21
541.1705822268
 31
0.0
  0
LINE
  5
FF
330
1F
100
AcDbEntity
  8
0
  6
Continuous
 62
     7
370
    15
100
AcDbLine
 10
481.2737598804
 20
547.1193065826
 30
0.0
 11
481.2737598804
 21
542.0499634914
 31
0.0
  0
LINE
  5
100
330
1F
100
AcDbEntity
  8
0
  6
Continuous
 62
     7
370
    15
100
AcDbLine
 10
482.6137598804
 20
547.1193065826
 30
0.0
 11
482.6137598804
 21
542.0499634914
 31
0.0
  0
LINE
  5
101
330
1F
100
AcDbEntity
  8
0
  6
Continuous
 62
     7
370
    15
100
AcDbLine
 10
482.6137598804
 20
547.9986878472
 30
0.0
 11
481.2737598804
 21
547.9986878472
 31
0.0
  0
LINE
  5
102
330
1F
100
AcDbEntity
  8
0
  6
Continuous
 62
     7
370
    15
100
AcDbLine
 10
481.2737598804
 20
547.9986878472
 30
0.0
 11
481.2737598804
 21
547.1193065826
 31
0.0
  0
LINE
  5
103
330
1F
100
AcDbEntity
  8
0
  6
Continuous
 62
     7
370
    15
100
AcDbLine
 10
482.6137598804
 20
547.9986878472
 30
0.0
 11
482.6137598804
 21
547.1193065826
 31
0.0
  0
LINE
  5
104
330
1F
100
AcDbEntity
  8
0
  6
Continuous
 62
     7
370
    15
100
AcDbLine
 10
489.9441894441
 20
537.0440886487
 30
0.0
 11
489.1826229294
 21
536.6043980164
 31
0.0
  0
LINE
  5
105
330
1F
100
AcDbEntity
  8
0
  6
Continuous
 62
     7
370
    15
100
AcDbLine
 10
489.2741894441
 20
538.2045626898
 30
0.0
 11
488.5126229294
 21
537.7648720575
 31
0.0
  0
LINE
  5
106
330
1F
100
AcDbEntity
  8
0
  6
Continuous
 62
     7
370
    15
100
AcDbLine
 10
494.3343693416
 20
539.5787601943
 30
0.0
 11
489.9441894441
 21
537.0440886487
 31
0.0
  0
LINE
  5
107
330
1F
100
AcDbEntity
  8
0
  6
Continuous
 62
     7
370
    15
100
AcDbLine
 10
493.6643693416
 20
540.7392342354
 30
0.0
 11
489.2741894441
 21
538.2045626898
 31
0.0
  0
LINE
  5
108
330
1F
100
AcDbEntity
  8
0
  6
Continuous
 62
     7
370
    15
100
AcDbLine
 10
495.0959358564
 20
540.0184508266
 30
0.0
 11
494.4259358564
 21
541.1789248677
 31
0.0
  0
LINE
  5
109
330
1F
100
AcDbEntity
  8
0
  6
Continuous
 62
     7
370
    15
100
AcDbLine
 10
495.0959358564
 20
540.0184508266
 30
0.0
 11
494.3343693416
 21
539.5787601943
 31
0.0
  0
LINE
  5
10A
330
1F
100
AcDbEntity
  8
0
  6
Continuous
 62
     7
370
    15
100
AcDbLine
 10
494.4259358564
 20
541.1789248677
 30
0.0
 11
493.6643693416
 21
540.7392342354
 31
0.0
  0
LINE
  5
10B
330
1F
100
AcDbEntity
  8
0
  6
Continuous
 62
     7
370
    15
100
AcDbLine
 10
481.2737598804
 20
524.3474122029
 30
0.0
 11
481.2737598804
 21
525.2267934675
 31
0.0
  0
LINE
  5
10C
330
1F
100
AcDbEntity
  8
0
  6
Continuous
 62
     7
370
    15
100
AcDbLine
 10
482.6137598804
 20
524.3474122029
 30
0.0
 11
482.6137598804
 21
525.2267934675
 31
0.0
  0
LINE
  5
10D
330
1F
100
AcDbEntity
  8
0
  6
Continuous
 62
     7
370
    15
100
AcDbLine
 10
481.2737598804
 20
519.2780691118
 30
0.0
 11
481.2737598804
 21
524.3474122029
 31
0.0
  0
LINE
  5
10E
330
1F
100
AcDbEntity
  8
0
  6
Continuous
 62
     7
370
    15
100
AcDbLine
 10
482.6137598804
 20
519.2780691118
 30
0.0
 11
482.6137598804
 21
524.3474122029
 31
0.0
  0
LINE
  5
10F
330
1F
100
AcDbEntity
  8
0
  6
Continuous
 62
     7
370
    15
100
AcDbLine
 10
481.2737598804
 20
518.3986878472
 30
0.0
 11
482.6137598804
 21
518.3986878472
 31
0.0
  0
LINE
  5
110
330
1F
100
AcDbEntity
  8
0
  6
Continuous
 62
     7
370
    15
100
AcDbLine
 10
481.2737598804
 20
518.3986878472
 30
0.0
 11
481.2737598804
 21
519.2780691118
 31
0.0
  0
LINE
  5
111
330
1F
100
AcDbEntity
  8
0
  6
Continuous
 62
     7
370
    15
100
AcDbLine
 10
482.6137598804
 20
518.3986878472
 30
0.0
 11
482.6137598804
 21
519.2780691118
 31
0.0
  0
LINE
  5
112
330
1F
100
AcDbEntity
  8
0
  6
Continuous
 62
     7
370
    15
100
AcDbLine
 10
701.8049358765
 20
550.7498151659
 30
0.0
 11
701.8049358765
 21
551.8439798538
 31
0.0
  0
LINE
  5
113
330
1F
100
AcDbEntity
  8
0
  6
Continuous
 62
     7
370
    15
100
AcDbLine
 10
685.8049358765
 20
551.8439798538
 30
0.0
 11
685.8049358765
 21
550.7498151659
 31
0.0
  0
ARC
  5
114
330
1F
100
AcDbEntity
  8
0
  6
Continuous
 62
     7
370
    15
100
AcDbCircle
 10
699.8640059967
 20
539.6953376182
 30
0.0
 40
5.989421006384507
100
AcDbArc
 50
20.0042791554
 51
36.1878087463
  0
ARC
  5
115
330
1F
100
AcDbEntity
  8
0
  6
Continuous
 62
     7
370
    15
100
AcDbCircle
 10
686.9495068496
 20
540.0226684747
 30
0.0
 40
5.138203691914515
100
AcDbArc
 50
147.2872418981
 51
180.5152080333
  0
ARC
  5
116
330
1F
100
AcDbEntity
  8
0
  6
Continuous
 62
     7
370
    15
100
AcDbCircle
 10
697.6949672748
 20
537.9405558759
 30
0.0
 40
8.777151722541355
100
AcDbArc
 50
37.0729241309
 51
63.008113423
  0
LINE
  5
117
330
1F
100
AcDbEntity
  8
0
  6
Continuous
 62
     7
370
    15
100
AcDbLine
 10
705.8049358765
 20
526.7925077452
 30
0.0
 11
705.8049358765
 21
538.2773398378
 31
0.0
  0
LINE
  5
118
330
1F
100
AcDbEntity
  8
0
  6
Continuous
 62
     7
370
    15
100
AcDbLine
 10
681.8049358765
 20
539.9801701493
 30
0.0
 11
681.8049358765
 21
526.7925077452
 31
0.0
  0
LINE
  5
119
330
1F
100
AcDbEntity
  8
0
  6
Continuous
 62
     7
370
    15
100
AcDbLine
 10
699.0049358765
 20
545.1233206798
 30
0.0
 11
699.0049358765
 21
546.1460450373
 31
0.0
  0
LWPOLYLINE
  5
11A
330
1F
100
AcDbEntity
  8
0
  6
Continuous
 62
     7
370
    15
100
AcDbPolyline
 90
       15
 70
   128
 43
0.0
 10
681.8049358765
 20
529.2911524236
 10
681.6358073808
 20
528.997100895
 10
681.4142753276
 20
528.505416308
 10
681.2492029535
 20
528.0066138231
 10
681.140988912
 20
527.5034082358
 10
681.0896227008
 20
526.9983034767
 10
681.0948308878
 20
526.4935183972
 10
681.1562271306
 20
525.9910462609
 10
681.2733154549
 20
525.4930290052
 10
681.4456246526
 20
525.0011578372
 10
681.6726689045
 20
524.5171904978
 10
681.9538191371
 20
524.043050096
 10
682.2881618382
 20
523.5808383429
 10
682.6744019966
 20
523.132772505
 10
682.8659939716
 20
522.9432641458
  0
LWPOLYLINE
  5
11B
330
1F
100
AcDbEntity
  8
0
  6
Continuous
 62
     7
370
    15
100
AcDbPolyline
 90
       17
 70
   128
 43
0.0
 10
685.2277306207
 20
521.2267168949
 10
685.3130117251
 20
521.1785980994
 10
685.964268743
 20
520.8577002655
 10
686.6499329694
 20
520.5635530816
 10
687.3669022769
 20
520.297316414
 10
688.1119757857
 20
520.0600282429
 10
688.8818588973
 20
519.8526086348
 10
689.6731697142
 20
519.6758605256
 10
690.482447373
 20
519.5304685075
 10
691.3061623024
 20
519.4169965904
 10
692.1407281772
 20
519.3358856554
 10
692.9825152466
 20
519.2874510976
 10
693.8278646989
 20
519.2718809853
 10
694.6731037359
 20
519.2892349492
 10
695.5145481949
 20
519.3394429039
 10
696.3485329362
 20
519.4223049055
 10
696.4706493502
 20
519.4393986988
  0
LWPOLYLINE
  5
11C
330
1F
100
AcDbEntity
  8
0
  6
Continuous
 62
     7
370
    15
100
AcDbPolyline
 90
       16
 70
   128
 43
0.0
 10
698.2826280476
 20
519.752955064
 10
698.7697828784
 20
519.8629377149
 10
699.5382807086
 20
520.0719347572
 10
700.2818387194
 20
520.3107563212
 10
700.9972089154
 20
520.5784990565
 10
701.6812483971
 20
520.8741578051
 10
702.3309241236
 20
521.1966284423
 10
702.9433147603
 20
521.5447076753
 10
703.5156100025
 20
521.917087748
 10
704.0450977117
 20
522.3123346078
 10
704.5291224424
 20
522.7288189963
 10
704.9652082738
 20
523.1647609959
 10
705.3510396246
 20
523.6181609035
 10
705.6845206837
 20
524.0867701029
 10
705.9638616897
 20
524.5680907733
 10
705.9953776928
 20
524.6372771283
  0
LWPOLYLINE
  5
11D
330
1F
100
AcDbEntity
  8
0
  6
Continuous
 62
     7
370
    15
100
AcDbPolyline
 90
        3
 70
   128
 43
0.0
 10
705.9953776928
 20
528.9451772253
 10
705.9475029396
 20
529.0483092874
 10
705.8049358765
 20
529.2908477673
  0
LINE
  5
11E
330
1F
100
AcDbEntity
  8
0
  6
Continuous
 62
     7
370
    15
100
AcDbLine
 10
696.7763808938
 20
516.7820166273
 30
0.0
 11
698.070721501
 21
516.9822301202
 31
0.0
  0
LINE
  5
11F
330
1F
100
AcDbEntity
  8
0
  6
Continuous
 62
     7
370
    15
100
AcDbLine
 10
679.8003834203
 20
543.8219643945
 30
0.0
 11
679.4535658998
 21
543.0747574667
 31
0.0
  0
LINE
  5
120
330
1F
100
AcDbEntity
  8
0
  6
Continuous
 62
     7
370
    15
100
AcDbLine
 10
704.3295829517
 20
547.3774638444
 30
0.0
 11
703.3820598649
 21
547.9244572793
 31
0.0
  0
LINE
  5
121
330
1F
100
AcDbEntity
  8
0
  6
Continuous
 62
     7
370
    15
100
AcDbLine
 10
707.8094883328
 20
522.8680028344
 30
0.0
 11
708.1563058532
 21
523.6152097622
 31
0.0
  0
LINE
  5
122
330
1F
100
AcDbEntity
  8
0
  6
Continuous
 62
     7
370
    15
100
AcDbLine
 10
683.2802888013
 20
519.3125033845
 30
0.0
 11
684.2278118881
 21
518.7655099496
 31
0.0
  0
LINE
  5
123
330
1F
100
AcDbEntity
  8
0
  6
Continuous
 62
     7
370
    15
100
AcDbLine
 10
685.8049358765
 20
550.7498151659
 30
0.0
 11
685.8049358765
 21
549.655650478
 31
0.0
  0
LINE
  5
124
330
1F
100
AcDbEntity
  8
0
  6
Continuous
 62
     7
370
    15
100
AcDbLine
 10
701.8049358765
 20
549.655650478
 30
0.0
 11
701.8049358765
 21
550.7498151659
 31
0.0
  0
LWPOLYLINE
  5
125
330
1F
100
AcDbEntity
  8
0
  6
Continuous
 62
     7
370
    15
100
AcDbPolyline
 90
       28
 70
   128
 43
0.0
 10
688.148081627
 20
547.4841827186
 10
688.6701712745
 20
547.2083447821
 10
689.2324474169
 20
546.9602236531
 10
689.8305094811
 20
546.7417612158
 10
690.4596768206
 20
546.554667235
 10
691.1150253479
 20
546.4004059747
 10
691.7914260722
 20
546.2801847385
 10
692.4835852407
 20
546.1949444206
 10
693.1860857695
 20
546.1453521419
 10
693.8934296394
 20
546.1317960294
 10
694.6000809257
 20
546.1543821779
 10
695.3005091239
 20
546.2129338203
 10
695.9892324336
 20
546.3069927106
 10
696.6608606612
 20
546.4358227104
 10
697.3101374051
 20
546.5984155502
 10
697.9319811946
 20
546.7934987208
 10
698.5215252588
 20
547.0195454317
 10
699.0741556161
 20
547.2747865609
 10
699.5855471846
 20
547.5572245006
 10
700.051697632
 20
547.8646487909
 10
700.468958699
 20
548.19465342
 10
700.8340647521
 20
548.5446556541
 10
701.1441583412
 20
548.9119162513
 10
701.3968125636
 20
549.2935608995
 10
701.5900500575
 20
549.6866027117
 10
701.7223584775
 20
550.0879656029
 10
701.7927023308
 20
550.4945083643
 10
701.8049358765
 20
550.7498151659
  0
LWPOLYLINE
  5
126
330
1F
100
AcDbEntity
  8
0
  6
Continuous
 62
     7
370
    15
100
AcDbPolyline
 90
       10
 70
   128
 43
0.0
 10
685.8049358765
 20
550.7498151659
 10
685.8289077581
 20
550.3925606035
 10
685.9148134125
 20
549.9870156805
 10
686.062469973
 20
549.5874406977
 10
686.2707218267
 20
549.1969628711
 10
686.5379391207
 20
548.8186382192
 10
686.8620305173
 20
548.4554276452
 10
687.2404595618
 20
548.1101737645
 10
687.6702645339
 20
547.7855786567
 10
688.148081627
 20
547.4841827186
  0
LWPOLYLINE
  5
127
330
1F
100
AcDbEntity
  8
0
  6
Continuous
 62
     7
370
    15
100
AcDbPolyline
 90
       72
 70
   128
 43
0.0
 10
688.148081627
 20
548.5783474065
 10
688.6701712745
 20
548.3025094701
 10
689.2324474169
 20
548.0543883411
 10
689.8305094811
 20
547.8359259038
 10
690.4596768206
 20
547.6488319229
 10
691.1150253479
 20
547.4945706627
 10
691.7914260722
 20
547.3743494265
 10
692.4835852407
 20
547.2891091085
 10
693.1860857695
 20
547.2395168298
 10
693.8934296394
 20
547.2259607173
 10
694.6000809257
 20
547.2485468659
 10
695.3005091239
 20
547.3070985083
 10
695.9892324336
 20
547.4011573985
 10
696.6608606612
 20
547.5299873983
 10
697.3101374051
 20
547.6925802382
 10
697.9319811946
 20
547.8876634087
 10
698.5215252588
 20
548.1137101196
 10
699.0741556161
 20
548.3689512488
 10
699.5855471846
 20
548.6513891885
 10
700.051697632
 20
548.9588134789
 10
700.468958699
 20
549.2888181079
 10
700.8340647521
 20
549.6388203421
 10
701.1441583412
 20
550.0060809393
 10
701.3968125636
 20
550.3877255874
 10
701.5900500575
 20
550.7807673996
 10
701.7223584775
 20
551.1821302908
 10
701.7927023308
 20
551.5886730522
 10
701.8005310814
 20
551.9972139355
 10
701.7457834587
 20
552.4045555544
 10
701.6288879371
 20
552.8075099083
 10
701.4507593825
 20
553.2029233332
 10
701.2127918923
 20
553.5877011828
 10
700.9168478849
 20
553.9588320488
 10
700.5652435233
 20
554.3134113289
 10
700.1607305885
 20
554.6486639596
 10
699.7064749425
 20
554.9619661344
 10
699.2060317517
 20
555.250865839
 10
698.6633176626
 20
555.5131020416
 10
698.0825801488
 20
555.7466223882
 10
697.4683642687
 20
555.9495992657
 10
696.8254770944
 20
556.1204441046
 10
696.1589500897
 20
556.2578198126
 10
695.4739997321
 20
556.3606512383
 10
694.7759866867
 20
556.4281335866
 10
694.0703738522
 20
556.4597387164
 10
693.3626836057
 20
556.4552192749
 10
692.6584545828
 20
556.4146106328
 10
691.9631983304
 20
556.3382306077
 10
691.2823561715
 20
556.2266769769
 10
690.6212566191
 20
556.0808227989
 10
689.9850736734
 20
555.9018095803
 10
689.3787863286
 20
555.6910383423
 10
688.8071396052
 20
555.4501586556
 10
688.2746074139
 20
555.1810557303
 10
687.7853575411
 20
554.8858356617
 10
687.3432190304
 20
554.5668089471
 10
686.9516522152
 20
554.2264724032
 10
686.6137216366
 20
553.8674896247
 10
686.3320720597
 20
553.4926701386
 10
686.1089077743
 20
553.1049474158
 10
685.9459753434
 20
552.707355912
 10
685.8445499342
 20
552.30300732
 10
685.8054253381
 20
551.8950662157
 10
685.8289077581
 20
551.4867252914
 10
685.9148134125
 20
551.0811803684
 10
686.062469973
 20
550.6816053856
 10
686.2707218267
 20
550.291127559
 10
686.5379391207
 20
549.9128029071
 10
686.8620305173
 20
549.5495923332
 10
687.2404595618
 20
549.2043384524
 10
687.6702645339
 20
548.8797433446
 10
688.148081627
 20
548.5783474065
  0
LWPOLYLINE
  5
128
330
1F
100
AcDbEntity
  8
0
  6
Continuous
 62
     7
370
    15
100
AcDbPolyline
 90
       26
 70
   128
 43
0.0
 10
693.0978290953
 20
551.4357757979
 10
693.2958944608
 20
551.3470840584
 10
693.5259447705
 20
551.2896141091
 10
693.7735251174
 20
551.2669769984
 10
694.0230791179
 20
551.2805950991
 10
694.2589263763
 20
551.329612736
 10
694.4662477418
 20
551.4109499506
 10
694.6320164508
 20
551.5194960266
 10
694.7458166455
 20
551.6484306148
 10
694.8004978411
 20
551.7896522809
 10
694.7926242171
 20
551.9342875482
 10
694.7226905022
 20
552.073248451
 10
694.5950908889
 20
552.1978035645
 10
694.4178429302
 20
552.3001266331
 10
694.2020837672
 20
552.3737883219
 10
693.9613703416
 20
552.4141601962
 10
693.7108275632
 20
552.4187055426
 10
693.4661979563
 20
552.3871387603
 10
693.2428524987
 20
552.3214433063
 10
693.0548248069
 20
552.2257470675
 10
692.9139293523
 20
552.1060629907
 10
692.8290191146
 20
551.9699112666
 10
692.8054293162
 20
551.8258468086
 10
692.8446421908
 20
551.6829217165
 10
692.9441938495
 20
551.5501164996
 10
693.0978290953
 20
551.4357757979
  0
ARC
  5
129
330
1F
100
AcDbEntity
  8
0
  6
Continuous
 62
     7
370
    15
100
AcDbCircle
 10
693.8049358765
 20
549.6299158352
 30
0.0
 40
1.69727311315702
100
AcDbArc
 50
79.1589899696
 51
100.8410100304
  0
ARC
  5
12A
330
1F
100
AcDbEntity
  8
0
  6
Continuous
 62
     7
370
    15
100
AcDbCircle
 10
701.7422986642
 20
526.7959891495
 30
0.0
 40
4.062638703960107
100
AcDbArc
 50
347.6036671432
 51
359.9509014176
  0
LWPOLYLINE
  5
12B
330
1F
100
AcDbEntity
  8
0
  6
Continuous
 62
     7
370
    15
100
AcDbPolyline
 90
        3
 70
   128
 43
0.0
 10
681.9111809673
 20
525.8727171775
 10
681.8348471227
 20
526.3036928983
 10
681.8049358765
 20
526.7925077452
  0
LWPOLYLINE
  5
12C
330
1F
100
AcDbEntity
  8
0
  6
Continuous
 62
     7
370
    15
100
AcDbPolyline
 90
       21
 70
   128
 43
0.0
 10
705.8049358765
 20
528.2508542377
 10
705.8957413215
 20
527.8636515638
 10
705.9576955043
 20
527.3580501946
 10
705.9562908255
 20
526.851186061
 10
705.8915346085
 20
526.3457017178
 10
705.7637644622
 20
525.8442325264
 10
705.5736465211
 20
525.3493929149
 10
705.322171972
 20
524.8637627479
 10
705.0106518868
 20
524.3898738763
 10
704.640710387
 20
523.9301969372
 10
704.2142761762
 20
523.4871284733
 10
703.733572485
 20
523.0629784385
 10
703.2011054798
 20
522.6599581545
 10
702.6196511971
 20
522.2801687826
 10
701.9922410702
 20
521.9255903687
 10
701.3221461251
 20
521.5980715205
 10
700.6128599265
 20
521.2993197696
 10
699.8680803642
 20
521.0308926692
 10
699.091690374
 20
520.794189674
 10
698.2877376938
 20
520.5904448438
 10
698.2826280476
 20
520.5892757978
  0
LWPOLYLINE
  5
12D
330
1F
100
AcDbEntity
  8
0
  6
Continuous
 62
     7
370
    15
100
AcDbPolyline
 90
       16
 70
   128
 43
0.0
 10
696.4706493502
 20
520.2667765073
 10
695.7530046304
 20
520.1866902091
 10
694.8818210739
 20
520.1236045674
 10
694.0050231367
 20
520.0969732109
 10
693.1271820371
 20
520.1069349833
 10
692.2528744323
 20
520.1534379484
 10
691.3866585571
 20
520.2362396613
 10
690.5330504602
 20
520.3549084322
 10
689.6965004588
 20
520.5088255771
 10
688.8813699373
 20
520.6971886433
 10
688.0919086088
 20
520.919015593
 10
687.3322323592
 20
521.1731499231
 10
686.6063017886
 20
521.4582666949
 10
685.917901563
 20
521.7728794417
 10
685.2706206822
 20
522.1153479181
 10
685.2277306207
 20
522.1398641071
  0
ARC
  5
12E
330
1F
100
AcDbEntity
  8
0
  6
Continuous
 62
     7
370
    15
100
AcDbCircle
 10
686.1947561307
 20
527.1251773906
 30
0.0
 40
4.531850640570348
100
AcDbArc
 50
165.6176022778
 51
222.7328204497
  0
LINE
  5
12F
330
1F
100
AcDbEntity
  8
0
  6
Continuous
 62
     7
370
    15
100
AcDbLine
 10
695.2210436639
 20
541.6539202816
 30
0.0
 11
695.2210436639
 21
546.2044437118
 31
0.0
  0
ARC
  5
130
330
1F
100
AcDbEntity
  8
0
  6
Continuous
 62
     7
370
    15
100
AcDbCircle
 10
703.8008076005
 20
541.777908102
 30
0.0
 40
8.580659775747192
100
AcDbArc
 50
180.827934709
 51
193.2521245738
  0
LINE
  5
131
330
1F
100
AcDbEntity
  8
0
  6
Continuous
 62
     7
370
    15
100
AcDbLine
 10
696.7606868212
 20
534.1840234034
 30
0.0
 11
695.4486442831
 21
539.8109078207
 31
0.0
  0
ARC
  5
132
330
1F
100
AcDbEntity
  8
0
  6
Continuous
 62
     7
370
    15
100
AcDbCircle
 10
688.4085235038
 20
532.2170231221
 30
0.0
 40
8.580659775763818
100
AcDbArc
 50
0.827934709
 51
13.2521245738
  0
LINE
  5
133
330
1F
100
AcDbEntity
  8
0
  6
Continuous
 62
     7
370
    15
100
AcDbLine
 10
696.9882874404
 20
517.6432763286
 30
0.0
 11
696.9882874404
 21
532.3410109425
 31
0.0
  0
LWPOLYLINE
  5
134
330
1F
100
AcDbEntity
  8
0
  6
Continuous
 62
     7
370
    15
100
AcDbPolyline
 90
        9
 70
   128
 43
0.0
 10
696.4706493502
 20
517.1254289254
 10
696.5716355319
 20
516.9392367277
 10
696.6687408713
 20
516.8229582026
 10
696.7582336646
 20
516.7810618688
 10
696.836674754
 20
516.8151577788
 10
696.9010496924
 20
516.9239356459
 10
696.948884587
 20
517.1032151977
 10
696.9783411697
 20
517.3461068215
 10
696.9882874404
 20
517.6432763286
  0
LINE
  5
135
330
1F
100
AcDbEntity
  8
0
  6
Continuous
 62
     7
370
    15
100
AcDbLine
 10
696.1600664961
 20
517.7945694578
 30
0.0
 11
696.4706493502
 21
517.1254289254
 31
0.0
  0
ARC
  5
136
330
1F
100
AcDbEntity
  8
0
  6
Continuous
 62
     7
370
    15
100
AcDbCircle
 10
701.979444479
 20
520.1842242623
 30
0.0
 40
6.290914893087397
100
AcDbArc
 50
187.4985516347
 51
202.3248916103
  0
ARC
  5
137
330
1F
100
AcDbEntity
  8
0
  6
Continuous
 62
     7
370
    15
100
AcDbCircle
 10
697.5327416744
 20
519.67375761
 30
0.0
 40
1.349535229514768
100
AcDbArc
 50
191.461741852
 51
202.8897966154
  0
LINE
  5
138
330
1F
100
AcDbEntity
  8
0
  6
Continuous
 62
     7
370
    15
100
AcDbLine
 10
696.3412398277
 20
519.0373191043
 30
0.0
 11
696.2894760186
 21
519.1488425264
 31
0.0
  0
LWPOLYLINE
  5
139
330
1F
100
AcDbEntity
  8
0
  6
Continuous
 62
     7
370
    15
100
AcDbPolyline
 90
        9
 70
   128
 43
0.0
 10
696.4706493502
 20
519.1667809551
 10
696.4681627825
 20
519.0924885784
 10
696.4607986369
 20
519.0317656724
 10
696.4488399132
 20
518.9869457844
 10
696.4327461786
 20
518.9597513177
 10
696.4131359063
 20
518.9512273402
 10
696.3907627079
 20
518.9617014236
 10
696.3664863731
 20
518.9907710549
 10
696.3412398277
 20
519.0373191043
  0
LINE
  5
13A
330
1F
100
AcDbEntity
  8
0
  6
Continuous
 62
     7
370
    15
100
AcDbLine
 10
696.4706493502
 20
532.5893309157
 30
0.0
 11
696.4706493502
 21
519.1667809551
 31
0.0
  0
ARC
  5
13B
330
1F
100
AcDbEntity
  8
0
  6
Continuous
 62
     7
370
    15
100
AcDbCircle
 10
687.8908854136
 20
532.4653430953
 30
0.0
 40
8.5806597757391
100
AcDbArc
 50
0.827934709
 51
13.2521245738
  0
LINE
  5
13C
330
1F
100
AcDbEntity
  8
0
  6
Continuous
 62
     7
370
    15
100
AcDbLine
 10
694.9310061929
 20
540.0592277939
 30
0.0
 11
696.243048731
 21
534.4323433766
 31
0.0
  0
ARC
  5
13D
330
1F
100
AcDbEntity
  8
0
  6
Continuous
 62
     7
370
    15
100
AcDbCircle
 10
703.2831695103
 20
542.0262280752
 30
0.0
 40
8.580659775751782
100
AcDbArc
 50
180.827934709
 51
193.2521245738
  0
LINE
  5
13E
330
1F
100
AcDbEntity
  8
0
  6
Continuous
 62
     7
370
    15
100
AcDbLine
 10
694.7034055737
 20
545.0665670977
 30
0.0
 11
694.7034055737
 21
541.9022402548
 31
0.0
  0
LINE
  5
13F
330
1F
100
AcDbEntity
  8
0
  6
Continuous
 62
     7
370
    15
100
AcDbLine
 10
698.0550274285
 20
534.3842368963
 30
0.0
 11
696.7429848903
 21
540.0111213136
 31
0.0
  0
LINE
  5
140
330
1F
100
AcDbEntity
  8
0
  6
Continuous
 62
     7
370
    15
100
AcDbLine
 10
696.5153842711
 20
541.8541337745
 30
0.0
 11
696.5153842711
 21
546.4046572047
 31
0.0
  0
ARC
  5
141
330
1F
100
AcDbEntity
  8
0
  6
Continuous
 62
     7
370
    15
100
AcDbCircle
 10
689.7028641111
 20
532.417236615
 30
0.0
 40
8.580659775740115
100
AcDbArc
 50
0.827934709
 51
13.2521245738
  0
LINE
  5
142
330
1F
100
AcDbEntity
  8
0
  6
Continuous
 62
     7
370
    15
100
AcDbLine
 10
698.2826280476
 20
517.8434898215
 30
0.0
 11
698.2826280476
 21
532.5412244354
 31
0.0
  0
ARC
  5
143
330
1F
100
AcDbEntity
  8
0
  6
Continuous
 62
     7
370
    15
100
AcDbCircle
 10
705.0951482077
 20
541.9781215949
 30
0.0
 40
8.580659775734524
100
AcDbArc
 50
180.827934709
 51
193.2521245738
  0
LWPOLYLINE
  5
144
330
1F
100
AcDbEntity
  8
0
  6
Continuous
 62
     7
370
    15
100
AcDbPolyline
 90
        6
 70
   128
 43
0.0
 10
698.070721501
 20
516.9822301202
 10
698.1310153612
 20
517.0153712717
 10
698.1953902996
 20
517.1241491388
 10
698.2432251942
 20
517.3034286906
 10
698.2726817769
 20
517.5463203144
 10
698.2826280476
 20
517.8434898215
  0
ARC
  5
145
330
1F
100
AcDbEntity
  8
0
  6
Continuous
 62
     7
370
    15
100
AcDbCircle
 10
686.5008857334
 20
545.9212100911
 30
0.0
 40
1.389513728682588
100
AcDbArc
 50
291.6578057324
 51
329.1816004746
  0
LINE
  5
146
330
1F
100
AcDbEntity
  8
0
  6
Continuous
 62
     7
370
    15
100
AcDbLine
 10
687.0137030285
 20
544.6297896236
 30
0.0
 11
682.1170936144
 21
542.5870836869
 31
0.0
  0
ARC
  5
147
330
1F
100
AcDbEntity
  8
0
  6
Continuous
 62
     7
370
    15
100
AcDbCircle
 10
682.5808094167
 20
541.3585322132
 30
0.0
 40
1.313153101732483
100
AcDbArc
 50
110.6789753359
 51
179.682002717
  0
LINE
  5
148
330
1F
100
AcDbEntity
  8
0
  6
Continuous
 62
     7
370
    15
100
AcDbLine
 10
681.2676765398
 20
541.3658203063
 30
0.0
 11
681.2676765398
 21
528.0624358273
 31
0.0
  0
LWPOLYLINE
  5
149
330
1F
100
AcDbEntity
  8
0
  6
Continuous
 62
     7
370
    15
100
AcDbPolyline
 90
        9
 70
   128
 43
0.0
 10
681.1681542281
 20
525.9194813044
 10
680.8907909788
 20
525.9915956033
 10
680.5283889186
 20
526.1405850537
 10
680.194397267
 20
526.3431610861
 10
679.901651136
 20
526.5915388173
 10
679.6614005952
 20
526.8761732304
 10
679.4828783381
 20
527.1861259844
 10
679.372944875
 20
527.5094857688
 10
679.3358248872
 20
527.8338260486
  0
LINE
  5
14A
330
1F
100
AcDbEntity
  8
0
  6
Continuous
 62
     7
370
    15
100
AcDbLine
 10
679.3358248872
 20
527.8338260486
 30
0.0
 11
679.3358248872
 21
542.5315606625
 31
0.0
  0
ARC
  5
14B
330
1F
100
AcDbEntity
  8
0
  6
Continuous
 62
     7
370
    15
100
AcDbCircle
 10
680.6489577641
 20
542.5242725694
 30
0.0
 40
1.313153101731779
100
AcDbArc
 50
110.6789753359
 51
179.682002717
  0
LINE
  5
14C
330
1F
100
AcDbEntity
  8
0
  6
Continuous
 62
     7
370
    15
100
AcDbLine
 10
680.1852419618
 20
543.7528240431
 30
0.0
 11
685.0818513759
 21
545.7955299798
 31
0.0
  0
ARC
  5
14D
330
1F
100
AcDbEntity
  8
0
  6
Continuous
 62
     7
370
    15
100
AcDbCircle
 10
684.6181355737
 20
547.0240814534
 30
0.0
 40
1.313153101731739
100
AcDbArc
 50
290.6789753359
 51
359.682002717
  0
LINE
  5
14E
330
1F
100
AcDbEntity
  8
0
  6
Continuous
 62
     7
370
    15
100
AcDbLine
 10
685.9312684506
 20
547.0167933603
 30
0.0
 11
685.9312684506
 21
548.8381488533
 31
0.0
  0
ARC
  5
14F
330
1F
100
AcDbEntity
  8
0
  6
Continuous
 62
     7
370
    15
100
AcDbCircle
 10
684.8765064961
 20
547.8969071587
 30
0.0
 40
1.462415941271402
100
AcDbArc
 50
292.1831598058
 51
315.7480085922
  0
LINE
  5
150
330
1F
100
AcDbEntity
  8
0
  6
Continuous
 62
     7
370
    15
100
AcDbLine
 10
680.5320594823
 20
544.5000309709
 30
0.0
 11
685.4286688964
 21
546.5427369076
 31
0.0
  0
ARC
  5
151
330
1F
100
AcDbEntity
  8
0
  6
Continuous
 62
     7
370
    15
100
AcDbCircle
 10
681.0273077554
 20
543.2318319369
 30
0.0
 40
1.361469662427331
100
AcDbArc
 50
111.3312940006
 51
154.3131337976
  0
LINE
  5
152
330
1F
100
AcDbEntity
  8
0
  6
Continuous
 62
     7
370
    15
100
AcDbLine
 10
681.6217601023
 20
542.2534097359
 30
0.0
 11
681.6144940602
 21
542.1130272341
 31
0.0
  0
LINE
  5
153
330
1F
100
AcDbEntity
  8
0
  6
Continuous
 62
     7
370
    15
100
AcDbLine
 10
681.6144940602
 20
542.1130272341
 30
0.0
 11
681.6144940602
 21
528.9497965385
 31
0.0
  0
LINE
  5
154
330
1F
100
AcDbEntity
  8
0
  6
Continuous
 62
     7
370
    15
100
AcDbLine
 10
704.122061326
 20
547.4554616538
 30
0.0
 11
701.6786033025
 21
547.9536230144
 31
0.0
  0
ARC
  5
155
330
1F
100
AcDbEntity
  8
0
  6
Continuous
 62
     7
370
    15
100
AcDbCircle
 10
703.8488773028
 20
546.593112488
 30
0.0
 40
0.9045858689995829
100
AcDbArc
 50
351.6516263677
 51
72.4222929777
  0
LINE
  5
156
330
1F
100
AcDbEntity
  8
0
  6
Continuous
 62
     7
370
    15
100
AcDbLine
 10
704.7438777815
 20
543.1618323182
 30
0.0
 11
704.7438777815
 21
546.4617742315
 31
0.0
  0
LINE
  5
157
330
1F
100
AcDbEntity
  8
0
  6
Continuous
 62
     7
370
    15
100
AcDbLine
 10
703.3296642191
 20
544.7784518722
 30
0.0
 11
703.3296642191
 21
544.6609469582
 31
0.0
  0
ARC
  5
158
330
1F
100
AcDbEntity
  8
0
  6
Continuous
 62
     7
370
    15
100
AcDbCircle
 10
702.4346637405
 20
544.9097901287
 30
0.0
 40
0.9045858689992845
100
AcDbArc
 50
351.6516263677
 51
72.4222929777
  0
LINE
  5
159
330
1F
100
AcDbEntity
  8
0
  6
Continuous
 62
     7
370
    15
100
AcDbLine
 10
701.6786033025
 20
545.9819770803
 30
0.0
 11
702.7078477637
 21
545.7721392946
 31
0.0
  0
LINE
  5
15A
330
1F
100
AcDbEntity
  8
0
  6
Continuous
 62
     7
370
    15
100
AcDbLine
 10
703.1745382392
 20
548.0024550887
 30
0.0
 11
701.6786033025
 21
548.3074396541
 31
0.0
  0
ARC
  5
15B
330
1F
100
AcDbEntity
  8
0
  6
Continuous
 62
     7
370
    15
100
AcDbCircle
 10
701.0285690023
 20
545.359775132
 30
0.0
 40
1.354007403235094
100
AcDbArc
 50
358.547153531
 51
21.5812287362
  0
LWPOLYLINE
  5
15C
330
1F
100
AcDbEntity
  8
0
  6
Continuous
 62
     7
370
    15
100
AcDbPolyline
 90
        3
 70
   128
 43
0.0
 10
703.3820598649
 20
547.9244572793
 10
703.3112063257
 20
547.9599358963
 10
703.1745382392
 20
548.0024550887
  0
LINE
  5
15D
330
1F
100
AcDbEntity
  8
0
  6
Continuous
 62
     7
370
    15
100
AcDbLine
 10
701.331785782
 20
544.6345831832
 30
0.0
 11
701.331785782
 21
549.1851066134
 31
0.0
  0
ARC
  5
15E
330
1F
100
AcDbEntity
  8
0
  6
Continuous
 62
     7
370
    15
100
AcDbCircle
 10
703.2335945977
 20
544.7380023403
 30
0.0
 40
1.90461867397619
100
AcDbArc
 50
183.1126424152
 51
236.4580614383
  0
LINE
  5
15F
330
1F
100
AcDbEntity
  8
0
  6
Continuous
 62
     7
370
    15
100
AcDbLine
 10
707.0778122708
 20
539.5929797145
 30
0.0
 11
702.1812028567
 21
543.1505377212
 31
0.0
  0
ARC
  5
160
330
1F
100
AcDbEntity
  8
0
  6
Continuous
 62
     7
370
    15
100
AcDbCircle
 10
706.0254205297
 20
538.0055150955
 30
0.0
 40
1.904618673976316
100
AcDbArc
 50
3.1126424152
 51
56.4580614383
  0
LINE
  5
161
330
1F
100
AcDbEntity
  8
0
  6
Continuous
 62
     7
370
    15
100
AcDbLine
 10
707.9272293454
 20
523.4111996386
 30
0.0
 11
707.9272293454
 21
538.1089342525
 31
0.0
  0
LWPOLYLINE
  5
162
330
1F
100
AcDbEntity
  8
0
  6
Continuous
 62
     7
370
    15
100
AcDbPolyline
 90
        9
 70
   128
 43
0.0
 10
705.9953776928
 20
522.0769441236
 10
706.3722632538
 20
522.0500252473
 10
706.734665314
 20
522.0868992593
 10
707.0686569656
 20
522.1861491119
 10
707.3614030966
 20
522.3439606891
 10
707.6016536374
 20
522.5542693803
 10
707.7801758945
 20
522.8089931406
 10
707.8901093576
 20
523.0983430786
 10
707.9272293454
 20
523.4111996386
  0
LINE
  5
163
330
1F
100
AcDbEntity
  8
0
  6
Continuous
 62
     7
370
    15
100
AcDbLine
 10
704.8362667013
 20
522.2562397889
 30
0.0
 11
705.9953776928
 21
522.0769441236
 31
0.0
  0
LWPOLYLINE
  5
164
330
1F
100
AcDbEntity
  8
0
  6
Continuous
 62
     7
370
    15
100
AcDbPolyline
 90
        3
 70
   128
 43
0.0
 10
704.2109121071
 20
522.4409016005
 10
704.4593811403
 20
522.3459170761
 10
704.8362667013
 20
522.2562397889
  0
LINE
  5
165
330
1F
100
AcDbEntity
  8
0
  6
Continuous
 62
     7
370
    15
100
AcDbLine
 10
705.5124147797
 20
523.7847322746
 30
0.0
 11
705.4738262691
 21
523.7907012911
 31
0.0
  0
ARC
  5
166
330
1F
100
AcDbEntity
  8
0
  6
Continuous
 62
     7
370
    15
100
AcDbCircle
 10
705.6170275566
 20
524.1496846408
 30
0.0
 40
0.3796499212384711
100
AcDbArc
 50
254.0051688941
 51
355.2575176215
  0
LINE
  5
167
330
1F
100
AcDbEntity
  8
0
  6
Continuous
 62
     7
370
    15
100
AcDbLine
 10
705.9953776928
 20
537.5408461139
 30
0.0
 11
705.9953776928
 21
524.1182961533
 31
0.0
  0
ARC
  5
168
330
1F
100
AcDbEntity
  8
0
  6
Continuous
 62
     7
370
    15
100
AcDbCircle
 10
704.0935688772
 20
537.4374269568
 30
0.0
 40
1.904618673977567
100
AcDbArc
 50
3.1126424152
 51
56.4580614383
  0
LINE
  5
169
330
1F
100
AcDbEntity
  8
0
  6
Continuous
 62
     7
370
    15
100
AcDbLine
 10
700.2493512041
 20
542.5824495826
 30
0.0
 11
705.1459606182
 21
539.0248915759
 31
0.0
  0
ARC
  5
16A
330
1F
100
AcDbEntity
  8
0
  6
Continuous
 62
     7
370
    15
100
AcDbCircle
 10
701.3017429451
 20
544.1699142016
 30
0.0
 40
1.904618673976212
100
AcDbArc
 50
183.1126424152
 51
236.4580614383
  0
LINE
  5
16B
330
1F
100
AcDbEntity
  8
0
  6
Continuous
 62
     7
370
    15
100
AcDbLine
 10
699.3999341295
 20
546.3546955871
 30
0.0
 11
699.3999341295
 21
544.0664950446
 31
0.0
  0
LINE
  5
16C
330
1F
100
AcDbEntity
  8
0
  6
Continuous
 62
     7
370
    15
100
AcDbLine
 10
701.6786033025
 20
545.381790111
 30
0.0
 11
701.6786033025
 21
549.9323135412
 31
0.0
  0
LINE
  5
16D
330
1F
100
AcDbEntity
  8
0
  6
Continuous
 62
     7
370
    15
100
AcDbLine
 10
707.4246297912
 20
540.3401866423
 30
0.0
 11
702.5280203771
 21
543.897744649
 31
0.0
  0
ARC
  5
16E
330
1F
100
AcDbEntity
  8
0
  6
Continuous
 62
     7
370
    15
100
AcDbCircle
 10
703.5804121181
 20
545.4852092681
 30
0.0
 40
1.90461867397637
100
AcDbArc
 50
183.1126424152
 51
236.4580614383
  0
ARC
  5
16F
330
1F
100
AcDbEntity
  8
0
  6
Continuous
 62
     7
370
    15
100
AcDbCircle
 10
706.3722380502
 20
538.7527220233
 30
0.0
 40
1.904618673975583
100
AcDbArc
 50
3.1126424152
 51
56.4580614383
  0
LINE
  5
170
330
1F
100
AcDbEntity
  8
0
  6
Continuous
 62
     7
370
    15
100
AcDbLine
 10
708.2740468658
 20
524.1584065664
 30
0.0
 11
708.2740468658
 21
538.8561411803
 31
0.0
  0
LWPOLYLINE
  5
171
330
1F
100
AcDbEntity
  8
0
  6
Continuous
 62
     7
370
    15
100
AcDbPolyline
 90
        3
 70
   128
 43
0.0
 10
708.1563058532
 20
523.6152097622
 10
708.236926878
 20
523.8455500064
 10
708.2740468658
 20
524.1584065664
  0
LWPOLYLINE
  5
172
330
1F
100
AcDbEntity
  8
0
  6
Continuous
 62
     7
370
    15
100
AcDbPolyline
 90
        3
 70
   128
 43
0.0
 10
705.9953776928
 20
524.5274371583
 10
705.9534536903
 20
524.5252094833
 10
705.9445062721
 20
524.5251629891
  0
LINE
  5
173
330
1F
100
AcDbEntity
  8
0
  6
Continuous
 62
     7
370
    15
100
AcDbLine
 10
690.0559304075
 20
545.5758573746
 30
0.0
 11
690.0559304075
 21
542.6211292635
 31
0.0
  0
ARC
  5
174
330
1F
100
AcDbEntity
  8
0
  6
Continuous
 62
     7
370
    15
100
AcDbCircle
 10
687.0278953446
 20
542.752425958
 30
0.0
 40
3.030880262306519
100
AcDbArc
 50
322.5515670334
 51
357.517189512
  0
LINE
  5
175
330
1F
100
AcDbEntity
  8
0
  6
Continuous
 62
     7
370
    15
100
AcDbLine
 10
689.4341139521
 20
540.9095078434
 30
0.0
 11
685.8495470762
 21
536.040049461
 31
0.0
  0
ARC
  5
176
330
1F
100
AcDbEntity
  8
0
  6
Continuous
 62
     7
370
    15
100
AcDbCircle
 10
688.2557656837
 20
534.1971313464
 30
0.0
 40
3.030880262303242
100
AcDbArc
 50
142.5515670334
 51
177.517189512
  0
LINE
  5
177
330
1F
100
AcDbEntity
  8
0
  6
Continuous
 62
     7
370
    15
100
AcDbLine
 10
685.2277306207
 20
534.3284280409
 30
0.0
 11
685.2277306207
 21
520.9058780803
 31
0.0
  0
ARC
  5
178
330
1F
100
AcDbEntity
  8
0
  6
Continuous
 62
     7
370
    15
100
AcDbCircle
 10
685.4432678044
 20
520.8709144819
 30
0.0
 40
0.2183545987142627
100
AcDbArc
 50
170.7859630095
 51
309.2032852357
  0
LINE
  5
179
330
1F
100
AcDbEntity
  8
0
  6
Continuous
 62
     7
370
    15
100
AcDbLine
 10
685.5812840113
 20
520.7017097023
 30
0.0
 11
685.7227053676
 21
520.7833505135
 31
0.0
  0
ARC
  5
17A
330
1F
100
AcDbEntity
  8
0
  6
Continuous
 62
     7
370
    15
100
AcDbCircle
 10
685.3934780271
 20
521.3301657304
 30
0.0
 40
0.6382769956143018
100
AcDbArc
 50
301.0513691521
 51
318.1197607045
  0
ARC
  5
17B
330
1F
100
AcDbEntity
  8
0
  6
Continuous
 62
     7
370
    15
100
AcDbCircle
 10
684.5506898463
 20
521.8005945996
 30
0.0
 40
2.882944815108921
100
AcDbArc
 50
301.9494157271
 51
330.9997846204
  0
LINE
  5
17C
330
1F
100
AcDbEntity
  8
0
  6
Continuous
 62
     7
370
    15
100
AcDbLine
 10
686.0762587581
 20
519.3543709177
 30
0.0
 11
685.2277306207
 21
518.8645260506
 31
0.0
  0
LWPOLYLINE
  5
17D
330
1F
100
AcDbEntity
  8
0
  6
Continuous
 62
     7
370
    15
100
AcDbPolyline
 90
        9
 70
   128
 43
0.0
 10
685.2277306207
 20
518.8645260506
 10
684.9518312414
 20
518.7366319346
 10
684.6865345206
 20
518.6764111288
 10
684.4420356623
 20
518.6861778849
 10
684.2277306207
 20
518.7655568719
 10
684.0518550183
 20
518.9114975999
 10
683.9211676558
 20
519.1183916486
 10
683.8406907754
 20
519.3782881956
 10
683.8135170584
 20
519.6811995625
  0
LINE
  5
17E
330
1F
100
AcDbEntity
  8
0
  6
Continuous
 62
     7
370
    15
100
AcDbLine
 10
683.8135170584
 20
519.6811995625
 30
0.0
 11
683.8135170584
 21
534.3789341765
 31
0.0
  0
ARC
  5
17F
330
1F
100
AcDbEntity
  8
0
  6
Continuous
 62
     7
370
    15
100
AcDbCircle
 10
686.8415521213
 20
534.247637482
 30
0.0
 40
3.030880262306652
100
AcDbArc
 50
142.5515670334
 51
177.517189512
  0
LINE
  5
180
330
1F
100
AcDbEntity
  8
0
  6
Continuous
 62
     7
370
    15
100
AcDbLine
 10
684.4353335138
 20
536.0905555966
 30
0.0
 11
688.0199003897
 21
540.960013979
 31
0.0
  0
ARC
  5
181
330
1F
100
AcDbEntity
  8
0
  6
Continuous
 62
     7
370
    15
100
AcDbCircle
 10
685.6136817822
 20
542.8029320936
 30
0.0
 40
3.030880262305672
100
AcDbArc
 50
322.5515670334
 51
357.517189512
  0
LINE
  5
182
330
1F
100
AcDbEntity
  8
0
  6
Continuous
 62
     7
370
    15
100
AcDbLine
 10
688.6417168452
 20
542.6716353991
 30
0.0
 11
688.6417168452
 21
547.2221588294
 31
0.0
  0
LINE
  5
183
330
1F
100
AcDbEntity
  8
0
  6
Continuous
 62
     7
370
    15
100
AcDbLine
 10
687.6941937584
 20
543.2186288341
 30
0.0
 11
687.6941937584
 21
547.7691522643
 31
0.0
  0
LINE
  5
184
330
1F
100
AcDbEntity
  8
0
  6
Continuous
 62
     7
370
    15
100
AcDbLine
 10
683.487810427
 20
536.6375490316
 30
0.0
 11
687.0723773029
 21
541.5070074139
 31
0.0
  0
ARC
  5
185
330
1F
100
AcDbEntity
  8
0
  6
Continuous
 62
     7
370
    15
100
AcDbCircle
 10
685.8940290345
 20
534.7946309169
 30
0.0
 40
3.030880262303933
100
AcDbArc
 50
142.5515670334
 51
177.517189512
  0
ARC
  5
186
330
1F
100
AcDbEntity
  8
0
  6
Continuous
 62
     7
370
    15
100
AcDbCircle
 10
684.6661586954
 20
543.3499255286
 30
0.0
 40
3.030880262306708
100
AcDbArc
 50
322.5515670334
 51
357.517189512
  0
LINE
  5
187
330
1F
100
AcDbEntity
  8
0
  6
Continuous
 62
     7
370
    15
100
AcDbLine
 10
682.8659939716
 20
520.2281929975
 30
0.0
 11
682.8659939716
 21
534.9259276114
 31
0.0
  0
ARC
  5
188
330
1F
100
AcDbEntity
  8
0
  6
Continuous
 62
     7
370
    15
100
AcDbCircle
 10
683.8459977762
 20
520.1200195227
 30
0.0
 40
0.9859558599064726
100
AcDbArc
 50
173.7011524782
 51
234.9866671284
  0
LWPOLYLINE
  5
189
330
1F
100
AcDbEntity
  8
0
  6
Continuous
 62
     7
370
    15
100
AcDbPolyline
 90
        9
 70
   128
 43
0.0
 10
685.8049358765
 20
550.7498151659
 10
685.8061599384
 20
550.6690289298
 10
685.8579759479
 20
550.218889996
 10
685.9856223244
 20
549.7738171818
 10
686.1878810587
 20
549.3380573989
 10
686.4628221857
 20
548.9157686929
 10
686.8078222007
 20
548.5109805682
 10
687.2195890931
 20
548.1275555371
 10
687.6941937584
 20
547.7691522643
  0
LWPOLYLINE
  5
18A
330
1F
100
AcDbEntity
  8
0
  6
Continuous
 62
     7
370
    15
100
AcDbPolyline
 90
        3
 70
   128
 43
0.0
 10
701.6786033025
 20
549.9323135412
 10
701.7792030257
 20
550.379691601
 10
701.8049358765
 20
550.7498151659
  0
LWPOLYLINE
  5
18B
330
1F
100
AcDbEntity
  8
0
  6
Continuous
 62
     7
370
    15
100
AcDbPolyline
 90
       10
 70
   128
 43
0.0
 10
696.5153842711
 20
546.4046572047
 10
697.2368239418
 20
546.5780518231
 10
697.9255163312
 20
546.7912536569
 10
698.5748898954
 20
547.0422283214
 10
699.178748273
 20
547.3285810013
 10
699.7313294112
 20
547.6475793024
 10
700.2273605478
 20
547.9961793236
 10
700.662108524
 20
548.3710547028
 10
701.0314249485
 20
548.7686283566
 10
701.331785782
 20
549.1851066134
  0
ARC
  5
18C
330
1F
100
AcDbEntity
  8
0
  6
Continuous
 62
     7
370
    15
100
AcDbCircle
 10
693.7716786054
 20
558.6104658951
 30
0.0
 40
12.49039813155315
100
AcDbArc
 50
245.7504036417
 51
276.6635184926
  0
LINE
  5
18D
330
1F
100
AcDbEntity
  8
0
  6
Continuous
 62
     7
370
    15
100
AcDbLine
 10
693.5461168314
 20
551.3074322762
 30
0.0
 11
693.4857053688
 21
551.2968975099
 31
0.0
  0
ARC
  5
18E
330
1F
100
AcDbEntity
  8
0
  6
Continuous
 62
     7
370
    15
100
AcDbCircle
 10
693.8046816019
 20
549.6308043492
 30
0.0
 40
1.696448332909964
100
AcDbArc
 50
79.1449112229
 51
98.7669258033
  0
LINE
  5
18F
330
1F
100
AcDbEntity
  8
0
  6
Continuous
 62
     7
370
    15
100
AcDbLine
 10
688.6417168452
 20
547.2221588294
 30
0.0
 11
688.6417168452
 21
546.1279941414
 31
0.0
  0
LINE
  5
190
330
1F
100
AcDbEntity
  8
0
  6
Continuous
 62
     7
370
    15
100
AcDbLine
 10
695.2210436639
 20
546.2044437118
 30
0.0
 11
695.2210436639
 21
545.1102790239
 31
0.0
  0
ARC
  5
191
330
1F
100
AcDbEntity
  8
0
  6
Continuous
 62
     7
370
    15
100
AcDbCircle
 10
693.7716786054
 20
557.5163012072
 30
0.0
 40
12.49039813155506
100
AcDbArc
 50
245.7504036417
 51
276.6635184926
  0
LINE
  5
192
330
1F
100
AcDbEntity
  8
0
  6
Continuous
 62
     7
370
    15
100
AcDbLine
 10
696.5153842711
 20
546.4046572047
 30
0.0
 11
696.5153842711
 21
545.3104925168
 31
0.0
  0
LINE
  5
193
330
1F
100
AcDbEntity
  8
0
  6
Continuous
 62
     7
370
    15
100
AcDbLine
 10
701.331785782
 20
549.1851066134
 30
0.0
 11
701.331785782
 21
548.0909419255
 31
0.0
  0
LWPOLYLINE
  5
194
330
1F
100
AcDbEntity
  8
0
  6
Continuous
 62
     7
370
    15
100
AcDbPolyline
 90
       10
 70
   128
 43
0.0
 10
696.5153842711
 20
545.3104925168
 10
697.2368239418
 20
545.4838871352
 10
697.9255163312
 20
545.6970889689
 10
698.5748898954
 20
545.9480636334
 10
699.178748273
 20
546.2344163134
 10
699.7313294112
 20
546.5534146144
 10
700.2273605478
 20
546.9020146357
 10
700.662108524
 20
547.2768900148
 10
701.0314249485
 20
547.6744636687
 10
701.331785782
 20
548.0909419255
  0
LINE
  5
195
330
1F
100
AcDbEntity
  8
0
  6
Continuous
 62
     7
370
    15
100
AcDbLine
 10
687.6941937584
 20
547.7691522643
 30
0.0
 11
687.6941937584
 21
546.6749875764
 31
0.0
  0
LWPOLYLINE
  5
196
330
1F
100
AcDbEntity
  8
0
  6
Continuous
 62
     7
370
    15
100
AcDbPolyline
 90
        9
 70
   128
 43
0.0
 10
685.8049358765
 20
549.655650478
 10
685.8061599384
 20
549.5748642419
 10
685.8579759479
 20
549.124725308
 10
685.9856223244
 20
548.6796524939
 10
686.1878810587
 20
548.2438927109
 10
686.4628221857
 20
547.821604005
 10
686.8078222007
 20
547.4168158803
 10
687.2195890931
 20
547.0333908492
 10
687.6941937584
 20
546.6749875764
  0
LINE
  5
197
330
1F
100
AcDbEntity
  8
0
  6
Continuous
 62
     7
370
    15
100
AcDbLine
 10
701.6786033025
 20
549.9323135412
 30
0.0
 11
701.6786033025
 21
548.8381488533
 31
0.0
  0
LWPOLYLINE
  5
198
330
1F
100
AcDbEntity
  8
0
  6
Continuous
 62
     7
370
    15
100
AcDbPolyline
 90
        3
 70
   128
 43
0.0
 10
701.6786033025
 20
548.8381488533
 10
701.7792030257
 20
549.2855269131
 10
701.8049358765
 20
549.655650478
  0
LINE
  5
199
330
1F
100
AcDbEntity
  8
0
  6
Continuous
 62
     7
370
    15
100
AcDbLine
 10
705.8029056958
 20
334.0618034417
 30
0.0
 11
705.8029056958
 21
335.4018034417
 31
0.0
  0
LINE
  5
19A
330
1F
100
AcDbEntity
  8
0
  6
Continuous
 62
     7
370
    15
100
AcDbLine
 10
689.8029056958
 20
335.4018034417
 30
0.0
 11
689.8029056958
 21
334.0618034417
 31
0.0
  0
ARC
  5
19B
330
1F
100
AcDbEntity
  8
0
  6
Continuous
 62
     7
370
    15
100
AcDbCircle
 10
710.1029056958
 20
304.7218034417
 30
0.0
 40
0.4200000000000159
100
AcDbArc
 50
270.0
 51
90.0
  0
ARC
  5
19C
330
1F
100
AcDbEntity
  8
0
  6
Continuous
 62
     7
370
    15
100
AcDbCircle
 10
685.5029056958
 20
304.7218034417
 30
0.0
 40
0.4200000000000159
100
AcDbArc
 50
90.0
 51
270.0
  0
LINE
  5
19D
330
1F
100
AcDbEntity
  8
0
  6
Continuous
 62
     7
370
    15
100
AcDbLine
 10
710.1029056958
 20
305.1418034417
 30
0.0
 11
705.7831427163
 21
305.1418034417
 31
0.0
  0
LINE
  5
19E
330
1F
100
AcDbEntity
  8
0
  6
Continuous
 62
     7
370
    15
100
AcDbLine
 10
703.6226686752
 20
305.1418034417
 30
0.0
 11
691.9831427163
 21
305.1418034417
 31
0.0
  0
LINE
  5
19F
330
1F
100
AcDbEntity
  8
0
  6
Continuous
 62
     7
370
    15
100
AcDbLine
 10
689.8226686752
 20
305.1418034417
 30
0.0
 11
685.5029056958
 21
305.1418034417
 31
0.0
  0
LINE
  5
1A0
330
1F
100
AcDbEntity
  8
0
  6
Continuous
 62
     7
370
    15
100
AcDbLine
 10
685.5029056958
 20
304.3018034417
 30
0.0
 11
689.8226686752
 21
304.3018034417
 31
0.0
  0
LINE
  5
1A1
330
1F
100
AcDbEntity
  8
0
  6
Continuous
 62
     7
370
    15
100
AcDbLine
 10
691.9831427163
 20
304.3018034417
 30
0.0
 11
703.6226686752
 21
304.3018034417
 31
0.0
  0
LINE
  5
1A2
330
1F
100
AcDbEntity
  8
0
  6
Continuous
 62
     7
370
    15
100
AcDbLine
 10
705.7831427163
 20
304.3018034417
 30
0.0
 11
710.1029056958
 21
304.3018034417
 31
0.0
  0
ARC
  5
1A3
330
1F
100
AcDbEntity
  8
0
  6
Continuous
 62
     7
370
    15
100
AcDbCircle
 10
708.2029056958
 20
320.8724504298
 30
0.0
 40
1.600000000000066
100
AcDbArc
 50
0.0
 51
55.9228047199
  0
ARC
  5
1A4
330
1F
100
AcDbEntity
  8
0
  6
Continuous
 62
     7
370
    15
100
AcDbCircle
 10
687.4029056958
 20
320.8724504298
 30
0.0
 40
1.600000000000023
100
AcDbArc
 50
124.0771952801
 51
180.0
  0
LINE
  5
1A5
330
1F
100
AcDbEntity
  8
0
  6
Continuous
 62
     7
370
    15
100
AcDbLine
 10
709.8029056958
 20
305.1418034417
 30
0.0
 11
709.8029056958
 21
320.8724504298
 31
0.0
  0
LINE
  5
1A6
330
1F
100
AcDbEntity
  8
0
  6
Continuous
 62
     7
370
    15
100
AcDbLine
 10
685.8029056958
 20
320.8724504298
 30
0.0
 11
685.8029056958
 21
305.1418034417
 31
0.0
  0
LINE
  5
1A7
330
1F
100
AcDbEntity
  8
0
  6
Continuous
 62
     7
370
    15
100
AcDbLine
 10
709.0994006841
 20
322.1977038908
 30
0.0
 11
703.7064107074
 21
325.8459029926
 31
0.0
  0
LINE
  5
1A8
330
1F
100
AcDbEntity
  8
0
  6
Continuous
 62
     7
370
    15
100
AcDbLine
 10
691.8994006841
 20
325.8459029926
 30
0.0
 11
686.5064107074
 21
322.1977038908
 31
0.0
  0
ARC
  5
1A9
330
1F
100
AcDbEntity
  8
0
  6
Continuous
 62
     7
370
    15
100
AcDbCircle
 10
704.6029056958
 20
327.1711564536
 30
0.0
 40
1.600000000000066
100
AcDbArc
 50
180.0
 51
235.9228047199
  0
ARC
  5
1AA
330
1F
100
AcDbEntity
  8
0
  6
Continuous
 62
     7
370
    15
100
AcDbCircle
 10
691.0029056958
 20
327.1711564536
 30
0.0
 40
1.600000000000023
100
AcDbArc
 50
304.0771952801
 51
0.0
  0
LINE
  5
1AB
330
1F
100
AcDbEntity
  8
0
  6
Continuous
 62
     7
370
    15
100
AcDbLine
 10
703.0029056958
 20
327.1711564536
 30
0.0
 11
703.0029056958
 21
332.5218034417
 31
0.0
  0
LINE
  5
1AC
330
1F
100
AcDbEntity
  8
0
  6
Continuous
 62
     7
370
    15
100
AcDbLine
 10
692.6029056958
 20
332.5218034417
 30
0.0
 11
692.6029056958
 21
327.1711564536
 31
0.0
  0
ARC
  5
1AD
330
1F
100
AcDbEntity
  8
0
  6
Continuous
 62
     7
370
    15
100
AcDbCircle
 10
702.8029056958
 20
332.5218034417
 30
0.0
 40
0.2000000000000455
100
AcDbArc
 50
0.0
 51
90.0
  0
ARC
  5
1AE
330
1F
100
AcDbEntity
  8
0
  6
Continuous
 62
     7
370
    15
100
AcDbCircle
 10
692.8029056958
 20
332.5218034417
 30
0.0
 40
0.1999999999999886
100
AcDbArc
 50
90.0
 51
180.0
  0
LINE
  5
1AF
330
1F
100
AcDbEntity
  8
0
  6
Continuous
 62
     7
370
    15
100
AcDbLine
 10
689.8029056958
 20
334.0618034417
 30
0.0
 11
705.8029056958
 21
334.0618034417
 31
0.0
  0
LINE
  5
1B0
330
1F
100
AcDbEntity
  8
0
  6
Continuous
 62
     7
370
    15
100
AcDbLine
 10
689.8029056958
 20
335.4018034417
 30
0.0
 11
705.8029056958
 21
335.4018034417
 31
0.0
  0
LINE
  5
1B1
330
1F
100
AcDbEntity
  8
0
  6
Continuous
 62
     7
370
    15
100
AcDbLine
 10
695.3971955265
 20
332.7218034417
 30
0.0
 11
695.3971955265
 21
327.4271838381
 31
0.0
  0
ARC
  5
1B2
330
1F
100
AcDbEntity
  8
0
  6
Continuous
 62
     7
370
    15
100
AcDbCircle
 10
692.4992725223
 20
327.309723347
 30
0.0
 40
2.900302519555865
100
AcDbArc
 50
327.9491995937
 51
2.3210790838
  0
LINE
  5
1B3
330
1F
100
AcDbEntity
  8
0
  6
Continuous
 62
     7
370
    15
100
AcDbLine
 10
694.9575048942
 20
325.7706170119
 30
0.0
 11
692.4228333486
 21
322.341355509
 31
0.0
  0
ARC
  5
1B4
330
1F
100
AcDbEntity
  8
0
  6
Continuous
 62
     7
370
    15
100
AcDbCircle
 10
694.8810657204
 20
320.8022491739
 30
0.0
 40
2.900302519556648
100
AcDbArc
 50
147.9491995937
 51
182.3210790838
  0
LINE
  5
1B5
330
1F
100
AcDbEntity
  8
0
  6
Continuous
 62
     7
370
    15
100
AcDbLine
 10
691.9831427163
 20
320.6847886828
 30
0.0
 11
691.9831427163
 21
304.2464799477
 31
0.0
  0
LWPOLYLINE
  5
1B6
330
1F
100
AcDbEntity
  8
0
  6
Continuous
 62
     7
370
    15
100
AcDbPolyline
 90
        9
 70
   128
 43
0.0
 10
691.9831427163
 20
304.2464799477
 10
691.9879463962
 20
304.1489347867
 10
692.0021728332
 20
304.0551382315
 10
692.0252753132
 20
303.9686948312
 10
692.056366021
 20
303.8929265571
 10
692.094250158
 20
303.8307451415
 10
692.1374718582
 20
303.7845401814
 10
692.1843701358
 20
303.7560873075
 10
692.2331427163
 20
303.7464799477
  0
LINE
  5
1B7
330
1F
100
AcDbEntity
  8
0
  6
Continuous
 62
     7
370
    15
100
AcDbLine
 10
692.2331427163
 20
303.7464799477
 30
0.0
 11
692.3331427163
 21
303.7464799477
 31
0.0
  0
LWPOLYLINE
  5
1B8
330
1F
100
AcDbEntity
  8
0
  6
Continuous
 62
     7
370
    15
100
AcDbPolyline
 90
        9
 70
   128
 43
0.0
 10
692.3331427163
 20
303.7464799477
 10
692.3819152968
 20
303.7560873075
 10
692.4288135744
 20
303.7845401814
 10
692.4720352746
 20
303.8307451415
 10
692.5099194116
 20
303.8929265571
 10
692.5410101194
 20
303.9686948312
 10
692.5641125994
 20
304.0551382315
 10
692.5783390364
 20
304.1489347867
 10
692.5831427163
 20
304.2464799477
  0
LINE
  5
1B9
330
1F
100
AcDbEntity
  8
0
  6
Continuous
 62
     7
370
    15
100
AcDbLine
 10
692.5831427163
 20
304.2464799477
 30
0.0
 11
692.5831427163
 21
304.3018034417
 31
0.0
  0
LINE
  5
1BA
330
1F
100
AcDbEntity
  8
0
  6
Continuous
 62
     7
370
    15
100
AcDbLine
 10
693.5831427163
 20
304.3018034417
 30
0.0
 11
693.5831427163
 21
303.7464799477
 31
0.0
  0
LWPOLYLINE
  5
1BB
330
1F
100
AcDbEntity
  8
0
  6
Continuous
 62
     7
370
    15
100
AcDbPolyline
 90
       12
 70
   128
 43
0.0
 10
693.5831427163
 20
303.7464799477
 10
693.5729641582
 20
303.4618502711
 10
693.5426356899
 20
303.183014834
 10
693.4927747117
 20
302.9156499217
 10
693.4243962491
 20
302.6651983128
 10
693.3388922907
 20
302.4367584798
 10
693.2380034502
 20
302.234980799
 10
693.1237835338
 20
302.063972882
 10
692.9985577293
 20
301.927215957
 10
692.8648752731
 20
301.8274940004
 10
692.7254575546
 20
301.7668370639
 10
692.5831427163
 20
301.7464799477
  0
LINE
  5
1BC
330
1F
100
AcDbEntity
  8
0
  6
Continuous
 62
     7
370
    15
100
AcDbLine
 10
692.5831427163
 20
301.7464799477
 30
0.0
 11
691.9831427163
 21
301.7464799477
 31
0.0
  0
LWPOLYLINE
  5
1BD
330
1F
100
AcDbEntity
  8
0
  6
Continuous
 62
     7
370
    15
100
AcDbPolyline
 90
       12
 70
   128
 43
0.0
 10
691.9831427163
 20
301.7464799477
 10
691.840827878
 20
301.7668370639
 10
691.7014101595
 20
301.8274940004
 10
691.5677277033
 20
301.927215957
 10
691.4425018988
 20
302.063972882
 10
691.3282819824
 20
302.234980799
 10
691.2273931419
 20
302.4367584798
 10
691.1418891835
 20
302.6651983128
 10
691.0735107209
 20
302.9156499217
 10
691.0236497427
 20
303.183014834
 10
690.9933212744
 20
303.4618502711
 10
690.9831427163
 20
303.7464799477
  0
LINE
  5
1BE
330
1F
100
AcDbEntity
  8
0
  6
Continuous
 62
     7
370
    15
100
AcDbLine
 10
690.9831427163
 20
303.7464799477
 30
0.0
 11
690.9831427163
 21
321.7464799477
 31
0.0
  0
ARC
  5
1BF
330
1F
100
AcDbEntity
  8
0
  6
Continuous
 62
     7
370
    15
100
AcDbCircle
 10
693.8810657205
 20
321.8639404388
 30
0.0
 40
2.900302519558434
100
AcDbArc
 50
147.9491995937
 51
182.3210790838
  0
LINE
  5
1C0
330
1F
100
AcDbEntity
  8
0
  6
Continuous
 62
     7
370
    15
100
AcDbLine
 10
691.4228333486
 20
323.4030467739
 30
0.0
 11
693.9575048942
 21
326.8323082768
 31
0.0
  0
ARC
  5
1C1
330
1F
100
AcDbEntity
  8
0
  6
Continuous
 62
     7
370
    15
100
AcDbCircle
 10
691.4992725223
 20
328.3714146119
 30
0.0
 40
2.900302519555181
100
AcDbArc
 50
327.9491995937
 51
2.3210790838
  0
LINE
  5
1C2
330
1F
100
AcDbEntity
  8
0
  6
Continuous
 62
     7
370
    15
100
AcDbLine
 10
694.3971955265
 20
328.488875103
 30
0.0
 11
694.3971955265
 21
334.0618034417
 31
0.0
  0
ARC
  5
1C3
330
1F
100
AcDbEntity
  8
0
  6
Continuous
 62
     7
370
    15
100
AcDbCircle
 10
692.7205916794
 20
321.8639404388
 30
0.0
 40
2.90030251955698
100
AcDbArc
 50
147.9491995937
 51
182.3210790838
  0
LINE
  5
1C4
330
1F
100
AcDbEntity
  8
0
  6
Continuous
 62
     7
370
    15
100
AcDbLine
 10
689.8226686752
 20
303.7464799477
 30
0.0
 11
689.8226686752
 21
321.7464799477
 31
0.0
  0
LINE
  5
1C5
330
1F
100
AcDbEntity
  8
0
  6
Continuous
 62
     7
370
    15
100
AcDbLine
 10
690.8226686752
 20
301.7464799477
 30
0.0
 11
691.9831427163
 21
301.7464799477
 31
0.0
  0
LWPOLYLINE
  5
1C6
330
1F
100
AcDbEntity
  8
0
  6
Continuous
 62
     7
370
    15
100
AcDbPolyline
 90
       12
 70
   128
 43
0.0
 10
690.8226686752
 20
301.7464799477
 10
690.680353837
 20
301.7668370639
 10
690.5409361184
 20
301.8274940004
 10
690.4072536622
 20
301.927215957
 10
690.2820278578
 20
302.063972882
 10
690.1678079413
 20
302.234980799
 10
690.0669191009
 20
302.4367584798
 10
689.9814151424
 20
302.6651983128
 10
689.9130366799
 20
302.9156499217
 10
689.8631757016
 20
303.183014834
 10
689.8328472333
 20
303.4618502711
 10
689.8226686752
 20
303.7464799477
  0
LINE
  5
1C7
330
1F
100
AcDbEntity
  8
0
  6
Continuous
 62
     7
370
    15
100
AcDbLine
 10
690.2623593075
 20
323.4030467739
 30
0.0
 11
692.7970308531
 21
326.8323082768
 31
0.0
  0
ARC
  5
1C8
330
1F
100
AcDbEntity
  8
0
  6
Continuous
 62
     7
370
    15
100
AcDbCircle
 10
690.3387984813
 20
328.3714146119
 30
0.0
 40
2.900302519555624
100
AcDbArc
 50
327.9491995937
 51
2.3210790838
  0
LINE
  5
1C9
330
1F
100
AcDbEntity
  8
0
  6
Continuous
 62
     7
370
    15
100
AcDbLine
 10
693.2367214854
 20
328.488875103
 30
0.0
 11
693.2367214854
 21
334.0618034417
 31
0.0
  0
LINE
  5
1CA
330
1F
100
AcDbEntity
  8
0
  6
Continuous
 62
     7
370
    15
100
AcDbLine
 10
705.7748000754
 20
328.488875103
 30
0.0
 11
705.7748000754
 21
334.0618034417
 31
0.0
  0
ARC
  5
1CB
330
1F
100
AcDbEntity
  8
0
  6
Continuous
 62
     7
370
    15
100
AcDbCircle
 10
707.7748000754
 20
328.488875103
 30
0.0
 40
2.000000000000028
100
AcDbArc
 50
180.0
 51
235.9228047199
  0
LINE
  5
1CC
330
1F
100
AcDbEntity
  8
0
  6
Continuous
 62
     7
370
    15
100
AcDbLine
 10
711.7235244312
 20
323.4030467739
 30
0.0
 11
706.65418134
 21
326.8323082768
 31
0.0
  0
ARC
  5
1CD
330
1F
100
AcDbEntity
  8
0
  6
Continuous
 62
     7
370
    15
100
AcDbCircle
 10
710.6029056958
 20
321.7464799477
 30
0.0
 40
2.0
100
AcDbArc
 50
0.0
 51
55.9228047199
  0
LINE
  5
1CE
330
1F
100
AcDbEntity
  8
0
  6
Continuous
 62
     7
370
    15
100
AcDbLine
 10
712.6029056958
 20
303.7464799477
 30
0.0
 11
712.6029056958
 21
321.7464799477
 31
0.0
  0
ARC
  5
1CF
330
1F
100
AcDbEntity
  8
0
  6
Continuous
 62
     7
370
    15
100
AcDbCircle
 10
710.6029056958
 20
303.7464799477
 30
0.0
 40
2.0
100
AcDbArc
 50
270.0
 51
0.0
  0
LINE
  5
1D0
330
1F
100
AcDbEntity
  8
0
  6
Continuous
 62
     7
370
    15
100
AcDbLine
 10
709.4029056958
 20
301.7464799477
 30
0.0
 11
710.6029056958
 21
301.7464799477
 31
0.0
  0
ARC
  5
1D1
330
1F
100
AcDbEntity
  8
0
  6
Continuous
 62
     7
370
    15
100
AcDbCircle
 10
709.4029056958
 20
303.7464799477
 30
0.0
 40
2.0
100
AcDbArc
 50
180.0
 51
270.0
  0
LINE
  5
1D2
330
1F
100
AcDbEntity
  8
0
  6
Continuous
 62
     7
370
    15
100
AcDbLine
 10
707.4029056958
 20
304.3018034417
 30
0.0
 11
707.4029056958
 21
303.7464799477
 31
0.0
  0
LINE
  5
1D3
330
1F
100
AcDbEntity
  8
0
  6
Continuous
 62
     7
370
    15
100
AcDbLine
 10
709.4029056958
 20
304.2464799477
 30
0.0
 11
709.4029056958
 21
304.3018034417
 31
0.0
  0
ARC
  5
1D4
330
1F
100
AcDbEntity
  8
0
  6
Continuous
 62
     7
370
    15
100
AcDbCircle
 10
709.9029056958
 20
304.2464799477
 30
0.0
 40
0.5
100
AcDbArc
 50
180.0
 51
270.0
  0
LINE
  5
1D5
330
1F
100
AcDbEntity
  8
0
  6
Continuous
 62
     7
370
    15
100
AcDbLine
 10
710.1029056958
 20
303.7464799477
 30
0.0
 11
709.9029056958
 21
303.7464799477
 31
0.0
  0
ARC
  5
1D6
330
1F
100
AcDbEntity
  8
0
  6
Continuous
 62
     7
370
    15
100
AcDbCircle
 10
710.1029056958
 20
304.2464799477
 30
0.0
 40
0.5
100
AcDbArc
 50
270.0
 51
0.0
  0
LINE
  5
1D7
330
1F
100
AcDbEntity
  8
0
  6
Continuous
 62
     7
370
    15
100
AcDbLine
 10
710.6029056958
 20
320.6847886828
 30
0.0
 11
710.6029056958
 21
304.2464799477
 31
0.0
  0
ARC
  5
1D8
330
1F
100
AcDbEntity
  8
0
  6
Continuous
 62
     7
370
    15
100
AcDbCircle
 10
708.6029056958
 20
320.6847886828
 30
0.0
 40
2.0
100
AcDbArc
 50
0.0
 51
55.9228047199
  0
LINE
  5
1D9
330
1F
100
AcDbEntity
  8
0
  6
Continuous
 62
     7
370
    15
100
AcDbLine
 10
704.65418134
 20
325.7706170119
 30
0.0
 11
709.7235244312
 21
322.341355509
 31
0.0
  0
ARC
  5
1DA
330
1F
100
AcDbEntity
  8
0
  6
Continuous
 62
     7
370
    15
100
AcDbCircle
 10
705.7748000754
 20
327.4271838381
 30
0.0
 40
2.0
100
AcDbArc
 50
180.0
 51
235.9228047199
  0
LINE
  5
1DB
330
1F
100
AcDbEntity
  8
0
  6
Continuous
 62
     7
370
    15
100
AcDbLine
 10
703.7748000754
 20
332.7218034417
 30
0.0
 11
703.7748000754
 21
327.4271838381
 31
0.0
  0
LINE
  5
1DC
330
1F
100
AcDbEntity
  8
0
  6
Continuous
 62
     7
370
    15
100
AcDbLine
 10
701.208615865
 20
328.488875103
 30
0.0
 11
701.208615865
 21
334.0618034417
 31
0.0
  0
ARC
  5
1DD
330
1F
100
AcDbEntity
  8
0
  6
Continuous
 62
     7
370
    15
100
AcDbCircle
 10
704.1065388692
 20
328.3714146119
 30
0.0
 40
2.900302519557991
100
AcDbArc
 50
177.6789209162
 51
212.0508004063
  0
LINE
  5
1DE
330
1F
100
AcDbEntity
  8
0
  6
Continuous
 62
     7
370
    15
100
AcDbLine
 10
704.1829780429
 20
323.4030467739
 30
0.0
 11
701.6483064973
 21
326.8323082768
 31
0.0
  0
ARC
  5
1DF
330
1F
100
AcDbEntity
  8
0
  6
Continuous
 62
     7
370
    15
100
AcDbCircle
 10
701.7247456711
 20
321.8639404388
 30
0.0
 40
2.900302519558103
100
AcDbArc
 50
357.6789209162
 51
32.0508004063
  0
LINE
  5
1E0
330
1F
100
AcDbEntity
  8
0
  6
Continuous
 62
     7
370
    15
100
AcDbLine
 10
704.6226686752
 20
303.7464799477
 30
0.0
 11
704.6226686752
 21
321.7464799477
 31
0.0
  0
LWPOLYLINE
  5
1E1
330
1F
100
AcDbEntity
  8
0
  6
Continuous
 62
     7
370
    15
100
AcDbPolyline
 90
       12
 70
   128
 43
0.0
 10
703.6226686752
 20
301.7464799477
 10
703.7649835135
 20
301.7668370639
 10
703.9044012321
 20
301.8274940004
 10
704.0380836882
 20
301.927215957
 10
704.1633094927
 20
302.063972882
 10
704.2775294092
 20
302.234980799
 10
704.3784182496
 20
302.4367584798
 10
704.4639222081
 20
302.6651983128
 10
704.5323006706
 20
302.9156499217
 10
704.5821616488
 20
303.183014834
 10
704.6124901171
 20
303.4618502711
 10
704.6226686752
 20
303.7464799477
  0
LINE
  5
1E2
330
1F
100
AcDbEntity
  8
0
  6
Continuous
 62
     7
370
    15
100
AcDbLine
 10
703.0226686752
 20
301.7464799477
 30
0.0
 11
703.6226686752
 21
301.7464799477
 31
0.0
  0
LWPOLYLINE
  5
1E3
330
1F
100
AcDbEntity
  8
0
  6
Continuous
 62
     7
370
    15
100
AcDbPolyline
 90
       12
 70
   128
 43
0.0
 10
702.0226686752
 20
303.7464799477
 10
702.0328472333
 20
303.4618502711
 10
702.0631757016
 20
303.183014834
 10
702.1130366799
 20
302.9156499217
 10
702.1814151424
 20
302.6651983128
 10
702.2669191009
 20
302.4367584798
 10
702.3678079413
 20
302.234980799
 10
702.4820278578
 20
302.063972882
 10
702.6072536622
 20
301.927215957
 10
702.7409361184
 20
301.8274940004
 10
702.880353837
 20
301.7668370639
 10
703.0226686752
 20
301.7464799477
  0
LINE
  5
1E4
330
1F
100
AcDbEntity
  8
0
  6
Continuous
 62
     7
370
    15
100
AcDbLine
 10
702.0226686752
 20
304.3018034417
 30
0.0
 11
702.0226686752
 21
303.7464799477
 31
0.0
  0
LINE
  5
1E5
330
1F
100
AcDbEntity
  8
0
  6
Continuous
 62
     7
370
    15
100
AcDbLine
 10
703.0226686752
 20
304.2464799477
 30
0.0
 11
703.0226686752
 21
304.3018034417
 31
0.0
  0
LWPOLYLINE
  5
1E6
330
1F
100
AcDbEntity
  8
0
  6
Continuous
 62
     7
370
    15
100
AcDbPolyline
 90
        9
 70
   128
 43
0.0
 10
703.2726686752
 20
303.7464799477
 10
703.2238960947
 20
303.7560873075
 10
703.1769978171
 20
303.7845401814
 10
703.133776117
 20
303.8307451415
 10
703.0958919799
 20
303.8929265571
 10
703.0648012722
 20
303.9686948312
 10
703.0416987921
 20
304.0551382315
 10
703.0274723551
 20
304.1489347867
 10
703.0226686752
 20
304.2464799477
  0
LINE
  5
1E7
330
1F
100
AcDbEntity
  8
0
  6
Continuous
 62
     7
370
    15
100
AcDbLine
 10
703.3726686752
 20
303.7464799477
 30
0.0
 11
703.2726686752
 21
303.7464799477
 31
0.0
  0
LWPOLYLINE
  5
1E8
330
1F
100
AcDbEntity
  8
0
  6
Continuous
 62
     7
370
    15
100
AcDbPolyline
 90
        9
 70
   128
 43
0.0
 10
703.6226686752
 20
304.2464799477
 10
703.6178649953
 20
304.1489347867
 10
703.6036385584
 20
304.0551382315
 10
703.5805360783
 20
303.9686948312
 10
703.5494453705
 20
303.8929265571
 10
703.5115612335
 20
303.8307451415
 10
703.4683395333
 20
303.7845401814
 10
703.4214412557
 20
303.7560873075
 10
703.3726686752
 20
303.7464799477
  0
LINE
  5
1E9
330
1F
100
AcDbEntity
  8
0
  6
Continuous
 62
     7
370
    15
100
AcDbLine
 10
703.6226686752
 20
320.6847886828
 30
0.0
 11
703.6226686752
 21
304.2464799477
 31
0.0
  0
ARC
  5
1EA
330
1F
100
AcDbEntity
  8
0
  6
Continuous
 62
     7
370
    15
100
AcDbCircle
 10
700.7247456711
 20
320.8022491739
 30
0.0
 40
2.900302519559781
100
AcDbArc
 50
357.6789209163
 51
32.0508004063
  0
LINE
  5
1EB
330
1F
100
AcDbEntity
  8
0
  6
Continuous
 62
     7
370
    15
100
AcDbLine
 10
700.6483064973
 20
325.7706170119
 30
0.0
 11
703.1829780429
 21
322.341355509
 31
0.0
  0
ARC
  5
1EC
330
1F
100
AcDbEntity
  8
0
  6
Continuous
 62
     7
370
    15
100
AcDbCircle
 10
703.1065388692
 20
327.309723347
 30
0.0
 40
2.900302519558327
100
AcDbArc
 50
177.6789209162
 51
212.0508004063
  0
LINE
  5
1ED
330
1F
100
AcDbEntity
  8
0
  6
Continuous
 62
     7
370
    15
100
AcDbLine
 10
700.208615865
 20
332.7218034417
 30
0.0
 11
700.208615865
 21
327.4271838381
 31
0.0
  0
ARC
  5
1EE
330
1F
100
AcDbEntity
  8
0
  6
Continuous
 62
     7
370
    15
100
AcDbCircle
 10
702.8852197122
 20
321.8639404388
 30
0.0
 40
2.900302519556751
100
AcDbArc
 50
357.6789209162
 51
32.0508004063
  0
LINE
  5
1EF
330
1F
100
AcDbEntity
  8
0
  6
Continuous
 62
     7
370
    15
100
AcDbLine
 10
705.7831427163
 20
303.7464799477
 30
0.0
 11
705.7831427163
 21
321.7464799477
 31
0.0
  0
LINE
  5
1F0
330
1F
100
AcDbEntity
  8
0
  6
Continuous
 62
     7
370
    15
100
AcDbLine
 10
703.6226686752
 20
301.7464799477
 30
0.0
 11
704.7831427163
 21
301.7464799477
 31
0.0
  0
LWPOLYLINE
  5
1F1
330
1F
100
AcDbEntity
  8
0
  6
Continuous
 62
     7
370
    15
100
AcDbPolyline
 90
       12
 70
   128
 43
0.0
 10
704.7831427163
 20
301.7464799477
 10
704.9254575546
 20
301.7668370639
 10
705.0648752731
 20
301.8274940004
 10
705.1985577293
 20
301.927215957
 10
705.3237835338
 20
302.063972882
 10
705.4380034502
 20
302.234980799
 10
705.5388922907
 20
302.4367584798
 10
705.6243962491
 20
302.6651983128
 10
705.6927747117
 20
302.9156499217
 10
705.7426356899
 20
303.183014834
 10
705.7729641582
 20
303.4618502711
 10
705.7831427163
 20
303.7464799477
  0
LINE
  5
1F2
330
1F
100
AcDbEntity
  8
0
  6
Continuous
 62
     7
370
    15
100
AcDbLine
 10
705.343452084
 20
323.4030467739
 30
0.0
 11
702.8087805384
 21
326.8323082768
 31
0.0
  0
ARC
  5
1F3
330
1F
100
AcDbEntity
  8
0
  6
Continuous
 62
     7
370
    15
100
AcDbCircle
 10
705.2670129103
 20
328.3714146119
 30
0.0
 40
2.900302519558105
100
AcDbArc
 50
177.6789209162
 51
212.0508004063
  0
LINE
  5
1F4
330
1F
100
AcDbEntity
  8
0
  6
Continuous
 62
     7
370
    15
100
AcDbLine
 10
702.3690899061
 20
328.488875103
 30
0.0
 11
702.3690899061
 21
334.0618034417
 31
0.0
  0
LINE
  5
1F5
330
1F
100
AcDbEntity
  8
0
  6
Continuous
 62
     7
370
    15
100
AcDbLine
 10
691.8310113161
 20
332.7218034417
 30
0.0
 11
691.8310113161
 21
327.4271838381
 31
0.0
  0
ARC
  5
1F6
330
1F
100
AcDbEntity
  8
0
  6
Continuous
 62
     7
370
    15
100
AcDbCircle
 10
689.8310113161
 20
327.4271838381
 30
0.0
 40
2.000000000000075
100
AcDbArc
 50
304.0771952801
 51
360.0
  0
LINE
  5
1F7
330
1F
100
AcDbEntity
  8
0
  6
Continuous
 62
     7
370
    15
100
AcDbLine
 10
690.9516300515
 20
325.7706170119
 30
0.0
 11
685.8822869604
 21
322.341355509
 31
0.0
  0
ARC
  5
1F8
330
1F
100
AcDbEntity
  8
0
  6
Continuous
 62
     7
370
    15
100
AcDbCircle
 10
687.0029056958
 20
320.6847886828
 30
0.0
 40
2.000000000000028
100
AcDbArc
 50
124.0771952801
 51
180.0
  0
LINE
  5
1F9
330
1F
100
AcDbEntity
  8
0
  6
Continuous
 62
     7
370
    15
100
AcDbLine
 10
685.0029056958
 20
320.6847886828
 30
0.0
 11
685.0029056958
 21
304.2464799477
 31
0.0
  0
ARC
  5
1FA
330
1F
100
AcDbEntity
  8
0
  6
Continuous
 62
     7
370
    15
100
AcDbCircle
 10
685.5029056958
 20
304.2464799477
 30
0.0
 40
0.5
100
AcDbArc
 50
180.0
 51
270.0
  0
LINE
  5
1FB
330
1F
100
AcDbEntity
  8
0
  6
Continuous
 62
     7
370
    15
100
AcDbLine
 10
685.5029056958
 20
303.7464799477
 30
0.0
 11
685.7029056958
 21
303.7464799477
 31
0.0
  0
ARC
  5
1FC
330
1F
100
AcDbEntity
  8
0
  6
Continuous
 62
     7
370
    15
100
AcDbCircle
 10
685.7029056958
 20
304.2464799477
 30
0.0
 40
0.5
100
AcDbArc
 50
270.0
 51
0.0
  0
LINE
  5
1FD
330
1F
100
AcDbEntity
  8
0
  6
Continuous
 62
     7
370
    15
100
AcDbLine
 10
686.2029056958
 20
304.2464799477
 30
0.0
 11
686.2029056958
 21
304.3018034417
 31
0.0
  0
LINE
  5
1FE
330
1F
100
AcDbEntity
  8
0
  6
Continuous
 62
     7
370
    15
100
AcDbLine
 10
688.2029056958
 20
304.3018034417
 30
0.0
 11
688.2029056958
 21
303.7464799477
 31
0.0
  0
ARC
  5
1FF
330
1F
100
AcDbEntity
  8
0
  6
Continuous
 62
     7
370
    15
100
AcDbCircle
 10
686.2029056958
 20
303.7464799477
 30
0.0
 40
2.0
100
AcDbArc
 50
270.0
 51
0.0
  0
LINE
  5
200
330
1F
100
AcDbEntity
  8
0
  6
Continuous
 62
     7
370
    15
100
AcDbLine
 10
686.2029056958
 20
301.7464799477
 30
0.0
 11
685.0029056958
 21
301.7464799477
 31
0.0
  0
ARC
  5
201
330
1F
100
AcDbEntity
  8
0
  6
Continuous
 62
     7
370
    15
100
AcDbCircle
 10
685.0029056958
 20
303.7464799477
 30
0.0
 40
2.0
100
AcDbArc
 50
180.0
 51
270.0
  0
LINE
  5
202
330
1F
100
AcDbEntity
  8
0
  6
Continuous
 62
     7
370
    15
100
AcDbLine
 10
683.0029056958
 20
303.7464799477
 30
0.0
 11
683.0029056958
 21
321.7464799477
 31
0.0
  0
ARC
  5
203
330
1F
100
AcDbEntity
  8
0
  6
Continuous
 62
     7
370
    15
100
AcDbCircle
 10
685.0029056958
 20
321.7464799477
 30
0.0
 40
2.0
100
AcDbArc
 50
124.0771952801
 51
180.0
  0
LINE
  5
204
330
1F
100
AcDbEntity
  8
0
  6
Continuous
 62
     7
370
    15
100
AcDbLine
 10
683.8822869604
 20
323.4030467739
 30
0.0
 11
688.9516300515
 21
326.8323082768
 31
0.0
  0
ARC
  5
205
330
1F
100
AcDbEntity
  8
0
  6
Continuous
 62
     7
370
    15
100
AcDbCircle
 10
687.8310113161
 20
328.488875103
 30
0.0
 40
2.000000000000028
100
AcDbArc
 50
304.0771952801
 51
0.0
  0
LINE
  5
206
330
1F
100
AcDbEntity
  8
0
  6
Continuous
 62
     7
370
    15
100
AcDbLine
 10
689.8310113161
 20
328.488875103
 30
0.0
 11
689.8310113161
 21
334.0618034417
 31
0.0
  0
LINE
  5
207
330
1F
100
AcDbEntity
  8
0
  6
Continuous
 62
     7
370
    15
100
AcDbLine
 10
694.3971955265
 20
334.0618034417
 30
0.0
 11
694.3971955265
 21
332.7218034417
 31
0.0
  0
LINE
  5
208
330
1F
100
AcDbEntity
  8
0
  6
Continuous
 62
     7
370
    15
100
AcDbLine
 10
701.208615865
 20
334.0618034417
 30
0.0
 11
701.208615865
 21
332.7218034417
 31
0.0
  0
LINE
  5
209
330
1F
100
AcDbEntity
  8
0
  6
Continuous
 62
     7
370
    15
100
AcDbLine
 10
694.3971955265
 20
334.0618034417
 30
0.0
 11
701.208615865
 21
334.0618034417
 31
0.0
  0
LINE
  5
20A
330
1F
100
AcDbEntity
  8
0
  6
Continuous
 62
     7
370
    15
100
AcDbLine
 10
694.3971955265
 20
332.7218034417
 30
0.0
 11
701.208615865
 21
332.7218034417
 31
0.0
  0
LINE
  5
20B
330
1F
100
AcDbEntity
  8
0
  6
Continuous
 62
     7
370
    15
100
AcDbLine
 10
702.3690899061
 20
334.0618034417
 30
0.0
 11
702.3690899061
 21
332.7218034417
 31
0.0
  0
LINE
  5
20C
330
1F
100
AcDbEntity
  8
0
  6
Continuous
 62
     7
370
    15
100
AcDbLine
 10
705.7748000754
 20
334.0618034417
 30
0.0
 11
705.7748000754
 21
332.7218034417
 31
0.0
  0
LINE
  5
20D
330
1F
100
AcDbEntity
  8
0
  6
Continuous
 62
     7
370
    15
100
AcDbLine
 10
702.3690899061
 20
334.0618034417
 30
0.0
 11
705.7748000754
 21
334.0618034417
 31
0.0
  0
LINE
  5
20E
330
1F
100
AcDbEntity
  8
0
  6
Continuous
 62
     7
370
    15
100
AcDbLine
 10
702.3690899061
 20
332.7218034417
 30
0.0
 11
705.7748000754
 21
332.7218034417
 31
0.0
  0
LINE
  5
20F
330
1F
100
AcDbEntity
  8
0
  6
Continuous
 62
     7
370
    15
100
AcDbLine
 10
689.8310113161
 20
334.0618034417
 30
0.0
 11
689.8310113161
 21
332.7218034417
 31
0.0
  0
LINE
  5
210
330
1F
100
AcDbEntity
  8
0
  6
Continuous
 62
     7
370
    15
100
AcDbLine
 10
693.2367214854
 20
334.0618034417
 30
0.0
 11
693.2367214854
 21
332.7218034417
 31
0.0
  0
LINE
  5
211
330
1F
100
AcDbEntity
  8
0
  6
Continuous
 62
     7
370
    15
100
AcDbLine
 10
689.8310113161
 20
334.0618034417
 30
0.0
 11
693.2367214854
 21
334.0618034417
 31
0.0
  0
LINE
  5
212
330
1F
100
AcDbEntity
  8
0
  6
Continuous
 62
     7
370
    15
100
AcDbLine
 10
689.8310113161
 20
332.7218034417
 30
0.0
 11
693.2367214854
 21
332.7218034417
 31
0.0
  0
ENDSEC
  0
SECTION
  2
OBJECTS
  0
DICTIONARY
  5
C
330
0
100
AcDbDictionary
281
     1
  3
ACAD_GROUP
350
D
  3
ACAD_LAYOUT
350
1A
  3
ACAD_MLINESTYLE
350
17
  3
ACAD_PLOTSETTINGS
350
19
  3
ACAD_PLOTSTYLENAME
350
E
  3
ACAD_SCALELIST
350
47
  0
DICTIONARY
  5
D
102
{ACAD_REACTORS
330
C
102
}
330
C
100
AcDbDictionary
281
     1
  0
DICTIONARY
  5
1A
102
{ACAD_REACTORS
330
C
102
}
330
C
100
AcDbDictionary
281
     1
  3
Layout1
350
1E
  3
Layout2
350
26
  3
Model
350
22
  0
DICTIONARY
  5
17
102
{ACAD_REACTORS
330
C
102
}
330
C
100
AcDbDictionary
281
     1
  3
Standard
350
18
  0
DICTIONARY
  5
19
102
{ACAD_REACTORS
330
C
102
}
330
C
100
AcDbDictionary
281
     1
  0
ACDBDICTIONARYWDFLT
  5
E
102
{ACAD_REACTORS
330
C
102
}
330
C
100
AcDbDictionary
281
     1
  3
Normal
350
F
100
AcDbDictionaryWithDefault
340
F
  0
DICTIONARY
  5
47
102
{ACAD_REACTORS
330
C
102
}
330
C
100
AcDbDictionary
281
     1
  3
A0
350
48
  3
A1
350
49
  3
A2
350
4A
  3
A3
350
4B
  3
A4
350
4C
  3
A5
350
4D
  3
A6
350
4E
  3
A7
350
4F
  3
A8
350
50
  3
A9
350
51
  3
B0
350
52
  3
B1
350
53
  3
B2
350
54
  3
B3
350
55
  3
B4
350
56
  3
B5
350
57
  3
B6
350
58
  3
B7
350
59
  3
B8
350
5A
  3
B9
350
5B
  3
C0
350
5C
  3
C1
350
5D
  3
C2
350
5E
  3
C3
350
5F
  3
C4
350
60
  3
C5
350
61
  3
C6
350
62
  3
C7
350
63
  3
C8
350
64
  3
C9
350
65
  3
D0
350
66
  3
D1
350
67
  3
D2
350
68
  0
LAYOUT
  5
1E
102
{ACAD_REACTORS
330
1A
102
}
330
1A
100
AcDbPlotSettings
  1

  2
none_device
  4

  6

 40
0.0
 41
0.0
 42
0.0
 43
0.0
 44
0.0
 45
0.0
 46
0.0
 47
0.0
 48
0.0
 49
0.0
140
0.0
141
0.0
142
1.0
143
1.0
 70
   688
 72
     1
 73
     0
 74
     5
  7

 75
    16
147
1.0
148
0.0
149
0.0
100
AcDbLayout
  1
Layout1
 70
     1
 71
     1
 10
0.0
 20
0.0
 11
420.0
 21
297.0
 12
0.0
 22
0.0
 32
0.0
 14
1.0000000000E+20
 24
1.0000000000E+20
 34
1.0000000000E+20
 15
-1.0000000000E+20
 25
-1.0000000000E+20
 35
-1.0000000000E+20
146
0.0
 13
0.0
 23
0.0
 33
0.0
 16
1.0
 26
0.0
 36
0.0
 17
0.0
 27
1.0
 37
0.0
 76
     0
330
1B
  0
LAYOUT
  5
26
102
{ACAD_REACTORS
330
1A
102
}
330
1A
100
AcDbPlotSettings
  1

  2
none_device
  4

  6

 40
0.0
 41
0.0
 42
0.0
 43
0.0
 44
0.0
 45
0.0
 46
0.0
 47
0.0
 48
0.0
 49
0.0
140
0.0
141
0.0
142
1.0
143
1.0
 70
   688
 72
     1
 73
     0
 74
     5
  7

 75
    16
147
1.0
148
0.0
149
0.0
100
AcDbLayout
  1
Layout2
 70
     1
 71
     2
 10
0.0
 20
0.0
 11
0.0
 21
0.0
 12
0.0
 22
0.0
 32
0.0
 14
0.0
 24
0.0
 34
0.0
 15
0.0
 25
0.0
 35
0.0
146
0.0
 13
0.0
 23
0.0
 33
0.0
 16
1.0
 26
0.0
 36
0.0
 17
0.0
 27
1.0
 37
0.0
 76
     0
330
23
  0
LAYOUT
  5
22
102
{ACAD_REACTORS
330
1A
102
}
330
1A
100
AcDbPlotSettings
  1

  2
none_device
  4
Letter_(8.50_x_11.00_Inches)
  6

 40
6.35
 41
6.35
 42
6.35000508
 43
6.35000508
 44
215.9
 45
279.4
 46
0.0
 47
0.0
 48
0.0
 49
0.0
140
0.0
141
0.0
142
1.0
143
1.0
 70
  1712
 72
     1
 73
     0
 74
     0
  7

 75
     0
147
1.0
148
0.0
149
0.0
100
AcDbLayout
  1
Model
 70
     1
 71
     0
 10
0.0
 20
0.0
 11
1189.0
 21
841.0
 12
0.0
 22
0.0
 32
0.0
 14
0.0
 24
0.0
 34
0.0
 15
1189.0
 25
841.0
 35
0.0
146
0.0
 13
0.0
 23
0.0
 33
0.0
 16
1.0
 26
0.0
 36
0.0
 17
0.0
 27
1.0
 37
0.0
 76
     0
330
1F
331
29
  0
MLINESTYLE
  5
18
102
{ACAD_REACTORS
330
17
102
}
330
17
100
AcDbMlineStyle
  2
Standard
 70
     0
  3

 62
   256
 51
90.0
 52
90.0
 71
     2
 49
0.5
 62
   256
  6
BYLAYER
 49
-0.5
 62
   256
  6
BYLAYER
  0
ACDBPLACEHOLDER
  5
F
102
{ACAD_REACTORS
330
E
102
}
330
E
  0
SCALE
  5
48
102
{ACAD_REACTORS
330
47
102
}
330
47
100
AcDbScale
 70
     0
300
1:1
140
1.0
141
1.0
290
     1
  0
SCALE
  5
49
102
{ACAD_REACTORS
330
47
102
}
330
47
100
AcDbScale
 70
     0
300
1:2
140
1.0
141
2.0
290
     0
  0
SCALE
  5
4A
102
{ACAD_REACTORS
330
47
102
}
330
47
100
AcDbScale
 70
     0
300
1:4
140
1.0
141
4.0
290
     0
  0
SCALE
  5
4B
102
{ACAD_REACTORS
330
47
102
}
330
47
100
AcDbScale
 70
     0
300
1:5
140
1.0
141
5.0
290
     0
  0
SCALE
  5
4C
102
{ACAD_REACTORS
330
47
102
}
330
47
100
AcDbScale
 70
     0
300
1:8
140
1.0
141
8.0
290
     0
  0
SCALE
  5
4D
102
{ACAD_REACTORS
330
47
102
}
330
47
100
AcDbScale
 70
     0
300
1:10
140
1.0
141
10.0
290
     0
  0
SCALE
  5
4E
102
{ACAD_REACTORS
330
47
102
}
330
47
100
AcDbScale
 70
     0
300
1:16
140
1.0
141
16.0
290
     0
  0
SCALE
  5
4F
102
{ACAD_REACTORS
330
47
102
}
330
47
100
AcDbScale
 70
     0
300
1:20
140
1.0
141
20.0
290
     0
  0
SCALE
  5
50
102
{ACAD_REACTORS
330
47
102
}
330
47
100
AcDbScale
 70
     0
300
1:30
140
1.0
141
30.0
290
     0
  0
SCALE
  5
51
102
{ACAD_REACTORS
330
47
102
}
330
47
100
AcDbScale
 70
     0
300
1:40
140
1.0
141
40.0
290
     0
  0
SCALE
  5
52
102
{ACAD_REACTORS
330
47
102
}
330
47
100
AcDbScale
 70
     0
300
1:50
140
1.0
141
50.0
290
     0
  0
SCALE
  5
53
102
{ACAD_REACTORS
330
47
102
}
330
47
100
AcDbScale
 70
     0
300
1:100
140
1.0
141
100.0
290
     0
  0
SCALE
  5
54
102
{ACAD_REACTORS
330
47
102
}
330
47
100
AcDbScale
 70
     0
300
2:1
140
2.0
141
1.0
290
     0
  0
SCALE
  5
55
102
{ACAD_REACTORS
330
47
102
}
330
47
100
AcDbScale
 70
     0
300
4:1
140
4.0
141
1.0
290
     0
  0
SCALE
  5
56
102
{ACAD_REACTORS
330
47
102
}
330
47
100
AcDbScale
 70
     0
300
8:1
140
8.0
141
1.0
290
     0
  0
SCALE
  5
57
102
{ACAD_REACTORS
330
47
102
}
330
47
100
AcDbScale
 70
     0
300
10:1
140
10.0
141
1.0
290
     0
  0
SCALE
  5
58
102
{ACAD_REACTORS
330
47
102
}
330
47
100
AcDbScale
 70
     0
300
100:1
140
100.0
141
1.0
290
     0
  0
SCALE
  5
59
102
{ACAD_REACTORS
330
47
102
}
330
47
100
AcDbScale
 70
     0
300
1/128" = 1'-0"
140
0.0078125
141
12.0
290
     0
  0
SCALE
  5
5A
102
{ACAD_REACTORS
330
47
102
}
330
47
100
AcDbScale
 70
     0
300
1/64" = 1'-0"
140
0.015625
141
12.0
290
     0
  0
SCALE
  5
5B
102
{ACAD_REACTORS
330
47
102
}
330
47
100
AcDbScale
 70
     0
300
1/32" = 1'-0"
140
0.03125
141
12.0
290
     0
  0
SCALE
  5
5C
102
{ACAD_REACTORS
330
47
102
}
330
47
100
AcDbScale
 70
     0
300
1/16" = 1'-0"
140
0.0625
141
12.0
290
     0
  0
SCALE
  5
5D
102
{ACAD_REACTORS
330
47
102
}
330
47
100
AcDbScale
 70
     0
300
3/32" = 1'-0"
140
0.09375
141
12.0
290
     0
  0
SCALE
  5
5E
102
{ACAD_REACTORS
330
47
102
}
330
47
100
AcDbScale
 70
     0
300
1/8" = 1'-0"
140
0.125
141
12.0
290
     0
  0
SCALE
  5
5F
102
{ACAD_REACTORS
330
47
102
}
330
47
100
AcDbScale
 70
     0
300
3/16" = 1'-0"
140
0.1875
141
12.0
290
     0
  0
SCALE
  5
60
102
{ACAD_REACTORS
330
47
102
}
330
47
100
AcDbScale
 70
     0
300
1/4" = 1'-0"
140
0.25
141
12.0
290
     0
  0
SCALE
  5
61
102
{ACAD_REACTORS
330
47
102
}
330
47
100
AcDbScale
 70
     0
300
3/8" = 1'-0"
140
0.375
141
12.0
290
     0
  0
SCALE
  5
62
102
{ACAD_REACTORS
330
47
102
}
330
47
100
AcDbScale
 70
     0
300
1/2" = 1'-0"
140
0.5
141
12.0
290
     0
  0
SCALE
  5
63
102
{ACAD_REACTORS
330
47
102
}
330
47
100
AcDbScale
 70
     0
300
3/4" = 1'-0"
140
0.75
141
12.0
290
     0
  0
SCALE
  5
64
102
{ACAD_REACTORS
330
47
102
}
330
47
100
AcDbScale
 70
     0
300
1" = 1'-0"
140
1.0
141
12.0
290
     0
  0
SCALE
  5
65
102
{ACAD_REACTORS
330
47
102
}
330
47
100
AcDbScale
 70
     0
300
1-1/2" = 1'-0"
140
1.5
141
12.0
290
     0
  0
SCALE
  5
66
102
{ACAD_REACTORS
330
47
102
}
330
47
100
AcDbScale
 70
     0
300
3" = 1'-0"
140
3.0
141
12.0
290
     0
  0
SCALE
  5
67
102
{ACAD_REACTORS
330
47
102
}
330
47
100
AcDbScale
 70
     0
300
6" = 1'-0"
140
6.0
141
12.0
290
     0
  0
SCALE
  5
68
102
{ACAD_REACTORS
330
47
102
}
330
47
100
AcDbScale
 70
     0
300
1'-0" = 1'-0"
140
12.0
141
12.0
290
     0
  0
ENDSEC
  0
EOF
