  0
SECTION
  2
HEADER
  9
$ACADVER
  1
AC1024
  9
$ACADMAINTVER
 70
     6
  9
$DWGCODEPAGE
  3
ANSI_1252
  9
$INSBASE
 10
0.0
 20
0.0
 30
0.0
  9
$EXTMIN
 10
0.0
 20
0.0
 30
0.0
  9
$EXTMAX
 10
2000.0
 20
2000.0
 30
0.0
  9
$LIMMIN
 10
0.0
 20
0.0
  9
$LIMMAX
 10
2000.0
 20
2000.0
  9
$ORTHOMODE
 70
     0
  9
$REGENMODE
 70
     1
  9
$FILLMODE
 70
     1
  9
$QTEXTMODE
 70
     0
  9
$MIRRTEXT
 70
     1
  9
$LTSCALE
 40
1.0
  9
$ATTMODE
 70
     1
  9
$TEXTSIZE
 40
3.5
  9
$TRACEWID
 40
1.0
  9
$TEXTSTYLE
  7
Standard
  9
$CLAYER
  8
0
  9
$CELTYPE
  6
ByLayer
  9
$CECOLOR
 62
   256
  9
$CELTSCALE
 40
1.0
  9
$DISPSILH
 70
     0
  9
$DIMSCALE
 40
1.0
  9
$DIMASZ
 40
3.556
  9
$DIMEXO
 40
1.0
  9
$DIMDLI
 40
3.75
  9
$DIMRND
 40
0.0
  9
$DIMDLE
 40
0.0
  9
$DIMEXE
 40
1.0
  9
$DIMTP
 40
0.0
  9
$DIMTM
 40
0.0
  9
$DIMTXT
 40
3.5
  9
$DIMCEN
 40
2.5
  9
$DIMTSZ
 40
0.0
  9
$DIMTOL
 70
     0
  9
$DIMLIM
 70
     0
  9
$DIMTIH
 70
     1
  9
$DIMTOH
 70
     1
  9
$DIMSE1
 70
     0
  9
$DIMSE2
 70
     0
  9
$DIMTAD
 70
     1
  9
$DIMZIN
 70
     0
  9
$DIMBLK
  1

  9
$DIMASO
 70
     1
  9
$DIMSHO
 70
     1
  9
$DIMPOST
  1

  9
$DIMAPOST
  1

  9
$DIMALT
 70
     0
  9
$DIMALTD
 70
     3
  9
$DIMALTF
 40
0.0393700787
  9
$DIMLFAC
 40
1.0
  9
$DIMTOFL
 70
     1
  9
$DIMTVP
 40
0.0
  9
$DIMTIX
 70
     0
  9
$DIMSOXD
 70
     0
  9
$DIMSAH
 70
     0
  9
$DIMBLK1
  1

  9
$DIMBLK2
  1

  9
$DIMSTYLE
  2
ISO-25
  9
$DIMCLRD
 70
     0
  9
$DIMCLRE
 70
     0
  9
$DIMCLRT
 70
     0
  9
$DIMTFAC
 40
1.0
  9
$DIMGAP
 40
1.524
  9
$DIMJUST
 70
     0
  9
$DIMSD1
 70
     0
  9
$DIMSD2
 70
     0
  9
$DIMTOLJ
 70
     0
  9
$DIMTZIN
 70
     0
  9
$DIMALTZ
 70
     0
  9
$DIMALTTZ
 70
     0
  9
$DIMUPT
 70
     0
  9
$DIMDEC
 70
     2
  9
$DIMTDEC
 70
     2
  9
$DIMALTU
 70
     2
  9
$DIMALTTD
 70
     3
  9
$DIMTXSTY
  7
Standard
  9
$DIMAUNIT
 70
     0
  9
$DIMADEC
 70
     2
  9
$DIMALTRND
 40
0.0
  9
$DIMAZIN
 70
     0
  9
$DIMDSEP
 70
    44
  9
$DIMATFIT
 70
     3
  9
$DIMFRAC
 70
     0
  9
$DIMLDRBLK
  1

  9
$DIMLUNIT
 70
     2
  9
$DIMLWD
 70
    -2
  9
$DIMLWE
 70
    -2
  9
$DIMTMOVE
 70
     0
  9
$DIMFXL
 40
1.0
  9
$DIMFXLON
 70
     0
  9
$DIMJOGANG
 40
0.7853981634
  9
$DIMTFILL
 70
     0
  9
$DIMTFILLCLR
 70
     0
  9
$DIMARCSYM
 70
     0
  9
$DIMLTYPE
  6

  9
$DIMLTEX1
  6

  9
$DIMLTEX2
  6

  9
$DIMTXTDIRECTION
 70
     0
  9
$LUNITS
 70
     2
  9
$LUPREC
 70
     2
  9
$SKETCHINC
 40
1.0
  9
$FILLETRAD
 40
10.0
  9
$AUNITS
 70
     0
  9
$AUPREC
 70
     2
  9
$MENU
  1
.
  9
$ELEVATION
 40
0.0
  9
$PELEVATION
 40
0.0
  9
$THICKNESS
 40
0.0
  9
$LIMCHECK
 70
     0
  9
$CHAMFERA
 40
0.0
  9
$CHAMFERB
 40
0.0
  9
$CHAMFERC
 40
0.0
  9
$CHAMFERD
 40
0.0
  9
$SKPOLY
 70
     0
  9
$TDCREATE
 40
2458774.730283136
  9
$TDUCREATE
 40
2458774.68861647
  9
$TDUPDATE
 40
2458774.730283426
  9
$TDUUPDATE
 40
2458774.688616759
  9
$TDINDWG
 40
0.0000000116
  9
$TDUSRTIMER
 40
0.0000000116
  9
$USRTIMER
 70
     1
  9
$ANGBASE
 50
0.0
  9
$ANGDIR
 70
     0
  9
$PDMODE
 70
     0
  9
$PDSIZE
 40
-1.0
  9
$PLINEWID
 40
0.0
  9
$SPLFRAME
 70
     0
  9
$SPLINETYPE
 70
     6
  9
$SPLINESEGS
 70
     8
  9
$HANDSEED
  5
1DD
  9
$SURFTAB1
 70
     6
  9
$SURFTAB2
 70
     6
  9
$SURFTYPE
 70
     6
  9
$SURFU
 70
     6
  9
$SURFV
 70
     6
  9
$UCSBASE
  2

  9
$UCSNAME
  2

  9
$UCSORG
 10
0.0
 20
0.0
 30
0.0
  9
$UCSXDIR
 10
1.0
 20
0.0
 30
0.0
  9
$UCSYDIR
 10
0.0
 20
1.0
 30
0.0
  9
$UCSORTHOREF
  2

  9
$UCSORTHOVIEW
 70
     0
  9
$UCSORGTOP
 10
0.0
 20
0.0
 30
0.0
  9
$UCSORGBOTTOM
 10
0.0
 20
0.0
 30
0.0
  9
$UCSORGLEFT
 10
0.0
 20
0.0
 30
0.0
  9
$UCSORGRIGHT
 10
0.0
 20
0.0
 30
0.0
  9
$UCSORGFRONT
 10
0.0
 20
0.0
 30
0.0
  9
$UCSORGBACK
 10
0.0
 20
0.0
 30
0.0
  9
$PUCSBASE
  2

  9
$PUCSNAME
  2

  9
$PUCSORG
 10
0.0
 20
0.0
 30
0.0
  9
$PUCSXDIR
 10
1.0
 20
0.0
 30
0.0
  9
$PUCSYDIR
 10
0.0
 20
1.0
 30
0.0
  9
$PUCSORTHOREF
  2

  9
$PUCSORTHOVIEW
 70
     0
  9
$PUCSORGTOP
 10
0.0
 20
0.0
 30
0.0
  9
$PUCSORGBOTTOM
 10
0.0
 20
0.0
 30
0.0
  9
$PUCSORGLEFT
 10
0.0
 20
0.0
 30
0.0
  9
$PUCSORGRIGHT
 10
0.0
 20
0.0
 30
0.0
  9
$PUCSORGFRONT
 10
0.0
 20
0.0
 30
0.0
  9
$PUCSORGBACK
 10
0.0
 20
0.0
 30
0.0
  9
$USERI1
 70
     0
  9
$USERI2
 70
     0
  9
$USERI3
 70
     0
  9
$USERI4
 70
     0
  9
$USERI5
 70
     0
  9
$USERR1
 40
0.0
  9
$USERR2
 40
0.0
  9
$USERR3
 40
0.0
  9
$USERR4
 40
0.0
  9
$USERR5
 40
0.0
  9
$WORLDVIEW
 70
     1
  9
$SHADEDGE
 70
     3
  9
$SHADEDIF
 70
    70
  9
$TILEMODE
 70
     1
  9
$MAXACTVP
 70
    64
  9
$PINSBASE
 10
0.0
 20
0.0
 30
0.0
  9
$PLIMCHECK
 70
     0
  9
$PEXTMIN
 10
1.0000000000E+20
 20
1.0000000000E+20
 30
1.0000000000E+20
  9
$PEXTMAX
 10
-1.0000000000E+20
 20
-1.0000000000E+20
 30
-1.0000000000E+20
  9
$PLIMMIN
 10
0.0
 20
0.0
  9
$PLIMMAX
 10
420.0
 20
297.0
  9
$UNITMODE
 70
     0
  9
$VISRETAIN
 70
     1
  9
$PLINEGEN
 70
     0
  9
$PSLTSCALE
 70
     1
  9
$TREEDEPTH
 70
  3020
  9
$CMLSTYLE
  2
Standard
  9
$CMLJUST
 70
     0
  9
$CMLSCALE
 40
20.0
  9
$PROXYGRAPHICS
 70
     1
  9
$MEASUREMENT
 70
     1
  9
$CELWEIGHT
370
    -1
  9
$ENDCAPS
280
     0
  9
$JOINSTYLE
280
     0
  9
$LWDISPLAY
290
     1
  9
$INSUNITS
 70
     4
  9
$HYPERLINKBASE
  1

  9
$STYLESHEET
  1

  9
$XEDIT
290
     1
  9
$CEPSNTYPE
380
     0
  9
$PSTYLEMODE
290
     1
  9
$FINGERPRINTGUID
  2
{F3F75A2A-8344-4FC5-A974-B1F015E6CB16}
  9
$VERSIONGUID
  2
{FAEB1C32-E019-11D5-929B-00C0DF256EC4}
  9
$EXTNAMES
290
     1
  9
$PSVPSCALE
 40
0.0
  9
$OLESTARTUP
290
     0
  9
$SORTENTS
280
   127
  9
$INDEXCTL
280
     0
  9
$HIDETEXT
280
     1
  9
$XCLIPFRAME
280
     2
  9
$HALOGAP
280
     0
  9
$OBSCOLOR
 70
   257
  9
$OBSLTYPE
280
     0
  9
$INTERSECTIONDISPLAY
280
     0
  9
$INTERSECTIONCOLOR
 70
   257
  9
$DIMASSOC
280
     2
  9
$PROJECTNAME
  1

  9
$CAMERADISPLAY
290
     0
  9
$LENSLENGTH
 40
50.0
  9
$CAMERAHEIGHT
 40
0.0
  9
$STEPSPERSEC
 40
2.0
  9
$STEPSIZE
 40
6.0
  9
$3DDWFPREC
 40
2.0
  9
$PSOLWIDTH
 40
5.0
  9
$PSOLHEIGHT
 40
80.0
  9
$LOFTANG1
 40
1.5707963268
  9
$LOFTANG2
 40
1.5707963268
  9
$LOFTMAG1
 40
0.0
  9
$LOFTMAG2
 40
0.0
  9
$LOFTPARAM
 70
     7
  9
$LOFTNORMALS
280
     1
  9
$LATITUDE
 40
37.795
  9
$LONGITUDE
 40
-122.394
  9
$NORTHDIRECTION
 40
0.0
  9
$TIMEZONE
 70
 -8000
  9
$LIGHTGLYPHDISPLAY
280
     1
  9
$TILEMODELIGHTSYNCH
280
     1
  9
$CMATERIAL
347
44
  9
$SOLIDHIST
280
     0
  9
$SHOWHIST
280
     1
  9
$DWFFRAME
280
     2
  9
$DGNFRAME
280
     2
  9
$REALWORLDSCALE
290
     1
  9
$INTERFERECOLOR
 62
   256
  9
$CSHADOW
280
     0
  9
$SHADOWPLANELOCATION
 40
0.0
  0
ENDSEC
  0
SECTION
  2
CLASSES
  0
CLASS
  1
ACDBDICTIONARYWDFLT
  2
AcDbDictionaryWithDefault
  3
ObjectDBX Classes
 90
        0
 91
        4
280
     0
281
     0
  0
CLASS
  1
VISUALSTYLE
  2
AcDbVisualStyle
  3
ObjectDBX Classes
 90
     4095
 91
        4
280
     0
281
     0
  0
CLASS
  1
MATERIAL
  2
AcDbMaterial
  3
ObjectDBX Classes
 90
     1153
 91
        4
280
     0
281
     0
  0
CLASS
  1
SCALE
  2
AcDbScale
  3
ObjectDBX Classes
 90
     1153
 91
        4
280
     0
281
     0
  0
CLASS
  1
TABLESTYLE
  2
AcDbTableStyle
  3
ObjectDBX Classes
 90
     4095
 91
        4
280
     0
281
     0
  0
CLASS
  1
MLEADERSTYLE
  2
AcDbMLeaderStyle
  3
ACDB_MLEADERSTYLE_CLASS
 90
     4095
 91
        4
280
     0
281
     0
  0
CLASS
  1
SUN
  2
AcDbSun
  3
SCENEOE
 90
     1153
 91
        4
280
     0
281
     0
  0
CLASS
  1
DICTIONARYVAR
  2
AcDbDictionaryVar
  3
ObjectDBX Classes
 90
        0
 91
        4
280
     0
281
     0
  0
CLASS
  1
CELLSTYLEMAP
  2
AcDbCellStyleMap
  3
ObjectDBX Classes
 90
     1152
 91
        4
280
     0
281
     0
  0
ENDSEC
  0
SECTION
  2
TABLES
  0
TABLE
  2
VPORT
  5
8
330
0
100
AcDbSymbolTable
 70
     1
  0
VPORT
  5
29
330
8
100
AcDbSymbolTableRecord
100
AcDbViewportTableRecord
  2
*Active
 70
     0
 10
0.0
 20
0.0
 11
1.0
 21
1.0
 12
1000.0
 22
1000.0
 13
0.0
 23
0.0
 14
10.0
 24
10.0
 15
10.0
 25
10.0
 16
0.0
 26
0.0
 36
1.0
 17
0.0
 27
0.0
 37
0.0
 40
2000.0
 41
1.0
 42
50.0
 43
0.0
 44
0.0
 50
0.0
 51
0.0
 71
     0
 72
  2000
 73
     1
 74
     3
 75
     0
 76
     0
 77
     0
 78
     0
281
     0
 65
     1
110
0.0
120
0.0
130
0.0
111
1.0
121
0.0
131
0.0
112
0.0
122
1.0
132
0.0
 79
     0
146
0.0
 60
     3
 61
     5
292
     1
282
     1
141
0.0
142
0.0
 63
   250
361
6D
  0
ENDTAB
  0
TABLE
  2
LTYPE
  5
5
330
0
100
AcDbSymbolTable
 70
     6
  0
LTYPE
  5
14
330
5
100
AcDbSymbolTableRecord
100
AcDbLinetypeTableRecord
  2
ByBlock
 70
     0
  3

 72
    65
 73
     0
 40
0.0
  0
LTYPE
  5
15
330
5
100
AcDbSymbolTableRecord
100
AcDbLinetypeTableRecord
  2
ByLayer
 70
     0
  3

 72
    65
 73
     0
 40
0.0
  0
LTYPE
  5
16
330
5
100
AcDbSymbolTableRecord
100
AcDbLinetypeTableRecord
  2
Continuous
 70
     0
  3
Solid line
 72
    65
 73
     0
 40
0.0
  0
LTYPE
  5
6E
330
5
100
AcDbSymbolTableRecord
100
AcDbLinetypeTableRecord
  2
HIDDEN
 70
     0
  3
Hidden __ __ __ __ __ __ __ __ __ __ __ __ __ __
 72
    65
 73
     2
 40
1.905
 49
1.27
 74
     0
 49
-0.635
 74
     0
  0
LTYPE
  5
6F
330
5
100
AcDbSymbolTableRecord
100
AcDbLinetypeTableRecord
  2
PHANTOM
 70
     0
  3
Phantom ______  __  __  ______  __  __  ______
 72
    65
 73
     6
 40
12.7
 49
6.35
 74
     0
 49
-1.27
 74
     0
 49
1.27
 74
     0
 49
-1.27
 74
     0
 49
1.27
 74
     0
 49
-1.27
 74
     0
  0
LTYPE
  5
70
330
5
100
AcDbSymbolTableRecord
100
AcDbLinetypeTableRecord
  2
CENTER
 70
     0
  3
Center ____ _ ____ _ ____ _ ____ _ ____ _ ____
 72
    65
 73
     4
 40
10.16
 49
6.35
 74
     0
 49
-1.27
 74
     0
 49
1.27
 74
     0
 49
-1.27
 74
     0
  0
LTYPE
  5
71
330
5
100
AcDbSymbolTableRecord
100
AcDbLinetypeTableRecord
  2
CENTERX2
 70
     0
  3
Center (2x) ________  __  ________  __  _____
 72
    65
 73
     4
 40
20.32
 49
12.7
 74
     0
 49
-2.54
 74
     0
 49
2.54
 74
     0
 49
-2.54
 74
     0
  0
LTYPE
  5
72
330
5
100
AcDbSymbolTableRecord
100
AcDbLinetypeTableRecord
  2
DOT2
 70
     0
  3
Dot (.5x) ........................................
 72
    65
 73
     2
 40
0.635
 49
0.0
 74
     0
 49
-0.635
 74
     0
  0
ENDTAB
  0
TABLE
  2
LAYER
  5
2
330
0
100
AcDbSymbolTable
 70
     1
  0
LAYER
  5
10
330
2
100
AcDbSymbolTableRecord
100
AcDbLayerTableRecord
  2
0
 70
     0
 62
     7
  6
Continuous
370
    -3
390
F
347
46
  0
ENDTAB
  0
TABLE
  2
STYLE
  5
3
330
0
100
AcDbSymbolTable
 70
     1
  0
STYLE
  5
11
330
3
100
AcDbSymbolTableRecord
100
AcDbTextStyleTableRecord
  2
Standard
 70
     0
 40
0.0
 41
1.0
 50
0.0
 71
     0
 42
3.5
  3
txt
  4

  0
ENDTAB
  0
TABLE
  2
VIEW
  5
6
330
0
100
AcDbSymbolTable
 70
     0
  0
ENDTAB
  0
TABLE
  2
UCS
  5
7
330
0
100
AcDbSymbolTable
 70
     0
  0
ENDTAB
  0
TABLE
  2
APPID
  5
9
330
0
100
AcDbSymbolTable
 70
     1
  0
APPID
  5
12
330
9
100
AcDbSymbolTableRecord
100
AcDbRegAppTableRecord
  2
ACAD
 70
     0
  0
ENDTAB
  0
TABLE
  2
DIMSTYLE
  5
A
330
0
100
AcDbSymbolTable
 70
     1
100
AcDbDimStyleTable
  0
DIMSTYLE
105
27
330
A
100
AcDbSymbolTableRecord
100
AcDbDimStyleTableRecord
  2
ISO-25
 70
     0
 41
2.5
 42
0.625
 43
3.75
 44
1.25
 73
     0
 74
     0
 77
     1
 78
     8
140
2.5
141
2.5
143
0.0393700787
147
0.625
171
     3
172
     1
178
     0
271
     2
272
     2
274
     3
278
    44
283
     0
284
     8
340
11
  0
ENDTAB
  0
TABLE
  2
BLOCK_RECORD
  5
1
330
0
100
AcDbSymbolTable
 70
     1
  0
BLOCK_RECORD
  5
1F
330
1
100
AcDbSymbolTableRecord
100
AcDbBlockTableRecord
  2
*Model_Space
340
22
 70
     0
280
     1
281
     0
  0
BLOCK_RECORD
  5
1B
330
1
100
AcDbSymbolTableRecord
100
AcDbBlockTableRecord
  2
*Paper_Space
340
1E
 70
     0
280
     1
281
     0
  0
BLOCK_RECORD
  5
23
330
1
100
AcDbSymbolTableRecord
100
AcDbBlockTableRecord
  2
*Paper_Space0
340
26
 70
     0
280
     1
281
     0
  0
ENDTAB
  0
ENDSEC
  0
SECTION
  2
BLOCKS
  0
BLOCK
  5
20
330
1F
100
AcDbEntity
  8
0
100
AcDbBlockBegin
  2
*Model_Space
 70
     0
 10
0.0
 20
0.0
 30
0.0
  3
*Model_Space
  1

  0
ENDBLK
  5
21
330
1F
100
AcDbEntity
  8
0
100
AcDbBlockEnd
  0
BLOCK
  5
1C
330
1B
100
AcDbEntity
 67
     1
  8
0
100
AcDbBlockBegin
  2
*Paper_Space
 70
     0
 10
0.0
 20
0.0
 30
0.0
  3
*Paper_Space
  1

  0
ENDBLK
  5
1D
330
1B
100
AcDbEntity
 67
     1
  8
0
100
AcDbBlockEnd
  0
BLOCK
  5
24
330
23
100
AcDbEntity
  8
0
100
AcDbBlockBegin
  2
*Paper_Space0
 70
     0
 10
0.0
 20
0.0
 30
0.0
  3
*Paper_Space0
  1

  0
ENDBLK
  5
25
330
23
100
AcDbEntity
  8
0
100
AcDbBlockEnd
  0
ENDSEC
  0
SECTION
  2
ENTITIES
  0
LINE
  5
73
330
1F
100
AcDbEntity
  8
0
  6
Continuous
 62
     7
370
    15
100
AcDbLine
 10
769.7361294475
 20
165.0577859473
 30
0.0
 11
769.7361294475
 21
159.0577859473
 31
0.0
  0
LINE
  5
74
330
1F
100
AcDbEntity
  8
0
  6
Continuous
 62
     7
370
    15
100
AcDbLine
 10
799.7361294475
 20
159.0577859473
 30
0.0
 11
799.7361294475
 21
165.0577859473
 31
0.0
  0
LINE
  5
75
330
1F
100
AcDbEntity
  8
0
  6
Continuous
 62
     7
370
    15
100
AcDbLine
 10
799.7361294475
 20
165.0577859473
 30
0.0
 11
792.1523279346
 21
171.0577859473
 31
0.0
  0
LINE
  5
76
330
1F
100
AcDbEntity
  8
0
  6
Continuous
 62
     7
370
    15
100
AcDbLine
 10
777.3199309604
 20
171.0577859473
 30
0.0
 11
769.7361294475
 21
165.0577859473
 31
0.0
  0
LINE
  5
77
330
1F
100
AcDbEntity
  8
0
  6
Continuous
 62
     7
370
    15
100
AcDbLine
 10
773.8025195505
 20
171.1717854582
 30
0.0
 11
766.2187180376
 21
165.1717854582
 31
0.0
  0
LINE
  5
78
330
1F
100
AcDbEntity
  8
0
  6
Continuous
 62
     7
370
    15
100
AcDbLine
 10
766.2187180376
 20
165.1717854582
 30
0.0
 11
766.2187180376
 21
159.1717854582
 31
0.0
  0
LINE
  5
79
330
1F
100
AcDbEntity
  8
0
  6
Continuous
 62
     7
370
    15
100
AcDbLine
 10
281.2300748661
 20
165.0577864602
 30
0.0
 11
273.6462733532
 21
171.0577864602
 31
0.0
  0
LINE
  5
7A
330
1F
100
AcDbEntity
  8
0
  6
Continuous
 62
     7
370
    15
100
AcDbLine
 10
258.813876379
 20
171.0577864602
 30
0.0
 11
251.2300748661
 21
165.0577864602
 31
0.0
  0
LINE
  5
7B
330
1F
100
AcDbEntity
  8
0
  6
Continuous
 62
     7
370
    15
100
AcDbLine
 10
251.2300748661
 20
165.0577864602
 30
0.0
 11
251.2300748661
 21
159.0577864602
 31
0.0
  0
LINE
  5
7C
330
1F
100
AcDbEntity
  8
0
  6
Continuous
 62
     7
370
    15
100
AcDbLine
 10
281.2300748661
 20
159.0577864602
 30
0.0
 11
281.2300748661
 21
165.0577864602
 31
0.0
  0
LINE
  5
7D
330
1F
100
AcDbEntity
  8
0
  6
Continuous
 62
     7
370
    15
100
AcDbLine
 10
284.7474862072
 20
159.1717854582
 30
0.0
 11
284.7474862072
 21
165.1717854582
 31
0.0
  0
LINE
  5
7E
330
1F
100
AcDbEntity
  8
0
  6
Continuous
 62
     7
370
    15
100
AcDbLine
 10
284.7474862072
 20
165.1717854582
 30
0.0
 11
277.1636846943
 21
171.1717854582
 31
0.0
  0
LINE
  5
7F
330
1F
100
AcDbEntity
  8
0
  6
Continuous
 62
     7
370
    15
100
AcDbLine
 10
769.6247769955
 20
178.4430801112
 30
0.0
 11
770.1905902925
 21
174.5409772514
 31
0.0
  0
LWPOLYLINE
  5
80
330
1F
100
AcDbEntity
  8
0
  6
Continuous
 62
     7
370
    15
100
AcDbPolyline
 90
        3
 70
   128
 43
0.0
 10
775.4490149434
 20
173.7134933362
 10
774.4070780135
 20
172.3672067938
 10
773.8025195505
 20
171.1717854582
  0
LINE
  5
81
330
1F
100
AcDbEntity
  8
0
  6
Continuous
 62
     7
370
    15
100
AcDbLine
 10
280.7756139522
 20
174.5409772514
 30
0.0
 11
281.3414272493
 21
178.4430801112
 31
0.0
  0
ARC
  5
82
330
1F
100
AcDbEntity
  8
0
  6
Continuous
 62
     7
370
    15
100
AcDbCircle
 10
269.7474862072
 20
168.1717854582
 30
0.0
 40
8.000000000000053
100
AcDbArc
 50
22.024312837
 51
43.8452903858
  0
LINE
  5
83
330
1F
100
AcDbEntity
  8
0
  6
Continuous
 62
     7
370
    15
100
AcDbLine
 10
257.904629323
 20
181.2077399246
 30
0.0
 11
257.376041863
 21
177.2676373134
 31
0.0
  0
LINE
  5
84
330
1F
100
AcDbEntity
  8
0
  6
Continuous
 62
     7
370
    15
100
AcDbLine
 10
277.1984577093
 20
174.6083460517
 30
0.0
 11
277.7270451694
 21
178.5484486629
 31
0.0
  0
ARC
  5
85
330
1F
100
AcDbEntity
  8
0
  6
Continuous
 62
     7
370
    15
100
AcDbCircle
 10
266.2300748661
 20
168.0577864602
 30
0.0
 40
8.000000000000021
100
AcDbArc
 50
120.8606873731
 51
157.975687163
  0
ARC
  5
86
330
1F
100
AcDbEntity
  8
0
  6
Continuous
 62
     7
370
    15
100
AcDbCircle
 10
266.2300748661
 20
168.0577864602
 30
0.0
 40
7.999999999999992
100
AcDbArc
 50
22.9078324704
 51
43.857438907
  0
SPLINE
  5
87
330
1F
100
AcDbEntity
  8
0
  6
Continuous
 62
     7
370
    15
100
AcDbSpline
210
0.0
220
0.0
230
1.0
 70
     8
 71
     3
 72
    15
 73
    11
 74
     0
 42
0.000000001
 43
0.00000001
 40
0.0
 40
0.0
 40
0.0
 40
0.0
 40
0.0358089725095526
 40
0.1889810769551826
 40
0.3259849406580511
 40
0.4791142219827998
 40
0.6447040973631457
 40
0.8021540321319893
 40
0.9329972542514521
 40
1.0
 40
1.0
 40
1.0
 40
1.0
 10
262.2306994161719
 20
176.3782323013312
 30
0.0
 10
262.2267089025016
 20
176.3802299358731
 30
0.0
 10
262.2056490530233
 20
176.390772408908
 30
0.0
 10
262.2802454002821
 20
176.3467527841194
 30
0.0
 10
262.4323024740927
 20
176.1724450349769
 30
0.0
 10
262.5665768361356
 20
175.8370360066111
 30
0.0
 10
262.5394625632366
 20
175.4271778105162
 30
0.0
 10
262.35722969382
 20
175.1015437840147
 30
0.0
 10
262.1780180779987
 20
174.9532752298594
 30
0.0
 10
262.1124821559083
 20
174.9171689092931
 30
0.0
 10
262.0902876842569
 20
174.9049411007465
 30
0.0
  0
SPLINE
  5
88
330
1F
100
AcDbEntity
  8
0
  6
Continuous
 62
     7
370
    15
100
AcDbSpline
210
0.0
220
0.0
230
1.0
 70
     8
 71
     3
 72
    14
 73
    10
 74
     0
 42
0.000000001
 43
0.00000001
 40
0.0
 40
0.0
 40
0.0
 40
0.0
 40
0.10852149908189
 40
0.2683831204068285
 40
0.441692240846089
 40
0.6073279484857457
 40
0.7446827466007834
 40
0.8715783243549275
 40
1.0
 40
1.0
 40
1.0
 40
1.0
 10
271.9877623763556
 20
173.6199855627065
 30
0.0
 10
271.9548487075317
 20
173.6556626127099
 30
0.0
 10
271.87345033746
 20
173.7438950651534
 30
0.0
 10
271.744530680059
 20
174.0635505237581
 30
0.0
 10
271.7680518926402
 20
174.4696808817983
 30
0.0
 10
271.9498304966998
 20
174.8005794545984
 30
0.0
 10
272.1525693321623
 20
174.9705684821499
 30
0.0
 10
272.2773043843761
 20
175.0285672180347
 30
0.0
 10
272.2853298061067
 20
175.030141107039
 30
0.0
 10
272.2893665019927
 20
175.030932755314
 30
0.0
  0
LINE
  5
89
330
1F
100
AcDbEntity
  8
0
  6
Continuous
 62
     7
370
    15
100
AcDbLine
 10
773.2391591442
 20
178.5484481501
 30
0.0
 11
773.7677466042
 21
174.6083455389
 31
0.0
  0
LINE
  5
8A
330
1F
100
AcDbEntity
  8
0
  6
Continuous
 62
     7
370
    15
100
AcDbLine
 10
793.5901624506
 20
177.2676368006
 30
0.0
 11
793.0615749905
 21
181.2077394118
 31
0.0
  0
LWPOLYLINE
  5
8B
330
1F
100
AcDbEntity
  8
0
  6
Continuous
 62
     7
370
    15
100
AcDbPolyline
 90
        3
 70
   128
 43
0.0
 10
778.9676015007
 20
173.6007170607
 10
777.9188946166
 20
172.2441100222
 10
777.3670720419
 20
171.1717854582
  0
ARC
  5
8C
330
1F
100
AcDbEntity
  8
0
  6
Continuous
 62
     7
370
    15
100
AcDbCircle
 10
784.7361294475
 20
168.0577859473
 30
0.0
 40
8.000000000000151
100
AcDbArc
 50
22.024312837
 51
59.1393126269
  0
SPLINE
  5
8D
330
1F
100
AcDbEntity
  8
0
  6
Continuous
 62
     7
370
    15
100
AcDbSpline
210
0.0
220
0.0
230
1.0
 70
     8
 71
     3
 72
    12
 73
     8
 74
     0
 42
0.000000001
 43
0.00000001
 40
0.0
 40
0.0
 40
0.0
 40
0.0
 40
0.0408478656032285
 40
0.2882651481539179
 40
0.506402493636123
 40
0.7483962514447499
 40
1.0
 40
1.0
 40
1.0
 40
1.0
 10
778.6818619811015
 20
175.0307408002833
 30
0.0
 10
778.6785113675097
 20
175.0313829675183
 30
0.0
 10
778.6548659429773
 20
175.0359147693742
 30
0.0
 10
778.7336908512754
 20
175.0162480492835
 30
0.0
 10
778.9184081046194
 20
174.8963444562954
 30
0.0
 10
779.14538438534
 20
174.6215932551333
 30
0.0
 10
779.1839168137487
 20
174.3646445990331
 30
0.0
 10
779.2035581273768
 20
174.2336689676178
 30
0.0
  0
SPLINE
  5
8E
330
1F
100
AcDbEntity
  8
0
  6
Continuous
 62
     7
370
    15
100
AcDbSpline
210
0.0
220
0.0
230
1.0
 70
     8
 71
     3
 72
    14
 73
    10
 74
     0
 42
0.000000001
 43
0.00000001
 40
0.0
 40
0.0
 40
0.0
 40
0.0
 40
0.0770758753312445
 40
0.2400715368539496
 40
0.4178223791367746
 40
0.5898068423005374
 40
0.7317277007013115
 40
0.862014142747674
 40
0.9999999999999999
 40
0.9999999999999999
 40
0.9999999999999999
 40
0.9999999999999999
 10
788.7929482072983
 20
174.9636403402473
 30
0.0
 10
788.7650043509373
 20
174.9812357818866
 30
0.0
 10
788.6779664222288
 20
175.0360410591256
 30
0.0
 10
788.480842011829
 20
175.2884747896225
 30
0.0
 10
788.3881303408263
 20
175.6823571424494
 30
0.0
 10
788.4696268694912
 20
176.055743010053
 30
0.0
 10
788.6210887127132
 20
176.2806034493688
 30
0.0
 10
788.7305035061129
 20
176.3750123647636
 30
0.0
 10
788.7400764245734
 20
176.380014672043
 30
0.0
 10
788.7450002551875
 20
176.3825876087942
 30
0.0
  0
SPLINE
  5
8F
330
1F
100
AcDbEntity
  8
0
  6
Continuous
 62
     7
370
    15
100
AcDbSpline
210
0.0
220
0.0
230
1.0
 70
     8
 71
     3
 72
    10
 73
     6
 74
     0
 42
0.000000001
 43
0.00000001
 40
0.0
 40
0.0
 40
0.0
 40
0.0
 40
0.5479296724717584
 40
0.9898817992998354
 40
1.0
 40
1.0
 40
1.0
 40
1.0
 10
779.2035581273768
 20
174.2336689676178
 30
0.0
 10
779.1905182250555
 20
174.1020838203647
 30
0.0
 10
779.1669605266478
 20
173.8643640018039
 30
0.0
 10
779.0373044309305
 20
173.6745064563354
 30
0.0
 10
779.0022062008875
 20
173.6396588336629
 30
0.0
 10
779.0014206352041
 20
173.638878877053
 30
0.0
  0
SPLINE
  5
90
330
1F
100
AcDbEntity
  8
0
  6
Continuous
 62
     7
370
    15
100
AcDbSpline
210
0.0
220
0.0
230
1.0
 70
     8
 71
     3
 72
    19
 73
    15
 74
     0
 42
0.000000001
 43
0.00000001
 40
0.0
 40
0.0
 40
0.0
 40
0.0
 40
0.0465386545408883
 40
0.1340380880306899
 40
0.2215472408918027
 40
0.3090559783997243
 40
0.3965638256233284
 40
0.484070313854129
 40
0.5715749813207142
 40
0.6590773774674898
 40
0.7465770678724359
 40
0.8340736398419266
 40
0.9215667086714651
 40
1.0
 40
1.0
 40
1.0
 40
1.0
 10
620.4831021223832
 20
736.6329863371067
 30
0.0
 10
621.4046301124602
 20
736.6417479982857
 30
0.0
 10
624.0587646394514
 20
736.666982855718
 30
0.0
 10
628.4398934214615
 20
736.9457425041461
 30
0.0
 10
633.6015055560699
 20
737.5673105936928
 30
0.0
 10
638.7149287949098
 20
738.497798077423
 30
0.0
 10
643.7609590847164
 20
739.7284028359701
 30
0.0
 10
648.7209319771063
 20
741.2560439984429
 30
0.0
 10
653.5766160623295
 20
743.074548224339
 30
0.0
 10
658.3096048669163
 20
745.1778244731794
 30
0.0
 10
662.9040743605613
 20
747.5560804954152
 30
0.0
 10
667.3367618947182
 20
750.2079305820592
 30
0.0
 10
671.4670867789943
 20
752.9962829467783
 30
0.0
 10
674.0168726892826
 20
755.0189864479725
 30
0.0
 10
675.2221549659296
 20
755.9751171846998
 30
0.0
  0
LINE
  5
91
330
1F
100
AcDbEntity
  8
0
  6
Continuous
 62
     7
370
    15
100
AcDbLine
 10
430.4831021224
 20
736.6329863371
 30
0.0
 11
620.4831021224
 21
736.6329863371
 31
0.0
  0
SPLINE
  5
92
330
1F
100
AcDbEntity
  8
0
  6
Continuous
 62
     7
370
    15
100
AcDbSpline
210
0.0
220
0.0
230
1.0
 70
     8
 71
     3
 72
    20
 73
    16
 74
     0
 42
0.000000001
 43
0.00000001
 40
0.0
 40
0.0
 40
0.0
 40
0.0
 40
0.0820739744489924
 40
0.1644601964541096
 40
0.2468506747584164
 40
0.3292452306374251
 40
0.4116436364701688
 40
0.4940456218807018
 40
0.5764508796606624
 40
0.6588590713133612
 40
0.7412698321160589
 40
0.8236827756519481
 40
0.9060974978131611
 40
0.9841816600692052
 40
1.0
 40
1.0
 40
1.0
 40
1.0
 10
372.9665510221132
 20
758.3147968099735
 30
0.0
 10
374.2639501886015
 20
757.2042152036761
 30
0.0
 10
376.8636844311859
 20
754.978826822326
 30
0.0
 10
381.0204774322059
 20
751.9396733672125
 30
0.0
 10
385.3499155380178
 20
749.1316192373475
 30
0.0
 10
389.8503408908655
 20
746.5898071622549
 30
0.0
 10
394.4998998959345
 20
744.3180277239422
 30
0.0
 10
399.2828166473051
 20
742.326192630768
 30
0.0
 10
404.1810421782168
 20
740.6212876808436
 30
0.0
 10
409.1765782750297
 20
739.209686875012
 30
0.0
 10
414.2509254833507
 20
738.096777914919
 30
0.0
 10
419.3853688174238
 20
737.2860039087498
 30
0.0
 10
424.4701189180553
 20
736.79176732117
 30
0.0
 10
428.1763251603715
 20
736.6413191064021
 30
0.0
 10
430.1505364819327
 20
736.6341876638076
 30
0.0
 10
430.4831021223832
 20
736.6329863371066
 30
0.0
  0
SPLINE
  5
93
330
1F
100
AcDbEntity
  8
0
  6
Continuous
 62
     7
370
    15
100
AcDbSpline
210
0.0
220
0.0
230
1.0
 70
     8
 71
     3
 72
    32
 73
    28
 74
     0
 42
0.000000001
 43
0.00000001
 40
0.0
 40
0.0
 40
0.0
 40
0.0
 40
0.023726507657072
 40
0.0652172950668833
 40
0.1067128445539242
 40
0.1482074231249781
 40
0.1896996274021001
 40
0.23118806606389
 40
0.2726713712845532
 40
0.31414821302636
 40
0.3556173148766532
 40
0.3970774714406951
 40
0.4385275671574606
 40
0.4799665962506506
 40
0.5213936833705072
 40
0.5628081043331797
 40
0.604209306234662
 40
0.6455969261155245
 40
0.6869708072916446
 40
0.7283310124528116
 40
0.7696778326713565
 40
0.8110117915590873
 40
0.8523336439611902
 40
0.8936443687746434
 40
0.9349451557157803
 40
0.9762373861244135
 40
1.0
 40
1.0
 40
1.0
 40
1.0
 10
430.483102122382
 20
906.8096611396323
 30
0.0
 10
429.4909107215125
 20
906.7995158107344
 30
0.0
 10
426.7636640365566
 20
906.7716292410859
 30
0.0
 10
422.3077938067128
 20
906.4755475019942
 30
0.0
 10
417.1404091883148
 20
905.8377949430013
 30
0.0
 10
412.022030032856
 20
904.8890105534737
 30
0.0
 10
406.9719737739092
 20
903.6383204343921
 30
0.0
 10
402.0089985232147
 20
902.0888483654281
 30
0.0
 10
397.1515749132811
 20
900.2467460797458
 30
0.0
 10
392.4177711389207
 20
898.1187544301778
 30
0.0
 10
387.8251949491089
 20
895.7128257492348
 30
0.0
 10
383.3909223100378
 20
893.037920344976
 30
0.0
 10
379.1314320383492
 20
890.1040185702961
 30
0.0
 10
375.0625416840184
 20
886.9220695697657
 30
0.0
 10
371.199346499141
 20
883.5039515676119
 30
0.0
 10
367.5561611753906
 20
879.862423903772
 30
0.0
 10
364.146466087102
 20
876.0110763022888
 30
0.0
 10
360.9828536363771
 20
871.9642747271715
 30
0.0
 10
358.0769926312859
 20
867.7371027773896
 30
0.0
 10
355.4395452186568
 20
863.3453056325112
 30
0.0
 10
353.0802817249617
 20
858.8052120126657
 30
0.0
 10
351.0074789646068
 20
854.1337278937583
 30
0.0
 10
349.2300136001574
 20
849.3480544553995
 30
0.0
 10
347.7494240054244
 20
844.466428839262
 30
0.0
 10
346.589417219056
 20
839.5050453865825
 30
0.0
 10
345.8135308990725
 20
835.1987136113398
 30
0.0
 10
345.5519651589765
 20
832.5386516339822
 30
0.0
 10
345.4564229168364
 20
831.5670095318673
 30
0.0
  0
SPLINE
  5
94
330
1F
100
AcDbEntity
  8
0
  6
Continuous
 62
     7
370
    15
100
AcDbSpline
210
0.0
220
0.0
230
1.0
 70
     8
 71
     3
 72
    33
 73
    29
 74
     0
 42
0.000000001
 43
0.00000001
 40
0.0
 40
0.0
 40
0.0
 40
0.0
 40
0.0000342984305543
 40
0.0414862814508855
 40
0.0829397405680427
 40
0.1243965320092492
 40
0.1658584358615564
 40
0.2073271212154965
 40
0.2488041151738477
 40
0.2902907765566488
 40
0.3317882748933326
 40
0.3732975750339834
 40
0.4148194274505562
 40
0.4563543640517702
 40
0.4979026991157217
 40
0.5394645347644321
 40
0.581039770271659
 40
0.6226281144144544
 40
0.664229100050101
 40
0.7058421001203277
 40
0.7474663443483925
 40
0.7891009359934932
 40
0.8307448681516368
 40
0.8723970392328733
 40
0.9140562673920615
 40
0.9557213038347976
 40
0.9952022388843911
 40
1.0
 40
1.0
 40
1.0
 40
1.0
 10
705.491924952144
 20
832.0967820580356
 30
0.0
 10
705.4918149014038
 20
832.098180513164
 30
0.0
 10
705.3587010560826
 20
833.789706980172
 30
0.0
 10
704.8060830893764
 20
837.1446473805569
 30
0.0
 10
703.8118255404579
 20
842.1355512091335
 30
0.0
 10
702.4707866916527
 20
847.0527961904612
 30
0.0
 10
700.8374298411198
 20
851.8825725557948
 30
0.0
 10
698.9044873036028
 20
856.6059834895874
 30
0.0
 10
696.6826055302816
 20
861.2059625761041
 30
0.0
 10
694.1789723339998
 20
865.6654968516979
 30
0.0
 10
691.4030125140578
 20
869.9681789448479
 30
0.0
 10
688.3648244801965
 20
874.0981338404509
 30
0.0
 10
685.075558034518
 20
878.040111880585
 30
0.0
 10
681.5472672595847
 20
881.7795355241246
 30
0.0
 10
677.7928994472724
 20
885.3025564638473
 30
0.0
 10
673.8262428905489
 20
888.5961075241298
 30
0.0
 10
669.6618810897874
 20
891.6479531228499
 30
0.0
 10
665.315140768636
 20
894.4467367511116
 30
0.0
 10
660.8020372466193
 20
896.9820258740272
 30
0.0
 10
656.1392166148347
 20
899.2443522683411
 30
0.0
 10
651.3438946903982
 20
901.2252535641605
 30
0.0
 10
646.4337949421949
 20
902.917293329673
 30
0.0
 10
641.4270783466093
 20
904.3141432698862
 30
0.0
 10
636.3422929634643
 20
905.4104147274032
 30
0.0
 10
631.198240933809
 20
906.2024066318673
 30
0.0
 10
626.1049182644606
 20
906.6769551507516
 30
0.0
 10
622.5264939540333
 20
906.8051339588612
 30
0.0
 10
620.6828660502823
 20
906.8092185581365
 30
0.0
 10
620.483102122382
 20
906.8096611396323
 30
0.0
  0
LINE
  5
95
330
1F
100
AcDbEntity
  8
0
  6
Continuous
 62
     7
370
    15
100
AcDbLine
 10
705.9831021224
 20
820.892690964
 30
0.0
 11
705.9831021224
 21
823.1422015075
 31
0.0
  0
LINE
  5
96
330
1F
100
AcDbEntity
  8
0
  6
Continuous
 62
     7
370
    15
100
AcDbLine
 10
344.9831021224
 20
823.1422015075
 30
0.0
 11
344.9831021224
 21
820.892690964
 31
0.0
  0
SPLINE
  5
97
330
1F
100
AcDbEntity
  8
0
  6
Continuous
 62
     7
370
    15
100
AcDbSpline
210
0.0
220
0.0
230
1.0
 70
     8
 71
     3
 72
    20
 73
    16
 74
     0
 42
0.000000001
 43
0.00000001
 40
0.0
 40
0.0
 40
0.0
 40
0.0
 40
0.0226482747051235
 40
0.110368106124971
 40
0.1980924693929745
 40
0.2858211742141671
 40
0.3735539782316147
 40
0.4612905935654701
 40
0.5490306931190009
 40
0.6367739164815223
 40
0.7245198753184956
 40
0.8122681581968229
 40
0.9000183348470755
 40
0.9831575950650637
 40
0.9999999999999999
 40
0.9999999999999999
 40
0.9999999999999999
 40
0.9999999999999999
 10
375.8813068500088
 20
756.7833600336097
 30
0.0
 10
376.2196383533509
 20
756.4979926011134
 30
0.0
 10
377.8683735330698
 20
755.1073585027364
 30
0.0
 10
381.0279671207104
 20
752.848333203097
 30
0.0
 10
385.3479085309894
 20
750.0290504203053
 30
0.0
 10
389.8508787051686
 20
747.4902472776769
 30
0.0
 10
394.4997557794141
 20
745.2176615415831
 30
0.0
 10
399.2828552655834
 20
743.226042509419
 30
0.0
 10
404.1810318298905
 20
741.5210796626186
 30
0.0
 10
409.1765810480598
 20
740.1094943711468
 30
0.0
 10
414.2509247400352
 20
738.9965812534157
 30
0.0
 10
419.3853690175511
 20
738.1858083627488
 30
0.0
 10
424.4701188653994
 20
737.6915714762849
 30
0.0
 10
428.1763251623967
 20
737.5411233261704
 30
0.0
 10
430.1505364822248
 20
737.5339918815275
 30
0.0
 10
430.4831021223832
 20
737.5327905544817
 30
0.0
  0
SPLINE
  5
98
330
1F
100
AcDbEntity
  8
0
  6
Continuous
 62
     7
370
    15
100
AcDbSpline
210
0.0
220
0.0
230
1.0
 70
     8
 71
     3
 72
    20
 73
    16
 74
     0
 42
0.000000001
 43
0.00000001
 40
0.0
 40
0.0
 40
0.0
 40
0.0
 40
0.0444904695508162
 40
0.128139017618978
 40
0.211796857305
 40
0.2954542999177001
 40
0.3791108914278484
 40
0.4627661837550267
 40
0.5464197354505588
 40
0.6300711157879723
 40
0.7137199094643536
 40
0.7973657219488817
 40
0.8810081854680716
 40
0.9646469655630453
 40
0.9999999999999999
 40
0.9999999999999999
 40
0.9999999999999999
 40
0.9999999999999999
 10
620.4831021223832
 20
737.5327905544818
 30
0.0
 10
621.4046301081471
 20
737.5415522205983
 30
0.0
 10
624.0587646227153
 20
737.5667870922513
 30
0.0
 10
628.4398935616064
 20
737.8455465610926
 30
0.0
 10
633.6015050411683
 20
738.4671154004897
 30
0.0
 10
638.7149307143237
 20
739.3976000975888
 30
0.0
 10
643.7609519220784
 20
740.6282152526197
 30
0.0
 10
648.7209587075839
 20
742.1558176166772
 30
0.0
 10
653.5765163062184
 20
743.9744666353774
 30
0.0
 10
658.3099771464265
 20
746.0772025315846
 30
0.0
 10
662.9026850619942
 20
748.4574750824679
 30
0.0
 10
667.3419465397877
 20
751.1017997884085
 30
0.0
 10
671.5953334314465
 20
754.0178757430303
 30
0.0
 10
674.9157235530246
 20
756.5308842742676
 30
0.0
 10
676.73739172649
 20
758.1509255255146
 30
0.0
 10
677.2786180110254
 20
758.6322474918189
 30
0.0
  0
LINE
  5
99
330
1F
100
AcDbEntity
  8
0
  6
Continuous
 62
     7
370
    15
100
AcDbLine
 10
430.4831021224
 20
737.5327905545
 30
0.0
 11
620.4831021224
 21
737.5327905545
 31
0.0
  0
LINE
  5
9A
330
1F
100
AcDbEntity
  8
0
  6
Continuous
 62
     7
370
    15
100
AcDbLine
 10
620.4831021224
 20
906.8096611396
 30
0.0
 11
430.4831021224
 21
906.8096611396
 31
0.0
  0
SPLINE
  5
9B
330
1F
100
AcDbEntity
  8
0
  6
Continuous
 62
     7
370
    15
100
AcDbSpline
210
0.0
220
0.0
230
1.0
 70
     8
 71
     3
 72
    17
 73
    13
 74
     0
 42
0.000000001
 43
0.00000001
 40
0.0
 40
0.0
 40
0.0
 40
0.0
 40
0.1220428647512294
 40
0.2538436834005983
 40
0.3869805683663456
 40
0.5225873651191971
 40
0.6632986978302448
 40
0.7767663066317572
 40
0.8513716752900288
 40
0.9163979761333026
 40
0.976228249946736
 40
1.0
 40
1.0
 40
1.0
 40
1.0
 10
764.5275075331663
 20
579.634289360367
 30
0.0
 10
765.2721526101891
 20
579.7611416884727
 30
0.0
 10
766.8209809629399
 20
580.0249888398806
 30
0.0
 10
768.8088382551986
 20
580.4380738864841
 30
0.0
 10
770.5914052730525
 20
580.8772158851934
 30
0.0
 10
772.1086820082605
 20
581.3474789646232
 30
0.0
 10
773.2958826103666
 20
581.8382908689281
 30
0.0
 10
774.153370937913
 20
582.3481281881715
 30
0.0
 10
774.7857992125203
 20
582.9079571999816
 30
0.0
 10
775.2225498569093
 20
583.5491519320552
 30
0.0
 10
775.4891869668927
 20
584.2160269117088
 30
0.0
 10
775.4541390003649
 20
584.6200167671104
 30
0.0
 10
775.4441733145878
 20
584.734888936736
 30
0.0
  0
SPLINE
  5
9C
330
1F
100
AcDbEntity
  8
0
  6
Continuous
 62
     7
370
    15
100
AcDbSpline
210
0.0
220
0.0
230
1.0
 70
     8
 71
     3
 72
    19
 73
    15
 74
     0
 42
0.000000001
 43
0.00000001
 40
0.0
 40
0.0
 40
0.0
 40
0.0
 40
0.0344011733881351
 40
0.0877558277879551
 40
0.1433383437488
 40
0.2086913556887099
 40
0.295006897311628
 40
0.4167320535783334
 40
0.531057881004281
 40
0.6521556258379363
 40
0.7689477903600318
 40
0.8836625316782568
 40
0.9972847006965293
 40
1.0
 40
1.0
 40
1.0
 40
1.0
 10
275.5220309301787
 20
584.7475693408281
 30
0.0
 10
275.5196561698224
 20
584.5523439655977
 30
0.0
 10
275.5135982642241
 20
584.0543329176819
 30
0.0
 10
275.8456084987538
 20
583.366562864497
 30
0.0
 10
276.3099077573279
 20
582.7768634779801
 30
0.0
 10
276.9132369524671
 20
582.2850488397157
 30
0.0
 10
277.7508640638872
 20
581.8020534664787
 30
0.0
 10
278.8955171119408
 20
581.3346291017633
 30
0.0
 10
280.4370196160266
 20
580.8598193693583
 30
0.0
 10
282.2613788755431
 20
580.4131421389255
 30
0.0
 10
284.3976201046016
 20
579.9782567719409
 30
0.0
 10
286.8343839950425
 20
579.5626143521812
 30
0.0
 10
288.5815134665532
 20
579.2873725320542
 30
0.0
 10
289.5997286888663
 20
579.1522566686136
 30
0.0
 10
289.6234936815537
 20
579.1491030843455
 30
0.0
  0
LINE
  5
9D
330
1F
100
AcDbEntity
  8
0
  6
Continuous
 62
     7
370
    15
100
AcDbLine
 10
775.4831021224
 20
584.7412291388
 30
0.0
 11
775.4831021224
 21
594.7275244863
 31
0.0
  0
LINE
  5
9E
330
1F
100
AcDbEntity
  8
0
  6
Continuous
 62
     7
370
    15
100
AcDbLine
 10
275.4831021224
 20
594.7275244863
 30
0.0
 11
275.4831021224
 21
584.7412291388
 31
0.0
  0
SPLINE
  5
9F
330
1F
100
AcDbEntity
  8
0
  6
Continuous
 62
     7
370
    15
100
AcDbSpline
210
0.0
220
0.0
230
1.0
 70
     8
 71
     3
 72
    15
 73
    11
 74
     0
 42
0.000000001
 43
0.00000001
 40
0.0
 40
0.0
 40
0.0
 40
0.0
 40
0.0520495257553521
 40
0.1894208782206556
 40
0.3233425045835908
 40
0.4551585399808815
 40
0.5864138580040031
 40
0.7191012399499352
 40
0.8561146221257804
 40
1.0
 40
1.0
 40
1.0
 40
1.0
 10
775.4447833805663
 20
594.7236730159332
 30
0.0
 10
775.4550291185893
 20
594.9722771593855
 30
0.0
 10
775.4923158501434
 20
595.8770080766919
 30
0.0
 10
775.2305390564273
 20
597.4074653498096
 30
0.0
 10
774.7059328657139
 20
599.2050299679127
 30
0.0
 10
773.954662479583
 20
600.8073411904851
 30
0.0
 10
773.065531295423
 20
602.1961202394307
 30
0.0
 10
772.0918594843741
 20
603.3688482082346
 30
0.0
 10
771.0766706612073
 20
604.3563845938662
 30
0.0
 10
770.429545382837
 20
604.8529061669674
 30
0.0
 10
770.098067005383
 20
605.1072404835576
 30
0.0
  0
SPLINE
  5
A0
330
1F
100
AcDbEntity
  8
0
  6
Continuous
 62
     7
370
    15
100
AcDbSpline
210
0.0
220
0.0
230
1.0
 70
     8
 71
     3
 72
    15
 73
    11
 74
     0
 42
0.000000001
 43
0.00000001
 40
0.0
 40
0.0
 40
0.0
 40
0.0
 40
0.0871804157414408
 40
0.2325149084275316
 40
0.3698772531187967
 40
0.5032192786225029
 40
0.6348429334378934
 40
0.765802691650772
 40
0.9108255604123227
 40
1.0
 40
1.0
 40
1.0
 40
1.0
 10
280.9042854850416
 20
605.1152775540382
 30
0.0
 10
280.7085728958589
 20
604.9762395089955
 30
0.0
 10
280.1865967804101
 20
604.6054174839323
 30
0.0
 10
279.2794134827845
 20
603.7859202327509
 30
0.0
 10
278.2542393536357
 20
602.6582586996813
 30
0.0
 10
277.3089815579546
 20
601.3187046623971
 30
0.0
 10
276.49844243757
 20
599.7795730441127
 30
0.0
 10
275.8751322640143
 20
598.0038935385401
 30
0.0
 10
275.5139223502056
 20
596.28906264512
 30
0.0
 10
275.5193530404418
 20
595.1609306051333
 30
0.0
 10
275.5214208642004
 20
594.7313759567224
 30
0.0
  0
LINE
  5
A1
330
1F
100
AcDbEntity
  8
0
  6
Continuous
 62
     7
370
    15
100
AcDbLine
 10
525.4831521224
 20
638.6270080586
 30
0.0
 11
475.4831021224
 21
638.6270080586
 31
0.0
  0
LINE
  5
A2
330
1F
100
AcDbEntity
  8
0
  6
Continuous
 62
     7
370
    15
100
AcDbLine
 10
575.4831021224
 20
638.6270080586
 30
0.0
 11
525.4830521224
 21
638.6270080586
 31
0.0
  0
SPLINE
  5
A3
330
1F
100
AcDbEntity
  8
0
  6
Continuous
 62
     7
370
    15
100
AcDbSpline
210
0.0
220
0.0
230
1.0
 70
     8
 71
     3
 72
    47
 73
    43
 74
     0
 42
0.000000001
 43
0.00000001
 40
0.0
 40
0.0
 40
0.0
 40
0.0
 40
0.0124799100901559
 40
0.0378794903338727
 40
0.0629193526901816
 40
0.0875176829884506
 40
0.1115673108257403
 40
0.1349380197987716
 40
0.157491283456374
 40
0.1791107807878276
 40
0.1997411888885191
 40
0.2194173058422163
 40
0.238270157939159
 40
0.2565139354379894
 40
0.2744286481842735
 40
0.2923515704706238
 40
0.3105738568196937
 40
0.3295325254874061
 40
0.349815420024539
 40
0.3722546944930252
 40
0.3982146794468864
 40
0.4304678138374143
 40
0.4769892380656277
 40
0.5126295753929234
 40
0.5450935924950908
 40
0.5755164202127296
 40
0.6075037718105445
 40
0.6380353115149369
 40
0.6675994596827352
 40
0.696496647601901
 40
0.7249102713609727
 40
0.7529613640893272
 40
0.7807344711214911
 40
0.8082912931671417
 40
0.8356785166194036
 40
0.8629326068109837
 40
0.8900828991718971
 40
0.9171536845786765
 40
0.9441656766051132
 40
0.9711370890596986
 40
0.9966590854219729
 40
1.0
 40
1.0
 40
1.0
 40
1.0
 10
770.0949194971855
 20
605.0724297184553
 30
0.0
 10
769.3243410380414
 20
605.6550353023897
 30
0.0
 10
766.9854524496001
 20
607.4233815825853
 30
0.0
 10
762.953575573182
 20
610.1435601041851
 30
0.0
 10
758.0538213049676
 20
613.224010249129
 30
0.0
 10
753.132445741651
 20
616.0368877534306
 30
0.0
 10
748.2400514894582
 20
618.590815894614
 30
0.0
 10
743.4217027803743
 20
620.8800139251125
 30
0.0
 10
738.7282141686509
 20
622.9074481421277
 30
0.0
 10
734.2057861241428
 20
624.6815460654726
 30
0.0
 10
729.8889267852283
 20
626.2187563604747
 30
0.0
 10
725.7938311240457
 20
627.5424354732272
 30
0.0
 10
721.9162825217807
 20
628.6804461094335
 30
0.0
 10
718.2335912306322
 20
629.662029736445
 30
0.0
 10
714.708314180364
 20
630.5152921941673
 30
0.0
 10
711.2980089189467
 20
631.2643010359536
 30
0.0
 10
707.950593078251
 20
631.9305248480591
 30
0.0
 10
704.5994234156582
 20
632.5335886362944
 30
0.0
 10
701.1481978897806
 20
633.0930429393293
 30
0.0
 10
697.4515670599617
 20
633.6295407524221
 30
0.0
 10
693.2484434384187
 20
634.1702664009896
 30
0.0
 10
687.9007254108568
 20
634.7693879858323
 30
0.0
 10
682.0525244691793
 20
635.3186085055578
 30
0.0
 10
676.0119715778475
 20
635.7983868285428
 30
0.0
 10
670.6336756272917
 20
636.1714494811276
 30
0.0
 10
665.2596732100907
 20
636.5013420539872
 30
0.0
 10
659.7899693475149
 20
636.7990315309702
 30
0.0
 10
654.1603088793564
 20
637.070572641729
 30
0.0
 10
648.5240743562258
 20
637.3121847080747
 30
0.0
 10
642.8406734763104
 20
637.5287027597597
 30
0.0
 10
637.0888750589451
 20
637.7229602869996
 30
0.0
 10
631.259428630474
 20
637.896666144798
 30
0.0
 10
625.3500901875597
 20
638.0508885924212
 30
0.0
 10
619.3630886523998
 20
638.1863071929313
 30
0.0
 10
613.3036896432478
 20
638.3033563860209
 30
0.0
 10
607.1793101503415
 20
638.4023117680455
 30
0.0
 10
600.998928096353
 20
638.4833488150998
 30
0.0
 10
594.7726837387801
 20
638.5465674420942
 30
0.0
 10
588.5115205934364
 20
638.5920609097366
 30
0.0
 10
582.3378213653315
 20
638.6192789490636
 30
0.0
 10
577.9905416207421
 20
638.6267269163943
 30
0.0
 10
575.7432308815836
 20
638.626978892102
 30
0.0
 10
575.4831021223833
 20
638.627008058575
 30
0.0
  0
SPLINE
  5
A4
330
1F
100
AcDbEntity
  8
0
  6
Continuous
 62
     7
370
    15
100
AcDbSpline
210
0.0
220
0.0
230
1.0
 70
     8
 71
     3
 72
    46
 73
    42
 74
     0
 42
0.000000001
 43
0.00000001
 40
0.0
 40
0.0
 40
0.0
 40
0.0
 40
0.0141742914448874
 40
0.041115149291826
 40
0.0680689721990336
 40
0.0950489117990473
 40
0.122071254714031
 40
0.149153766409325
 40
0.17631644588278
 40
0.2035824778064182
 40
0.2309794913145075
 40
0.2585412925076982
 40
0.2863103388582773
 40
0.3143414061217421
 40
0.3427072424333498
 40
0.3715076906743667
 40
0.4008852279238649
 40
0.4310532936100394
 40
0.4623526985320872
 40
0.4953783642352886
 40
0.5313189689809756
 40
0.5731648398958482
 40
0.6064316441539248
 40
0.6324443569448612
 40
0.6557427244302799
 40
0.6767566410508759
 40
0.6963347708153333
 40
0.71513662773369
 40
0.733683059399429
 40
0.7522788075287656
 40
0.7712743133286923
 40
0.7909935560596287
 40
0.8116812123863251
 40
0.8334848707632126
 40
0.8564322357477236
 40
0.8804303716811971
 40
0.9053014744729496
 40
0.9308403793350586
 40
0.9568617452465246
 40
0.9832206483326353
 40
0.9999999999999999
 40
0.9999999999999999
 40
0.9999999999999999
 40
0.9999999999999999
 10
475.4831021223848
 20
638.627008058575
 30
0.0
 10
474.3795403268541
 20
638.6265166097986
 30
0.0
 10
471.1784555916896
 20
638.6250910718885
 30
0.0
 10
465.883541875999
 20
638.6092463995114
 30
0.0
 10
459.6169664054794
 20
638.5736874145043
 30
0.0
 10
453.3839153350659
 20
638.5202653214333
 30
0.0
 10
447.1964645394101
 20
638.4492877466314
 30
0.0
 10
441.065922482543
 20
638.3606565860002
 30
0.0
 10
435.0029662526594
 20
638.2543453208056
 30
0.0
 10
429.0173726257505
 20
638.130248830527
 30
0.0
 10
423.1177448396471
 20
637.9881913036131
 30
0.0
 10
417.311139461071
 20
637.8278767832655
 30
0.0
 10
411.6025618491697
 20
637.6488324941768
 30
0.0
 10
405.9942422691076
 20
637.4503180846856
 30
0.0
 10
400.4845447668006
 20
637.2311839926543
 30
0.0
 10
395.0662251265422
 20
636.9896381660551
 30
0.0
 10
389.7234527734348
 20
636.7228389779866
 30
0.0
 10
384.426282933048
 20
636.4261329517868
 30
0.0
 10
379.1191415442607
 20
636.0914566490105
 30
0.0
 10
373.6928424579313
 20
635.7035095811634
 30
0.0
 10
367.8955812098922
 20
635.2276958455802
 30
0.0
 10
362.2285174796369
 20
634.6812277641199
 30
0.0
 10
357.0586626130915
 20
634.091246990994
 30
0.0
 10
352.7342283359084
 20
633.5223356064423
 30
0.0
 10
348.918100052081
 20
632.9541864667642
 30
0.0
 10
345.3008198816873
 20
632.3495721968884
 30
0.0
 10
341.7872712570781
 20
631.6947375609705
 30
0.0
 10
338.2759608425331
 20
630.9683024754045
 30
0.0
 10
334.6941157799839
 20
630.1479127678505
 30
0.0
 10
330.9861805810158
 20
629.2092179395729
 30
0.0
 10
327.1082008494424
 20
628.1252030064526
 30
0.0
 10
323.0194686563059
 20
626.8635563424749
 30
0.0
 10
318.6934995623822
 20
625.3896880034243
 30
0.0
 10
314.1258852815043
 20
623.6707734625628
 30
0.0
 10
309.337709956933
 20
621.680067630996
 30
0.0
 10
304.3737293105504
 20
619.4011442556741
 30
0.0
 10
299.2950317372586
 20
616.8281265165692
 30
0.0
 10
294.1644020975251
 20
613.9683547947773
 30
0.0
 10
289.0488071939877
 20
610.8211111273802
 30
0.0
 10
284.5993959621479
 20
607.8613047020866
 30
0.0
 10
281.9260879270439
 20
605.8615434899098
 30
0.0
 10
280.88625968428
 20
605.0837026425777
 30
0.0
  0
LINE
  5
A5
330
1F
100
AcDbEntity
  8
0
  6
Continuous
 62
     7
370
    15
100
AcDbLine
 10
523.7016377189
 20
572.3787098027
 30
0.0
 11
527.2580062923
 21
572.3787098027
 31
0.0
  0
LINE
  5
A6
330
1F
100
AcDbEntity
  8
0
  6
Continuous
 62
     7
370
    15
100
AcDbLine
 10
793.0615749281
 20
181.2077398775
 30
0.0
 11
744.4147088653
 21
543.822554813
 31
0.0
  0
LINE
  5
A7
330
1F
100
AcDbEntity
  8
0
  6
Continuous
 62
     7
370
    15
100
AcDbLine
 10
724.5922930751
 20
541.1632631329
 30
0.0
 11
773.2391591379
 21
178.5484481973
 31
0.0
  0
SPLINE
  5
A8
330
1F
100
AcDbEntity
  8
0
  6
Continuous
 62
     7
370
    15
100
AcDbSpline
210
0.0
220
0.0
230
1.0
 70
     8
 71
     3
 72
    22
 73
    18
 74
     0
 42
0.000000001
 43
0.00000001
 40
0.0
 40
0.0
 40
0.0
 40
0.0
 40
0.0317745313806822
 40
0.1114239835186325
 40
0.1905052033333887
 40
0.2670665145047914
 40
0.3405971136849132
 40
0.4115888358439088
 40
0.480756839063476
 40
0.5487145497390757
 40
0.6159155580826928
 40
0.6826745181864694
 40
0.7492000994012916
 40
0.8156235505023517
 40
0.8820124278991219
 40
0.9484014578562725
 40
1.0
 40
1.0
 40
1.0
 40
1.0
 10
703.5594978754792
 20
565.5760904961458
 30
0.0
 10
703.8338100593949
 20
565.5860683769484
 30
0.0
 10
704.7957426176877
 20
565.6210578851433
 30
0.0
 10
706.4410676763212
 20
565.4777851959649
 30
0.0
 10
708.4867954645165
 20
564.9979138692327
 30
0.0
 10
710.493852702821
 20
564.2072708382091
 30
0.0
 10
712.4301881541917
 20
563.1303237284176
 30
0.0
 10
714.2781450197615
 20
561.7853785580886
 30
0.0
 10
716.0267582846379
 20
560.187024190064
 30
0.0
 10
717.6643712896434
 20
558.347378946858
 30
0.0
 10
719.1767221680774
 20
556.2797969753329
 30
0.0
 10
720.5478524937068
 20
554.0004844993496
 30
0.0
 10
721.7608630087149
 20
551.528989020731
 30
0.0
 10
722.8010331995471
 20
548.8887950193304
 30
0.0
 10
723.6493405162028
 20
546.1051295697763
 30
0.0
 10
724.2617805844802
 20
543.4263444830814
 30
0.0
 10
724.5165276501256
 20
541.6622048407206
 30
0.0
 10
724.6279341056414
 20
540.8907080460756
 30
0.0
  0
SPLINE
  5
A9
330
1F
100
AcDbEntity
  8
0
  6
Continuous
 62
     7
370
    15
100
AcDbSpline
210
0.0
220
0.0
230
1.0
 70
     8
 71
     3
 72
    26
 73
    22
 74
     0
 42
0.000000001
 43
0.00000001
 40
0.0
 40
0.0
 40
0.0
 40
0.0
 40
0.0258527114066514
 40
0.0828795177999111
 40
0.139968359805381
 40
0.197095416654812
 40
0.2542461488764969
 40
0.3113964120824432
 40
0.3685104828970867
 40
0.4255395056597668
 40
0.4824224173484915
 40
0.5390893301186976
 40
0.5954676904064464
 40
0.6514907803981604
 40
0.7071072218114612
 40
0.7622895287816682
 40
0.8170398319565656
 40
0.8713916766326724
 40
0.9254078714560223
 40
0.9791752016858835
 40
1.0
 40
1.0
 40
1.0
 40
1.0
 10
744.4086857219855
 20
543.8219735748404
 30
0.0
 10
744.3253559890741
 20
544.4198943334131
 30
0.0
 10
744.0582146446535
 20
546.33672941402
 30
0.0
 10
743.411382473325
 20
549.528834387194
 30
0.0
 10
742.3881723575536
 20
553.3510611987748
 30
0.0
 10
741.1118131443285
 20
557.064419347671
 30
0.0
 10
739.5952453332435
 20
560.6454007565186
 30
0.0
 10
737.8443786632436
 20
564.0695177360375
 30
0.0
 10
735.8692523353782
 20
567.3130138653991
 30
0.0
 10
733.6813538411731
 20
570.3525446142787
 30
0.0
 10
731.2945984094961
 20
573.1656637922766
 30
0.0
 10
728.7252133650944
 20
575.731276603882
 30
0.0
 10
725.9917203046929
 20
578.0302238967165
 30
0.0
 10
723.114635382816
 20
580.0458838874496
 30
0.0
 10
720.1159903742245
 20
581.7645753188074
 30
0.0
 10
717.0186928910922
 20
583.1760951202236
 30
0.0
 10
713.8459219444671
 20
584.2727089030186
 30
0.0
 10
710.6203564195199
 20
585.0526160821498
 30
0.0
 10
707.3644624887353
 20
585.5057771736341
 30
0.0
 10
704.7614430919162
 20
585.6320445165833
 30
0.0
 10
703.2537725401771
 20
585.5735644186373
 30
0.0
 10
702.8328576825779
 20
585.5572378132852
 30
0.0
  0
LINE
  5
AA
330
1F
100
AcDbEntity
  8
0
  6
Continuous
 62
     7
370
    15
100
AcDbLine
 10
670.4248891583
 20
584.1411061857
 30
0.0
 11
549.6861516802
 21
578.8388546794
 31
0.0
  0
LINE
  5
AB
330
1F
100
AcDbEntity
  8
0
  6
Continuous
 62
     7
370
    15
100
AcDbLine
 10
702.8333411161
 20
585.5643259974
 30
0.0
 11
674.074449335
 21
584.3013769186
 31
0.0
  0
LINE
  5
AC
330
1F
100
AcDbEntity
  8
0
  6
Continuous
 62
     7
370
    15
100
AcDbLine
 10
674.9460756544
 20
564.3203784048
 30
0.0
 11
703.71079745
 21
565.5835835091
 31
0.0
  0
LINE
  5
AD
330
1F
100
AcDbEntity
  8
0
  6
Continuous
 62
     7
370
    15
100
AcDbLine
 10
550.5636080141
 20
558.8581121912
 30
0.0
 11
671.3127451614
 21
564.1608203998
 31
0.0
  0
SPLINE
  5
AE
330
1F
100
AcDbEntity
  8
0
  6
Continuous
 62
     7
370
    15
100
AcDbSpline
210
0.0
220
0.0
230
1.0
 70
     8
 71
     3
 72
    17
 73
    13
 74
     0
 42
0.000000001
 43
0.00000001
 40
0.0
 40
0.0
 40
0.0
 40
0.0
 40
0.0467507237422722
 40
0.1284000470829208
 40
0.2236952011295255
 40
0.3316715397820483
 40
0.4499335651571647
 40
0.5756518800549163
 40
0.706396277388266
 40
0.8404208896912063
 40
0.9765808568567409
 40
1.0
 40
1.0
 40
1.0
 40
1.0
 10
539.0938039270782
 20
557.9677264037368
 30
0.0
 10
539.094608846792
 20
557.9679604770763
 30
0.0
 10
539.0968195447421
 20
557.9686033554192
 30
0.0
 10
539.3822618438827
 20
558.0213273657283
 30
0.0
 10
539.939134796014
 20
558.1023896060017
 30
0.0
 10
540.8298678205343
 20
558.2101201217242
 30
0.0
 10
542.05491256802
 20
558.3322696916507
 30
0.0
 10
543.6170538947969
 20
558.462232515583
 30
0.0
 10
545.4951567602624
 20
558.5932894014625
 30
0.0
 10
547.6677098827307
 20
558.7204778692372
 30
0.0
 10
549.4124435714698
 20
558.8074093720428
 30
0.0
 10
550.4180560945866
 20
558.8515390554868
 30
0.0
 10
550.5656354587024
 20
558.8580153378238
 30
0.0
  0
SPLINE
  5
AF
330
1F
100
AcDbEntity
  8
0
  6
Continuous
 62
     7
370
    15
100
AcDbSpline
210
0.0
220
0.0
230
1.0
 70
     8
 71
     3
 72
    43
 73
    39
 74
     0
 42
0.000000001
 43
0.00000001
 40
0.0
 40
0.0
 40
0.0
 40
0.0
 40
0.0184180999040391
 40
0.062882329114321
 40
0.107633675292757
 40
0.1529427778785134
 40
0.1992095076024843
 40
0.247331711557163
 40
0.2999236471184722
 40
0.334483941324016
 40
0.3589654766768285
 40
0.3783732985241148
 40
0.39650505575636
 40
0.414435838731814
 40
0.432861261614851
 40
0.4522475476154538
 40
0.4723528789203834
 40
0.4929005328941894
 40
0.5137064547262663
 40
0.5346460380349576
 40
0.5572618784796772
 40
0.5786201148635794
 40
0.5988841475997898
 40
0.6182252784613893
 40
0.6367291717641526
 40
0.6544270033305464
 40
0.6713485338680629
 40
0.6877284564541861
 40
0.7042886974828613
 40
0.7219478556550853
 40
0.7422894112992636
 40
0.7678927752366487
 40
0.8041199586742654
 40
0.857732899264913
 40
0.9044284601120718
 40
0.948891245335217
 40
0.9920912987328279
 40
1.0
 40
1.0
 40
1.0
 40
1.0
 10
549.6904777568827
 20
578.8385498249058
 30
0.0
 10
549.3002294198112
 20
578.8212040641954
 30
0.0
 10
547.9678593872945
 20
578.7619828720306
 30
0.0
 10
545.837729575826
 20
578.6504558326793
 30
0.0
 10
543.3862017799494
 20
578.4987052938899
 30
0.0
 10
541.1469216774809
 20
578.3308249952382
 30
0.0
 10
539.1038386341013
 20
578.1434101550778
 30
0.0
 10
537.2103277980698
 20
577.9240828618186
 30
0.0
 10
535.6654324067662
 20
577.6872492794566
 30
0.0
 10
534.3923148798752
 20
577.4197492212046
 30
0.0
 10
533.3849486174793
 20
577.141546468467
 30
0.0
 10
532.4508618944038
 20
576.8117660650511
 30
0.0
 10
531.4827713933403
 20
576.3780370010911
 30
0.0
 10
530.4374879016293
 20
575.7764195205018
 30
0.0
 10
529.3525050079164
 20
574.9643396065986
 30
0.0
 10
528.2974419619323
 20
573.921143184758
 30
0.0
 10
527.352613259031
 20
572.6536331342884
 30
0.0
 10
526.5920628124532
 20
571.1988461710131
 30
0.0
 10
526.0680034729963
 20
569.6065637760463
 30
0.0
 10
525.8055834931372
 20
567.8885674482062
 30
0.0
 10
525.8452369162537
 20
566.1328578597644
 30
0.0
 10
526.1869284841877
 20
564.4330245933792
 30
0.0
 10
526.7699188745225
 20
562.9028121890324
 30
0.0
 10
527.5391294296702
 20
561.5604189841961
 30
0.0
 10
528.4404384246936
 20
560.4169198932083
 30
0.0
 10
529.416306889844
 20
559.4778222347676
 30
0.0
 10
530.4076264869601
 20
558.737820289075
 30
0.0
 10
531.3659297964703
 20
558.1750368685641
 30
0.0
 10
532.265257244453
 20
557.7553143308669
 30
0.0
 10
533.1177538030489
 20
557.4366301969059
 30
0.0
 10
533.9767076775823
 20
557.1788357432328
 30
0.0
 10
534.9573775073436
 20
556.9445940539808
 30
0.0
 10
536.2553920337729
 20
556.7044702355896
 30
0.0
 10
537.8744363748392
 20
556.4817998832057
 30
0.0
 10
539.8316259740766
 20
556.2749538516056
 30
0.0
 10
541.886046096538
 20
556.100467056611
 30
0.0
 10
543.5034490191196
 20
555.9854799897146
 30
0.0
 10
544.4309067479231
 20
555.9276376898433
 30
0.0
 10
544.574423962599
 20
555.9186870223248
 30
0.0
  0
LINE
  5
B0
330
1F
100
AcDbEntity
  8
0
  6
Continuous
 62
     7
370
    15
100
AcDbLine
 10
658.55516146
 20
548.8092732552
 30
0.0
 11
704.8234998629
 21
545.9234446311
 31
0.0
  0
LINE
  5
B1
330
1F
100
AcDbEntity
  8
0
  6
Continuous
 62
     7
370
    15
100
AcDbLine
 10
544.5721003687
 20
555.9185750307
 30
0.0
 11
655.5479691326
 21
548.9968365435
 31
0.0
  0
SPLINE
  5
B2
330
1F
100
AcDbEntity
  8
0
  6
Continuous
 62
     7
370
    15
100
AcDbSpline
210
0.0
220
0.0
230
1.0
 70
     8
 71
     3
 72
    22
 73
    18
 74
     0
 42
0.000000001
 43
0.00000001
 40
0.0
 40
0.0
 40
0.0
 40
0.0
 40
0.0348259783070626
 40
0.119746423450618
 40
0.1956696728156422
 40
0.2665887559362985
 40
0.341921164181659
 40
0.4139553555695488
 40
0.4842983516262946
 40
0.5539316396781947
 40
0.6233936193929578
 40
0.6929088475068687
 40
0.7626464936241821
 40
0.8326868300925657
 40
0.9030441618327434
 40
0.9736918856647899
 40
1.0
 40
1.0
 40
1.0
 40
1.0
 10
704.7432007516145
 20
545.927962267632
 30
0.0
 10
704.9026723757441
 20
545.9164170899616
 30
0.0
 10
705.4510031781989
 20
545.8767198926005
 30
0.0
 10
706.380992660713
 20
545.6773522237246
 30
0.0
 10
707.5824277599412
 20
545.2197427308544
 30
0.0
 10
708.8310691306978
 20
544.5322134425423
 30
0.0
 10
710.1363186723431
 20
543.5805499428379
 30
0.0
 10
711.4821770880826
 20
542.3317838614533
 30
0.0
 10
712.7964041034481
 20
540.8304639407052
 30
0.0
 10
714.0624821603949
 20
539.0789431175606
 30
0.0
 10
715.259983161994
 20
537.0855702352796
 30
0.0
 10
716.3674807191442
 20
534.8648724619816
 30
0.0
 10
717.36426991416
 20
532.436458009575
 30
0.0
 10
718.2325897869168
 20
529.8235680202483
 30
0.0
 10
718.9538973167895
 20
527.0521442513972
 30
0.0
 10
719.4037054916587
 20
524.7643914193126
 30
0.0
 10
719.6026386899867
 20
523.4090588096205
 30
0.0
 10
719.6566174645052
 20
523.0413012208871
 30
0.0
  0
LINE
  5
B3
330
1F
100
AcDbEntity
  8
0
  6
Continuous
 62
     7
370
    15
100
AcDbLine
 10
719.6202740534
 20
523.2966121093
 30
0.0
 11
769.6247769955
 21
178.4430801112
 31
0.0
  0
LINE
  5
B4
330
1F
100
AcDbEntity
  8
0
  6
Continuous
 62
     7
370
    15
100
AcDbLine
 10
277.7270451069
 20
178.5484481973
 30
0.0
 11
326.3739111696
 21
541.1632631329
 31
0.0
  0
LINE
  5
B5
330
1F
100
AcDbEntity
  8
0
  6
Continuous
 62
     7
370
    15
100
AcDbLine
 10
306.5514953794
 20
543.822554813
 30
0.0
 11
257.9046293167
 21
181.2077398775
 31
0.0
  0
SPLINE
  5
B6
330
1F
100
AcDbEntity
  8
0
  6
Continuous
 62
     7
370
    15
100
AcDbSpline
210
0.0
220
0.0
230
1.0
 70
     8
 71
     3
 72
    23
 73
    19
 74
     0
 42
0.000000001
 43
0.00000001
 40
0.0
 40
0.0
 40
0.0
 40
0.0
 40
0.0329387836487573
 40
0.0991988425106025
 40
0.1653759123736258
 40
0.2314567379854295
 40
0.2974600637491445
 40
0.3634289122259755
 40
0.4294272263182825
 40
0.4955823803027583
 40
0.5620899851963929
 40
0.6292336324617639
 40
0.697405026080357
 40
0.7671157792172643
 40
0.8389743508900256
 40
0.9135573584781774
 40
0.9888730400699011
 40
1.0
 40
1.0
 40
1.0
 40
1.0
 10
326.338270139125
 20
540.8907080460756
 30
0.0
 10
326.4065994321355
 20
541.3838671751428
 30
0.0
 10
326.6123807642115
 20
542.8690712221011
 30
0.0
 10
327.1112507871379
 20
545.2945565107551
 30
0.0
 10
327.9016656788992
 20
548.1038984599161
 30
0.0
 10
328.8836760804942
 20
550.7744213800852
 30
0.0
 10
330.0382820833983
 20
553.2791048555796
 30
0.0
 10
331.3484734828049
 20
555.5929688462014
 30
0.0
 10
332.7940652526111
 20
557.6949059387537
 30
0.0
 10
334.3541131865088
 20
559.5679702669053
 30
0.0
 10
336.0078707784098
 20
561.1999502172072
 30
0.0
 10
337.7364341323982
 20
562.5831647733148
 30
0.0
 10
339.5247261424479
 20
563.7138519809744
 30
0.0
 10
341.3636687911155
 20
564.590272463741
 30
0.0
 10
343.251709842187
 20
565.210255064871
 30
0.0
 10
345.1744507330567
 20
565.5603724184938
 30
0.0
 10
346.5642083309471
 20
565.6167474811765
 30
0.0
 10
347.3106268345315
 20
565.5807270697976
 30
0.0
 10
347.4067063692872
 20
565.5760904961458
 30
0.0
  0
SPLINE
  5
B7
330
1F
100
AcDbEntity
  8
0
  6
Continuous
 62
     7
370
    15
100
AcDbSpline
210
0.0
220
0.0
230
1.0
 70
     8
 71
     3
 72
    26
 73
    22
 74
     0
 42
0.000000001
 43
0.00000001
 40
0.0
 40
0.0
 40
0.0
 40
0.0
 40
0.0274702299253037
 40
0.081072678955441
 40
0.1346405349578652
 40
0.1882511644090534
 40
0.2420124405688884
 40
0.2960183308143841
 40
0.3503421942911027
 40
0.4050318934170819
 40
0.4601074577464352
 40
0.5155618664992585
 40
0.5713650170388171
 40
0.6274702339603041
 40
0.6838220442981664
 40
0.7403637089537358
 40
0.7970432665901276
 40
0.8538174478552464
 40
0.910653450858342
 40
0.9675286911430028
 40
1.0
 40
1.0
 40
1.0
 40
1.0
 10
348.1328356379525
 20
585.5549931494393
 30
0.0
 10
347.5775002501211
 20
585.574714195392
 30
0.0
 10
345.9385431779497
 20
585.6329167671048
 30
0.0
 10
343.2148395983953
 20
585.4672563282695
 30
0.0
 10
339.9906764402298
 20
584.9817379334634
 30
0.0
 10
336.814934496819
 20
584.1798974393637
 30
0.0
 10
333.7060904114253
 20
583.0762228075884
 30
0.0
 10
330.6810212127263
 20
581.6744862348288
 30
0.0
 10
327.756682467782
 20
579.9824591733411
 30
0.0
 10
324.9501192532805
 20
578.0084192119816
 30
0.0
 10
322.2785348351338
 20
575.7626237261435
 30
0.0
 10
319.7591115105109
 20
573.2574157006687
 30
0.0
 10
317.4086895628843
 20
570.5075394990419
 30
0.0
 10
315.2433268023791
 20
567.5301516139117
 30
0.0
 10
313.2779280929978
 20
564.3446249771273
 30
0.0
 10
311.5256795946606
 20
560.9722308160583
 30
0.0
 10
309.9986431973219
 20
557.4355448718067
 30
0.0
 10
308.7046299084679
 20
553.7585888579652
 30
0.0
 10
307.6586250327703
 20
549.9643037112709
 30
0.0
 10
306.9574749418097
 20
546.6382055721975
 30
0.0
 10
306.6652614156874
 20
544.5725341502435
 30
0.0
 10
306.5590619513537
 20
543.8218050467278
 30
0.0
  0
LINE
  5
B8
330
1F
100
AcDbEntity
  8
0
  6
Continuous
 62
     7
370
    15
100
AcDbLine
 10
379.6534590833
 20
564.1608203998
 30
0.0
 11
500.4025962307
 21
558.8581121912
 31
0.0
  0
LINE
  5
B9
330
1F
100
AcDbEntity
  8
0
  6
Continuous
 62
     7
370
    15
100
AcDbLine
 10
347.2554067947
 20
565.5835835091
 30
0.0
 11
376.0201285903
 21
564.3203784048
 31
0.0
  0
LINE
  5
BA
330
1F
100
AcDbEntity
  8
0
  6
Continuous
 62
     7
370
    15
100
AcDbLine
 10
376.8917549098
 20
584.3013769186
 30
0.0
 11
348.1328631287
 21
585.5643259974
 31
0.0
  0
LINE
  5
BB
330
1F
100
AcDbEntity
  8
0
  6
Continuous
 62
     7
370
    15
100
AcDbLine
 10
501.2800525646
 20
578.8388546794
 30
0.0
 11
380.5413150864
 21
584.1411061857
 31
0.0
  0
SPLINE
  5
BC
330
1F
100
AcDbEntity
  8
0
  6
Continuous
 62
     7
370
    15
100
AcDbSpline
210
0.0
220
0.0
230
1.0
 70
     8
 71
     3
 72
    16
 73
    12
 74
     0
 42
0.000000001
 43
0.00000001
 40
0.0
 40
0.0
 40
0.0
 40
0.0
 40
0.058709065546612
 40
0.1965613394340125
 40
0.3333948065034706
 40
0.4685026652872663
 40
0.6009479909807587
 40
0.7291711570199386
 40
0.8344262834483326
 40
0.9270725723939479
 40
1.0
 40
1.0
 40
1.0
 40
1.0
 10
500.3976049378714
 20
558.8578659743085
 30
0.0
 10
500.7654927641251
 20
558.8415151553465
 30
0.0
 10
501.9972024365005
 20
558.7867716698887
 30
0.0
 10
503.9288537644844
 20
558.6857949490801
 30
0.0
 10
506.0812277037091
 20
558.5534881649135
 30
0.0
 10
507.9442804707883
 20
558.4158638343955
 30
0.0
 10
509.4920659632282
 20
558.2780468969078
 30
0.0
 10
510.64503164202
 20
558.1516971592156
 30
0.0
 10
511.3970446698377
 20
558.0508846921625
 30
0.0
 10
511.8210259841568
 20
557.9789014364222
 30
0.0
 10
511.8668493574116
 20
557.9688866032237
 30
0.0
 10
511.8870323961528
 20
557.9644755406572
 30
0.0
  0
SPLINE
  5
BD
330
1F
100
AcDbEntity
  8
0
  6
Continuous
 62
     7
370
    15
100
AcDbSpline
210
0.0
220
0.0
230
1.0
 70
     8
 71
     3
 72
    43
 73
    39
 74
     0
 42
0.000000001
 43
0.00000001
 40
0.0
 40
0.0
 40
0.0
 40
0.0
 40
0.0184867515383514
 40
0.0639361507322693
 40
0.1101260791892062
 40
0.158093938709452
 40
0.2102621959533778
 40
0.243764466153294
 40
0.2702954003827044
 40
0.2898792741436106
 40
0.3081015605963077
 40
0.3260469404513393
 40
0.3443689199132038
 40
0.3636499401020219
 40
0.3836875699662473
 40
0.4041945284474994
 40
0.4249777193507955
 40
0.4459060832923894
 40
0.4686687551321129
 40
0.4901560049055868
 40
0.510525103110126
 40
0.52995812728015
 40
0.5485476639823591
 40
0.5663297261004457
 40
0.5833279048942274
 40
0.5997408570670595
 40
0.6162313998525921
 40
0.633715861751973
 40
0.6536762010129769
 40
0.6785514659914854
 40
0.7132066073167613
 40
0.7737677014960406
 40
0.8202873525054497
 40
0.8646772090760382
 40
0.911479551113604
 40
0.9570164202883261
 40
0.999165508072742
 40
1.0
 40
1.0
 40
1.0
 40
1.0
 10
506.3890284929127
 20
555.9188604950565
 30
0.0
 10
506.7223982725029
 20
555.9399066432921
 30
0.0
 10
507.8753526156846
 20
556.0126944288127
 30
0.0
 10
509.685951501619
 20
556.1482330658006
 30
0.0
 10
511.7462790981803
 20
556.3342957285315
 30
0.0
 10
513.644789191825
 20
556.5511195343524
 30
0.0
 10
515.1804895555495
 20
556.7819463927757
 30
0.0
 10
516.4543292239393
 20
557.0422113175937
 30
0.0
 10
517.4556817477368
 20
557.3088088068183
 30
0.0
 10
518.4068759053572
 20
557.6356123139936
 30
0.0
 10
519.3648258437853
 20
558.0525929076381
 30
0.0
 10
520.4026874549296
 20
558.6321949769357
 30
0.0
 10
521.4866432889849
 20
559.4184030827018
 30
0.0
 10
522.5491738119562
 20
560.4341064664698
 30
0.0
 10
523.5111260080766
 20
561.6768421347699
 30
0.0
 10
524.2964136959137
 20
563.1121085814519
 30
0.0
 10
524.8501926312385
 20
564.6910388213965
 30
0.0
 10
525.1466692358383
 20
566.4060841659789
 30
0.0
 10
525.1405074028823
 20
568.169551084491
 30
0.0
 10
524.827416885723
 20
569.8859295450409
 30
0.0
 10
524.2670446962343
 20
571.4350263547851
 30
0.0
 10
523.5148450574582
 20
572.7976960091482
 30
0.0
 10
522.6247526921353
 20
573.9624280746997
 30
0.0
 10
521.6538928397051
 20
574.9229421932207
 30
0.0
 10
520.6615850457042
 20
575.6830959581025
 30
0.0
 10
519.6982729478785
 20
576.2629120399814
 30
0.0
 10
518.7927685543883
 20
576.6956690504821
 30
0.0
 10
517.9372791685204
 20
577.0229547510935
 30
0.0
 10
517.0829599407373
 20
577.2854044035086
 30
0.0
 10
516.1239615784945
 20
577.5202568993218
 30
0.0
 10
514.7716248552616
 20
577.7777558215478
 30
0.0
 10
513.1013305445567
 20
578.0079687969773
 30
0.0
 10
511.0396779292446
 20
578.2235099578677
 30
0.0
 10
508.925686584551
 20
578.4017528145669
 30
0.0
 10
506.5800364475811
 20
578.5644306063316
 30
0.0
 10
504.0299133823614
 20
578.7103649185035
 30
0.0
 10
502.2157466065996
 20
578.7980906460368
 30
0.0
 10
501.2978213606829
 20
578.8380586170962
 30
0.0
 10
501.2800005739387
 20
578.838834563386
 30
0.0
  0
LINE
  5
BE
330
1F
100
AcDbEntity
  8
0
  6
Continuous
 62
     7
370
    15
100
AcDbLine
 10
395.4182351122
 20
548.9968365435
 30
0.0
 11
506.394103876
 21
555.9185750307
 31
0.0
  0
LINE
  5
BF
330
1F
100
AcDbEntity
  8
0
  6
Continuous
 62
     7
370
    15
100
AcDbLine
 10
346.1427043818
 20
545.9234446311
 30
0.0
 11
392.4110427848
 21
548.8092732552
 31
0.0
  0
SPLINE
  5
C0
330
1F
100
AcDbEntity
  8
0
  6
Continuous
 62
     7
370
    15
100
AcDbSpline
210
0.0
220
0.0
230
1.0
 70
     8
 71
     3
 72
    22
 73
    18
 74
     0
 42
0.000000001
 43
0.00000001
 40
0.0
 40
0.0
 40
0.0
 40
0.0
 40
0.0361310892530588
 40
0.1068928433886182
 40
0.1773938462695573
 40
0.2475504941241319
 40
0.317323658528819
 40
0.3867067427088792
 40
0.4557442502745457
 40
0.5245593869412009
 40
0.593362992334776
 40
0.6624555442135674
 40
0.7324319827127664
 40
0.8042547835145553
 40
0.8794800714503743
 40
0.9606587786410884
 40
1.0
 40
1.0
 40
1.0
 40
1.0
 10
331.3095867802612
 20
523.0413012208871
 30
0.0
 10
331.3848975909437
 20
523.5459009931185
 30
0.0
 10
331.6077025729739
 20
525.0387456745859
 30
0.0
 10
332.1051232933511
 20
527.4516577947572
 30
0.0
 10
332.8494256594754
 20
530.2091540855272
 30
0.0
 10
333.7393937194759
 20
532.8021284244264
 30
0.0
 10
334.7541929375568
 20
535.2029647851405
 30
0.0
 10
335.8736749020196
 20
537.386629144262
 30
0.0
 10
337.073982555497
 20
539.3329490335268
 30
0.0
 10
338.3292663358845
 20
541.0268930086072
 30
0.0
 10
339.6118849520145
 20
542.4592548692908
 30
0.0
 10
340.8945455009217
 20
543.6285709031918
 30
0.0
 10
342.1534799087542
 20
544.541796207439
 30
0.0
 10
343.3739577025357
 20
545.2152625972378
 30
0.0
 10
344.557613999634
 20
545.6672076822092
 30
0.0
 10
345.4907326388138
 20
545.8730635461486
 30
0.0
 10
346.042794419267
 20
545.9144519009456
 30
0.0
 10
346.223003493152
 20
545.927962267632
 30
0.0
  0
LINE
  5
C1
330
1F
100
AcDbEntity
  8
0
  6
Continuous
 62
     7
370
    15
100
AcDbLine
 10
281.3414272493
 20
178.4430801112
 30
0.0
 11
331.3459301914
 21
523.2966121093
 31
0.0
  0
LINE
  5
C2
330
1F
100
AcDbEntity
  8
0
  6
Continuous
 62
     7
370
    15
100
AcDbLine
 10
642.253591493
 20
560.6596627884
 30
0.0
 11
642.253591493
 21
562.8846852958
 31
0.0
  0
LINE
  5
C3
330
1F
100
AcDbEntity
  8
0
  6
Continuous
 62
     7
370
    15
100
AcDbLine
 10
622.253591493
 20
562.0063836642
 30
0.0
 11
622.253591493
 21
561.9070940658
 31
0.0
  0
LINE
  5
C4
330
1F
100
AcDbEntity
  8
0
  6
Continuous
 62
     7
370
    15
100
AcDbLine
 10
428.7126127518
 20
561.9070940658
 30
0.0
 11
428.7126127518
 21
562.0063836642
 31
0.0
  0
LINE
  5
C5
330
1F
100
AcDbEntity
  8
0
  6
Continuous
 62
     7
370
    15
100
AcDbLine
 10
408.7126127518
 20
562.8846852958
 30
0.0
 11
408.7126127518
 21
560.6596627884
 31
0.0
  0
SPLINE
  5
C6
330
1F
100
AcDbEntity
  8
0
  6
Continuous
 62
     7
370
    15
100
AcDbSpline
210
0.0
220
0.0
230
1.0
 70
     8
 71
     3
 72
    17
 73
    13
 74
     0
 42
0.000000001
 43
0.00000001
 40
0.0
 40
0.0
 40
0.0
 40
0.0
 40
0.0341485846486044
 40
0.1456825735140198
 40
0.2590458322556565
 40
0.3733700765805698
 40
0.4972969485485121
 40
0.613808453784268
 40
0.7237690104791085
 40
0.8279777436271261
 40
0.9267491541447326
 40
1.0
 40
1.0
 40
1.0
 40
1.0
 10
412.5048716889654
 20
550.0625567881805
 30
0.0
 10
412.6308642406017
 20
549.9524453003561
 30
0.0
 10
413.1683658487895
 20
549.4826945014639
 30
0.0
 10
414.2883622409483
 20
548.8607689654422
 30
0.0
 10
415.8314568288305
 20
548.2382846068323
 30
0.0
 10
417.5265708557159
 20
547.8854785563201
 30
0.0
 10
419.2717877734758
 20
547.8283002935372
 30
0.0
 10
420.9775616207358
 20
548.0774382444187
 30
0.0
 10
422.526605305429
 20
548.5741526724103
 30
0.0
 10
423.8950809285321
 20
549.2726728397877
 30
0.0
 10
425.0135667653872
 20
550.0465680701456
 30
0.0
 10
425.6103664710279
 20
550.6421890425804
 30
0.0
 10
425.864496861863
 20
550.8958175029898
 30
0.0
  0
SPLINE
  5
C7
330
1F
100
AcDbEntity
  8
0
  6
Continuous
 62
     7
370
    15
100
AcDbSpline
210
0.0
220
0.0
230
1.0
 70
     8
 71
     3
 72
    17
 73
    13
 74
     0
 42
0.000000001
 43
0.00000001
 40
0.0
 40
0.0
 40
0.0
 40
0.0
 40
0.0515094871042609
 40
0.1586844958972779
 40
0.2696047800551234
 40
0.3826699376093717
 40
0.4968891372083066
 40
0.6228933402618443
 40
0.7412282187183201
 40
0.8527175980714503
 40
0.9583162740685028
 40
1.0
 40
1.0
 40
1.0
 40
1.0
 10
625.1177407847049
 20
550.8948174746453
 30
0.0
 10
625.290651188664
 20
550.7112016183336
 30
0.0
 10
625.8233336483455
 20
550.1455390339131
 30
0.0
 10
626.9047354969979
 20
549.3725817810056
 30
0.0
 10
628.339259040604
 20
548.6108508971095
 30
0.0
 10
629.9202129851111
 20
548.0934482017788
 30
0.0
 10
631.6364742153561
 20
547.8318222132468
 30
0.0
 10
633.3999198181161
 20
547.8781013577484
 30
0.0
 10
635.1148894611199
 20
548.2320087624588
 30
0.0
 10
636.6417049520526
 20
548.8437093065257
 30
0.0
 10
637.7571201139588
 20
549.4641385564216
 30
0.0
 10
638.3072416700415
 20
549.9304747238915
 30
0.0
 10
638.4629365519316
 20
550.0624567444332
 30
0.0
  0
LINE
  5
C8
330
1F
100
AcDbEntity
  8
0
  6
Continuous
 62
     7
370
    15
100
AcDbLine
 10
638.1226633649
 20
637.6841027754
 30
0.0
 11
633.0855403575
 21
737.5573056577
 31
0.0
  0
LINE
  5
C9
330
1F
100
AcDbEntity
  8
0
  6
Continuous
 62
     7
370
    15
100
AcDbLine
 10
613.1067376506
 20
736.6329863371
 30
0.0
 11
618.0708190585
 21
638.2080106403
 31
0.0
  0
LINE
  5
CA
330
1F
100
AcDbEntity
  8
0
  6
Continuous
 62
     7
370
    15
100
AcDbLine
 10
432.8953540974
 20
638.2073942276
 30
0.0
 11
437.8594665942
 21
736.6329863371
 31
0.0
  0
LINE
  5
CB
330
1F
100
AcDbEntity
  8
0
  6
Continuous
 62
     7
370
    15
100
AcDbLine
 10
417.881591754
 20
737.5757028715
 30
0.0
 11
412.8435382097
 21
637.6840498327
 31
0.0
  0
LINE
  5
CC
330
1F
100
AcDbEntity
  8
0
  6
Continuous
 62
     7
370
    15
100
AcDbLine
 10
784.7361294475
 20
165.0577859473
 30
0.0
 11
799.7361294475
 21
165.0577859473
 31
0.0
  0
LINE
  5
CD
330
1F
100
AcDbEntity
  8
0
  6
Continuous
 62
     7
370
    15
100
AcDbLine
 10
769.7361294475
 20
165.0577859473
 30
0.0
 11
784.7361294475
 21
165.0577859473
 31
0.0
  0
LINE
  5
CE
330
1F
100
AcDbEntity
  8
0
  6
Continuous
 62
     7
370
    15
100
AcDbLine
 10
784.7361294475
 20
159.0577859473
 30
0.0
 11
799.7361294475
 21
159.0577859473
 31
0.0
  0
LINE
  5
CF
330
1F
100
AcDbEntity
  8
0
  6
Continuous
 62
     7
370
    15
100
AcDbLine
 10
769.7361294475
 20
159.0577859473
 30
0.0
 11
784.7361294475
 21
159.0577859473
 31
0.0
  0
LINE
  5
D0
330
1F
100
AcDbEntity
  8
0
  6
Continuous
 62
     7
370
    15
100
AcDbLine
 10
784.7361294475
 20
171.0577859473
 30
0.0
 11
792.1523279346
 21
171.0577859473
 31
0.0
  0
LINE
  5
D1
330
1F
100
AcDbEntity
  8
0
  6
Continuous
 62
     7
370
    15
100
AcDbLine
 10
777.3199309604
 20
171.0577859473
 30
0.0
 11
784.7361294475
 21
171.0577859473
 31
0.0
  0
LINE
  5
D2
330
1F
100
AcDbEntity
  8
0
  6
Continuous
 62
     7
370
    15
100
AcDbLine
 10
766.2187180376
 20
165.1717854582
 30
0.0
 11
769.880221058
 21
165.1717854582
 31
0.0
  0
LINE
  5
D3
330
1F
100
AcDbEntity
  8
0
  6
Continuous
 62
     7
370
    15
100
AcDbLine
 10
773.8025195505
 20
171.1717854582
 30
0.0
 11
777.3670720419
 21
171.1717854582
 31
0.0
  0
LINE
  5
D4
330
1F
100
AcDbEntity
  8
0
  6
Continuous
 62
     7
370
    15
100
AcDbLine
 10
766.2187180376
 20
159.1717854582
 30
0.0
 11
769.7361294475
 21
159.1717854582
 31
0.0
  0
LINE
  5
D5
330
1F
100
AcDbEntity
  8
0
  6
Continuous
 62
     7
370
    15
100
AcDbLine
 10
269.0568979657
 20
165.0577864602
 30
0.0
 11
281.2300748661
 21
165.0577864602
 31
0.0
  0
LINE
  5
D6
330
1F
100
AcDbEntity
  8
0
  6
Continuous
 62
     7
370
    15
100
AcDbLine
 10
251.2300748661
 20
165.0577864602
 30
0.0
 11
269.0568979657
 21
165.0577864602
 31
0.0
  0
LINE
  5
D7
330
1F
100
AcDbEntity
  8
0
  6
Continuous
 62
     7
370
    15
100
AcDbLine
 10
267.6276936124
 20
171.0577864602
 30
0.0
 11
273.6462733532
 21
171.0577864602
 31
0.0
  0
LINE
  5
D8
330
1F
100
AcDbEntity
  8
0
  6
Continuous
 62
     7
370
    15
100
AcDbLine
 10
258.813876379
 20
171.0577864602
 30
0.0
 11
267.6276936124
 21
171.0577864602
 31
0.0
  0
LINE
  5
D9
330
1F
100
AcDbEntity
  8
0
  6
Continuous
 62
     7
370
    15
100
AcDbLine
 10
269.0568979657
 20
159.0577864602
 30
0.0
 11
281.2300748661
 21
159.0577864602
 31
0.0
  0
LINE
  5
DA
330
1F
100
AcDbEntity
  8
0
  6
Continuous
 62
     7
370
    15
100
AcDbLine
 10
251.2300748661
 20
159.0577864602
 30
0.0
 11
269.0568979657
 21
159.0577864602
 31
0.0
  0
LINE
  5
DB
330
1F
100
AcDbEntity
  8
0
  6
Continuous
 62
     7
370
    15
100
AcDbLine
 10
281.0859839038
 20
165.1717854582
 30
0.0
 11
284.7474862072
 21
165.1717854582
 31
0.0
  0
LINE
  5
DC
330
1F
100
AcDbEntity
  8
0
  6
Continuous
 62
     7
370
    15
100
AcDbLine
 10
281.2300748661
 20
159.1717854582
 30
0.0
 11
284.7474862072
 21
159.1717854582
 31
0.0
  0
LINE
  5
DD
330
1F
100
AcDbEntity
  8
0
  6
Continuous
 62
     7
370
    15
100
AcDbLine
 10
273.5991324883
 20
171.1717854582
 30
0.0
 11
277.1636846943
 21
171.1717854582
 31
0.0
  0
ARC
  5
DE
330
1F
100
AcDbEntity
  8
0
  6
Continuous
 62
     7
370
    15
100
AcDbCircle
 10
772.9878148653
 20
190.8063993831
 30
0.0
 40
13.13208962626584
100
AcDbArc
 50
258.7067459314
 51
271.6054730923
  0
LWPOLYLINE
  5
DF
330
1F
100
AcDbEntity
  8
0
  6
Continuous
 62
     7
370
    15
100
AcDbPolyline
 90
        3
 70
   128
 43
0.0
 10
769.6247769955
 20
178.4430801112
 10
769.8453885783
 20
178.1562805899
 10
770.4161487376
 20
177.9285769243
  0
ARC
  5
E0
330
1F
100
AcDbEntity
  8
0
  6
Continuous
 62
     7
370
    15
100
AcDbCircle
 10
774.651534181
 20
201.4897110444
 30
0.0
 40
27.70731212420804
100
AcDbArc
 50
262.3893537591
 51
279.4007141138
  0
LWPOLYLINE
  5
E1
330
1F
100
AcDbEntity
  8
0
  6
Continuous
 62
     7
370
    15
100
AcDbPolyline
 90
        3
 70
   128
 43
0.0
 10
770.1905902925
 20
174.5409772514
 10
770.4112018753
 20
174.2541777302
 10
770.9819620346
 20
174.0264740646
  0
LWPOLYLINE
  5
E2
330
1F
100
AcDbEntity
  8
0
  6
Continuous
 62
     7
370
    15
100
AcDbPolyline
 90
        6
 70
   128
 43
0.0
 10
277.6104659851
 20
177.6794648465
 10
278.5775928455
 20
177.6945074725
 10
279.7478500364
 20
177.7829204297
 10
280.6180179231
 20
177.9470584201
 10
281.156646371
 20
178.1809890689
 10
281.3414272493
 20
178.4430801112
  0
LWPOLYLINE
  5
E3
330
1F
100
AcDbEntity
  8
0
  6
Continuous
 62
     7
370
    15
100
AcDbPolyline
 90
        9
 70
   128
 43
0.0
 10
271.7890322221
 20
174.1545013515
 10
273.1681547277
 20
173.9991963222
 10
274.9494991465
 20
173.8526833033
 10
276.5837291974
 20
173.7829121632
 10
278.0117795485
 20
173.7924046128
 10
279.1820367394
 20
173.88081757
 10
280.0522046261
 20
174.0449555604
 10
280.590833074
 20
174.2788862092
 10
280.7756139522
 20
174.5409772514
  0
LWPOLYLINE
  5
E4
330
1F
100
AcDbEntity
  8
0
  6
Continuous
 62
     7
370
    15
100
AcDbPolyline
 90
       18
 70
   128
 43
0.0
 10
257.904629323
 20
181.2077399246
 10
258.0488828807
 20
181.3626401291
 10
258.5454554391
 20
181.5017254673
 10
259.3770837498
 20
181.5821285446
 10
260.5137105989
 20
181.6009433842
 10
261.9142553304
 20
181.5574899689
 10
263.5280986088
 20
181.4533388182
 10
265.2969119332
 20
181.2922542262
 10
267.1567657814
 20
181.0800582096
 10
269.0404401895
 20
180.8244200855
 10
270.8798542566
 20
180.5345792816
 10
272.6085267657
 20
180.2210113998
 10
274.1639789883
 20
179.8950496003
 10
275.4899928284
 20
179.5684749919
 10
276.538642691
 20
179.2530908317
 10
277.2720276378
 20
178.9602959251
 10
277.6636412259
 20
178.7006726428
 10
277.7270451694
 20
178.5484486629
  0
LWPOLYLINE
  5
E5
330
1F
100
AcDbEntity
  8
0
  6
Continuous
 62
     7
370
    15
100
AcDbPolyline
 90
       23
 70
   128
 43
0.0
 10
257.5202954206
 20
177.4225375179
 10
258.0168679791
 20
177.5616228561
 10
258.8484962898
 20
177.6420259334
 10
259.9851231388
 20
177.660840773
 10
261.3856678704
 20
177.6173873577
 10
262.9995111488
 20
177.513236207
 10
264.7683244732
 20
177.352151615
 10
266.6281783213
 20
177.1399555984
 10
268.5118527295
 20
176.8843174743
 10
270.3512667965
 20
176.5944766704
 10
272.0799393056
 20
176.2809087886
 10
273.6353915282
 20
175.9549469891
 10
274.9614053684
 20
175.6283723807
 10
276.010055231
 20
175.3129882205
 10
276.7434401778
 20
175.0201933139
 10
277.1350537659
 20
174.7605700316
 10
277.17074206
 20
174.5435018356
 10
276.8492151922
 20
174.3768341359
 10
276.1820939811
 20
174.2665907375
 10
275.1934899255
 20
174.2167561241
 10
273.9191337518
 20
174.2291314484
 10
272.4050840124
 20
174.3032694339
 10
271.840338853
 20
174.3424951059
  0
LWPOLYLINE
  5
E6
330
1F
100
AcDbEntity
  8
0
  6
Continuous
 62
     7
370
    15
100
AcDbPolyline
 90
        8
 70
   128
 43
0.0
 10
262.4364438564
 20
175.6064205334
 10
261.6914961497
 20
175.7572370051
 10
260.2442096931
 20
176.0849892969
 10
259.051477056
 20
176.4074287118
 10
258.1564067035
 20
176.7129014494
 10
257.5913488102
 20
176.990366929
 10
257.3767260405
 20
177.2297968253
 10
257.5202954206
 20
177.4225375179
  0
ARC
  5
E7
330
1F
100
AcDbEntity
  8
0
  6
Continuous
 62
     7
370
    15
100
AcDbCircle
 10
262.7999681807
 20
142.4302136065
 30
0.0
 40
34.46471725737667
100
AcDbArc
 50
74.0686903569
 51
90.7387885743
  0
LINE
  5
E8
330
1F
100
AcDbEntity
  8
0
  6
Continuous
 62
     7
370
    15
100
AcDbLine
 10
272.5903742601
 20
175.0301354327
 30
0.0
 11
272.3768255167
 21
174.9985133837
 31
0.0
  0
LWPOLYLINE
  5
E9
330
1F
100
AcDbEntity
  8
0
  6
Continuous
 62
     7
370
    15
100
AcDbPolyline
 90
        3
 70
   128
 43
0.0
 10
262.1407948448
 20
176.3689277843
 10
261.9847336731
 20
176.4349876372
 10
261.8911584757
 20
176.4810886154
  0
LWPOLYLINE
  5
EA
330
1F
100
AcDbEntity
  8
0
  6
Continuous
 62
     7
370
    15
100
AcDbPolyline
 90
       18
 70
   128
 43
0.0
 10
773.2381058201
 20
178.5617192366
 10
773.411888589
 20
178.7962154862
 10
773.9376453434
 20
179.0698136363
 10
774.7963738645
 20
179.3726251367
 10
775.9570374661
 20
179.6937055909
 10
777.3776867415
 20
180.0214503147
 10
779.0069757244
 20
180.3440137599
 10
780.786017666
 20
180.649737643
 10
782.6505133551
 20
180.9275723066
 10
784.5330750598
 20
181.1674760818
 10
786.3656620951
 20
181.3607782212
 10
788.0820399907
 20
181.5004922818
 10
789.6201743774
 20
181.5815686335
 10
790.9244730711
 20
181.6010769657
 10
791.9477953186
 20
181.5583121964
 10
792.6531555875
 20
181.4548199557
 10
793.0150603201
 20
181.294340723
 10
793.0615749905
 20
181.2077394118
  0
LWPOLYLINE
  5
EB
330
1F
100
AcDbEntity
  8
0
  6
Continuous
 62
     7
370
    15
100
AcDbPolyline
 90
       24
 70
   128
 43
0.0
 10
773.7666932801
 20
174.6216166254
 10
773.940476049
 20
174.856112875
 10
774.4662328035
 20
175.1297110251
 10
775.3249613246
 20
175.4325225255
 10
776.4856249261
 20
175.7536029797
 10
777.9062742015
 20
176.0813477035
 10
779.5355631844
 20
176.4039111487
 10
781.314605126
 20
176.7096350318
 10
783.1791008152
 20
176.9874696954
 10
785.0616625199
 20
177.2273734706
 10
786.8942495551
 20
177.42067561
 10
788.6106274507
 20
177.5603896706
 10
790.1487618375
 20
177.6414660223
 10
791.4530605311
 20
177.6609743545
 10
792.4763827786
 20
177.6182095851
 10
793.1817430476
 20
177.5147173445
 10
793.5436477802
 20
177.3542381118
 10
793.5490167964
 20
177.1425720247
 10
793.197656046
 20
176.8873692469
 10
792.502264622
 20
176.5978534718
 10
791.4879757823
 20
176.2844885539
 10
790.1914485683
 20
175.9586003177
 10
788.6595428514
 20
175.6319672133
 10
788.4899870836
 20
175.598648926
  0
LWPOLYLINE
  5
EC
330
1F
100
AcDbEntity
  8
0
  6
Continuous
 62
     7
370
    15
100
AcDbPolyline
 90
        7
 70
   128
 43
0.0
 10
779.1411186194
 20
174.3436282931
 10
777.9522836014
 20
174.2674903359
 10
776.5246024102
 20
174.2169692305
 10
775.355498145
 20
174.2286503421
 10
774.48722528
 20
174.3021114848
 10
773.9511654588
 20
174.4346975815
 10
773.7666932801
 20
174.6216166254
  0
ARC
  5
ED
330
1F
100
AcDbEntity
  8
0
  6
Continuous
 62
     7
370
    15
100
AcDbCircle
 10
787.4900165879
 20
147.1870243986
 30
0.0
 40
29.69863954890725
100
AcDbArc
 50
87.1519382997
 51
107.6610110561
  0
LWPOLYLINE
  5
EE
330
1F
100
AcDbEntity
  8
0
  6
Continuous
 62
     7
370
    15
100
AcDbPolyline
 90
        3
 70
   128
 43
0.0
 10
789.0984961147
 20
176.4938420903
 10
788.8982984785
 20
176.3985005938
 10
788.7759256986
 20
176.3498525586
  0
LINE
  5
EF
330
1F
100
AcDbEntity
  8
0
  6
Continuous
 62
     7
370
    15
100
AcDbLine
 10
778.5815767735
 20
174.9993893677
 30
0.0
 11
778.411670016
 21
175.0234801395
 31
0.0
  0
ARC
  5
F0
330
1F
100
AcDbEntity
  8
0
  6
Continuous
 62
     7
370
    15
100
AcDbCircle
 10
427.3664140406
 20
820.2191672175
 30
0.0
 40
82.3823686267081
100
AcDbArc
 50
179.844474155
 51
228.6562148699
  0
ARC
  5
F1
330
1F
100
AcDbEntity
  8
0
  6
Continuous
 62
     7
370
    15
100
AcDbCircle
 10
623.4262970307
 20
820.2818394977
 30
0.0
 40
82.55571518852997
100
AcDbArc
 50
308.8840904711
 51
0.1117030267
  0
ARC
  5
F2
330
1F
100
AcDbEntity
  8
0
  6
Continuous
 62
     7
370
    15
100
AcDbCircle
 10
426.1752885274
 20
823.1421870515
 30
0.0
 40
81.19214630311762
100
AcDbArc
 50
174.092786708
 51
186.2766575322
  0
ARC
  5
F3
330
1F
100
AcDbEntity
  8
0
  6
Continuous
 62
     7
370
    15
100
AcDbCircle
 10
624.7909157169
 20
823.1422159635
 30
0.0
 40
81.1921463036174
100
AcDbArc
 50
354.092786708
 51
6.2766575321
  0
ARC
  5
F4
330
1F
100
AcDbEntity
  8
0
  6
Continuous
 62
     7
370
    15
100
AcDbCircle
 10
623.5745639775
 20
821.1275365443
 30
0.0
 40
82.40887277238866
100
AcDbArc
 50
310.7092053504
 51
359.836720509
  0
ARC
  5
F5
330
1F
100
AcDbEntity
  8
0
  6
Continuous
 62
     7
370
    15
100
AcDbCircle
 10
427.5490976452
 20
821.187309424
 30
0.0
 40
82.56652116145413
100
AcDbArc
 50
180.2044464258
 51
231.2275555565
  0
ARC
  5
F6
330
1F
100
AcDbEntity
  8
0
  6
Continuous
 62
     7
370
    15
100
AcDbCircle
 10
706.6649974146
 20
989.3337141213
 30
0.0
 40
413.7452348840544
100
AcDbArc
 50
272.9935049048
 51
277.9944368151
  0
LWPOLYLINE
  5
F7
330
1F
100
AcDbEntity
  8
0
  6
Continuous
 62
     7
370
    15
100
AcDbPolyline
 90
       33
 70
   128
 43
0.0
 10
768.61743612
 20
585.027119206
 10
767.0942256152
 20
585.3550976026
 10
764.8041156008
 20
585.7783516987
 10
762.1728363237
 20
586.1961376339
 10
759.2051295271
 20
586.6077025299
 10
755.9063432192
 20
587.0123047188
 10
752.282422036
 20
587.4092150801
 10
748.3398965283
 20
587.7977183547
 10
744.0858713936
 20
588.1771144332
 10
739.5280126727
 20
588.5467196184
 10
734.674533935
 20
588.9058678566
 10
729.5341814774
 20
589.2539119386
 10
724.1162185624
 20
589.5902246653
 10
718.4304087254
 20
589.9141999785
 10
712.4869981799
 20
590.2252540527
 10
706.2966973536
 20
590.5228263475
 10
699.8706615869
 20
590.8063806176
 10
693.2204710306
 20
591.0754058789
 10
686.3581097776
 20
591.3294173297
 10
679.2959442667
 20
591.5679572243
 10
672.0467009975
 20
591.7905956976
 10
664.6234435963
 20
591.9969315401
 10
657.0395492747
 20
592.1865929205
 10
649.3086847229
 20
592.3592380564
 10
641.4447814813
 20
592.5145558294
 10
633.4620108351
 20
592.6522663465
 10
625.3747582766
 20
592.7721214441
 10
617.1975975815
 20
592.873905135
 10
608.9452645461
 20
592.9574339982
 10
600.6326304323
 20
593.0225575091
 10
592.2746751685
 20
593.0691583107
 10
583.8864603552
 20
593.0971524252
 10
575.4831021224
 20
593.1064894054
  0
LWPOLYLINE
  5
F8
330
1F
100
AcDbEntity
  8
0
  6
Continuous
 62
     7
370
    15
100
AcDbPolyline
 90
       33
 70
   128
 43
0.0
 10
475.4831021224
 20
593.1064894054
 10
467.0797438895
 20
593.0971524252
 10
458.6915290762
 20
593.0691583107
 10
450.3335738125
 20
593.0225575091
 10
442.0209396987
 20
592.9574339982
 10
433.7686066632
 20
592.873905135
 10
425.5914459681
 20
592.7721214441
 10
417.5041934096
 20
592.6522663465
 10
409.5214227635
 20
592.5145558294
 10
401.6575195219
 20
592.3592380564
 10
393.9266549701
 20
592.1865929205
 10
386.3427606485
 20
591.9969315401
 10
378.9195032473
 20
591.7905956976
 10
371.6702599781
 20
591.5679572243
 10
364.6080944671
 20
591.3294173297
 10
357.7457332141
 20
591.0754058789
 10
351.0955426578
 20
590.8063806176
 10
344.6695068911
 20
590.5228263475
 10
338.4792060648
 20
590.2252540527
 10
332.5357955194
 20
589.9141999785
 10
326.8499856823
 20
589.5902246653
 10
321.4320227673
 20
589.2539119386
 10
316.2916703097
 20
588.9058678566
 10
311.4381915721
 20
588.5467196184
 10
306.8803328512
 20
588.1771144332
 10
302.6263077165
 20
587.7977183547
 10
298.6837822088
 20
587.4092150801
 10
295.0598610255
 20
587.0123047188
 10
291.7610747177
 20
586.6077025299
 10
288.7933679211
 20
586.1961376339
 10
286.162088644
 20
585.7783516987
 10
283.8719786296
 20
585.3550976026
 10
283.2705083641
 20
585.2310674419
  0
ARC
  5
F9
330
1F
100
AcDbEntity
  8
0
  6
Continuous
 62
     7
370
    15
100
AcDbCircle
 10
349.5386282117
 20
1053.5927606255
 30
0.0
 40
478.1942645060112
100
AcDbArc
 50
262.8359305571
 51
266.789808203
  0
LINE
  5
FA
330
1F
100
AcDbEntity
  8
0
  6
Continuous
 62
     7
370
    15
100
AcDbLine
 10
770.1869548782
 20
605.0422889698
 30
0.0
 11
770.2036493629
 21
605.0299528671
 31
0.0
  0
LINE
  5
FB
330
1F
100
AcDbEntity
  8
0
  6
Continuous
 62
     7
370
    15
100
AcDbLine
 10
280.7627984448
 20
605.0301343798
 30
0.0
 11
280.7882234757
 21
605.0488341838
 31
0.0
  0
LWPOLYLINE
  5
FC
330
1F
100
AcDbEntity
  8
0
  6
Continuous
 62
     7
370
    15
100
AcDbPolyline
 90
       19
 70
   128
 43
0.0
 10
793.0615749281
 20
181.2077398775
 10
793.0308652676
 20
181.2764939156
 10
792.7021609132
 20
181.4420690708
 10
792.028229841
 20
181.5511180934
 10
791.0334296758
 20
181.5996996676
 10
789.7537150877
 20
181.5860579287
 10
788.235338296
 20
181.5106859247
 10
786.5331773941
 20
181.3763077963
 10
784.7087529119
 20
181.187780319
 10
782.8280043037
 20
180.9519173671
 10
780.9589067244
 20
180.6772436423
 10
779.1690142305
 20
180.3736865686
 10
777.5230182002
 20
180.0522174896
 10
776.0804092186
 20
179.7244551354
 10
774.893326933
 20
179.4022456913
 10
774.0046755902
 20
179.0972346463
 10
773.4465733649
 20
178.8204458942
 10
773.2391915258
 20
178.5818833017
 10
773.2391591379
 20
178.5484481973
  0
SPLINE
  5
FD
330
1F
100
AcDbEntity
  8
0
  6
Continuous
 62
     7
370
    15
100
AcDbSpline
210
0.0
220
0.0
230
1.0
 70
     8
 71
     3
 72
     9
 73
     5
 74
     0
 42
0.000000001
 43
0.00000001
 40
0.0
 40
0.0
 40
0.0
 40
0.0
 40
0.5706425577717229
 40
1.0
 40
1.0
 40
1.0
 40
1.0
 10
672.6919907461797
 20
584.1633214689014
 30
0.0
 10
672.9766408266512
 20
584.1998654567319
 30
0.0
 10
673.4754646115142
 20
584.2639055240788
 30
0.0
 10
673.8947549127101
 20
584.2860404714817
 30
0.0
 10
674.0747803239826
 20
584.2955442758823
 30
0.0
  0
SPLINE
  5
FE
330
1F
100
AcDbEntity
  8
0
  6
Continuous
 62
     7
370
    15
100
AcDbSpline
210
0.0
220
0.0
230
1.0
 70
     8
 71
     3
 72
    16
 73
    12
 74
     0
 42
0.000000001
 43
0.00000001
 40
0.0
 40
0.0
 40
0.0
 40
0.0
 40
0.0323395846601733
 40
0.1574535052621182
 40
0.2792632355153974
 40
0.4009263130444125
 40
0.5257090079819904
 40
0.6523527084166528
 40
0.7764870976557534
 40
0.8976005184819112
 40
1.0
 40
1.0
 40
1.0
 40
1.0
 10
671.6209438371814
 20
584.0434350336614
 30
0.0
 10
671.5525769103883
 20
584.0526674719573
 30
0.0
 10
671.2197151132839
 20
584.097617949432
 30
0.0
 10
670.7511491200707
 20
584.1420258068273
 30
0.0
 10
670.3167417717859
 20
584.146253908005
 30
0.0
 10
670.1484520234662
 20
584.097549897574
 30
0.0
 10
670.2533383061468
 20
584.029976979318
 30
0.0
 10
670.6347359278268
 20
583.9860250320135
 30
0.0
 10
671.2457966681719
 20
584.0006474909624
 30
0.0
 10
671.9643107264479
 20
584.0714851400022
 30
0.0
 10
672.4633585725612
 20
584.1344671113211
 30
0.0
 10
672.6919907461797
 20
584.1633214689014
 30
0.0
  0
SPLINE
  5
FF
330
1F
100
AcDbEntity
  8
0
  6
Continuous
 62
     7
370
    15
100
AcDbSpline
210
0.0
220
0.0
230
1.0
 70
     8
 71
     3
 72
    18
 73
    14
 74
     0
 42
0.000000001
 43
0.00000001
 40
0.0
 40
0.0
 40
0.0
 40
0.0
 40
0.093332357116305
 40
0.1867454217553584
 40
0.2782211540800326
 40
0.3692919201059457
 40
0.4627898361989266
 40
0.5578510049364711
 40
0.6512134831892681
 40
0.7423489260233965
 40
0.8340294117507576
 40
0.928188089918802
 40
1.0
 40
1.0
 40
1.0
 40
1.0
 10
672.6919907461797
 20
564.5604145314138
 30
0.0
 10
672.4138077391009
 20
564.5927190931378
 30
0.0
 10
671.8572011710553
 20
564.6573561513902
 30
0.0
 10
671.1143374181624
 20
564.6782839362037
 30
0.0
 10
670.5508758881468
 20
564.6153503578115
 30
0.0
 10
670.2203428199072
 20
564.4856955116572
 30
0.0
 10
670.154741719378
 20
564.3302296421375
 30
0.0
 10
670.3736549864625
 20
564.2008737460957
 30
0.0
 10
670.8533476177587
 20
564.1419842547115
 30
0.0
 10
671.5277655198012
 20
564.1651273065306
 30
0.0
 10
672.3213575910806
 20
564.2492398115727
 30
0.0
 10
673.1089840013502
 20
564.3552314299048
 30
0.0
 10
673.5643569506826
 20
564.4001981011959
 30
0.0
 10
673.7613870488211
 20
564.4196542144113
 30
0.0
  0
SPLINE
  5
100
330
1F
100
AcDbEntity
  8
0
  6
Continuous
 62
     7
370
    15
100
AcDbSpline
210
0.0
220
0.0
230
1.0
 70
     8
 71
     3
 72
    11
 73
     7
 74
     0
 42
0.000000001
 43
0.00000001
 40
0.0
 40
0.0
 40
0.0
 40
0.0
 40
0.1808644509227023
 40
0.4668385748168117
 40
0.7503898370667512
 40
1.0
 40
1.0
 40
1.0
 40
1.0
 10
674.9457734396065
 20
564.3283698444467
 30
0.0
 10
674.8775745316836
 20
564.324545231865
 30
0.0
 10
674.7015428083884
 20
564.3146733268131
 30
0.0
 10
674.150816163202
 20
564.3651135627763
 30
0.0
 10
673.440804156577
 20
564.4607122218954
 30
0.0
 10
672.9307723271843
 20
564.5286214641878
 30
0.0
 10
672.6919907461797
 20
564.5604145314138
 30
0.0
  0
SPLINE
  5
101
330
1F
100
AcDbEntity
  8
0
  6
Continuous
 62
     7
370
    15
100
AcDbSpline
210
0.0
220
0.0
230
1.0
 70
     8
 71
     3
 72
    11
 73
     7
 74
     0
 42
0.000000001
 43
0.00000001
 40
0.0
 40
0.0
 40
0.0
 40
0.0
 40
0.3251239172433904
 40
0.6505143344825892
 40
0.9696157027670207
 40
1.0
 40
1.0
 40
1.0
 40
1.0
 10
657.6824382049888
 20
549.1574669615807
 30
0.0
 10
657.4029585131235
 20
549.122559620453
 30
0.0
 10
656.8437700433957
 20
549.0527163250881
 30
0.0
 10
656.1208906242633
 20
548.9923606943147
 30
0.0
 10
655.6729400067493
 20
548.9818153168271
 30
0.0
 10
655.5581457259003
 20
548.9977571571458
 30
0.0
 10
655.5481655066981
 20
548.9991431413576
 30
0.0
  0
LWPOLYLINE
  5
102
330
1F
100
AcDbEntity
  8
0
  6
Continuous
 62
     7
370
    15
100
AcDbPolyline
 90
       13
 70
   128
 43
0.0
 10
656.6121140461
 20
549.0394222101
 10
657.31272353
 20
548.9440799582
 10
658.1511107513
 20
548.8428526889
 10
658.9449797159
 20
548.7927185935
 10
659.581716487
 20
548.8201595069
 10
660.0029469047
 20
548.9178942826
 10
660.1791883555
 20
549.0589454995
 10
660.0794537797
 20
549.2000154303
 10
659.7057281432
 20
549.2892104356
 10
659.119675585
 20
549.2996982832
 10
658.388843533
 20
549.2413202653
 10
657.682438205
 20
549.1574669616
 10
657.682438205
 20
549.1574669616
  0
LWPOLYLINE
  5
103
330
1F
100
AcDbEntity
  8
0
  6
Continuous
 62
     7
370
    15
100
AcDbPolyline
 90
        7
 70
   128
 43
0.0
 10
769.6247769955
 20
178.4430801112
 10
769.633041602
 20
178.4048271724
 10
769.9008788329
 20
178.1225339334
 10
770.5164223607
 20
177.9036912106
 10
771.4574248385
 20
177.7562085502
 10
772.689875985
 20
177.6854163598
 10
773.3557382597
 20
177.6794648465
  0
LWPOLYLINE
  5
104
330
1F
100
AcDbEntity
  8
0
  6
Continuous
 62
     7
370
    15
100
AcDbPolyline
 90
       19
 70
   128
 43
0.0
 10
257.9046293167
 20
181.2077398775
 10
257.9353389772
 20
181.2764939156
 10
258.2640433316
 20
181.4420690708
 10
258.9379744038
 20
181.5511180934
 10
259.9327745689
 20
181.5996996676
 10
261.2124891571
 20
181.5860579287
 10
262.7308659488
 20
181.5106859247
 10
264.4330268507
 20
181.3763077963
 10
266.2574513329
 20
181.187780319
 10
268.1381999411
 20
180.9519173671
 10
270.0072975203
 20
180.6772436423
 10
271.7971900143
 20
180.3736865686
 10
273.4431860446
 20
180.0522174896
 10
274.8857950261
 20
179.7244551354
 10
276.0728773117
 20
179.4022456913
 10
276.9615286546
 20
179.0972346463
 10
277.5196308798
 20
178.8204458942
 10
277.7270127189
 20
178.5818833017
 10
277.7270451069
 20
178.5484481973
  0
SPLINE
  5
105
330
1F
100
AcDbEntity
  8
0
  6
Continuous
 62
     7
370
    15
100
AcDbSpline
210
0.0
220
0.0
230
1.0
 70
     8
 71
     3
 72
     9
 73
     5
 74
     0
 42
0.000000001
 43
0.00000001
 40
0.0
 40
0.0
 40
0.0
 40
0.0
 40
0.5706425577717374
 40
1.0
 40
1.0
 40
1.0
 40
1.0
 10
378.2742134985867
 20
584.1633214689014
 30
0.0
 10
377.9895634181152
 20
584.199865456732
 30
0.0
 10
377.4907396332522
 20
584.2639055240788
 30
0.0
 10
377.0714493320564
 20
584.2860404714817
 30
0.0
 10
376.8914239207838
 20
584.2955442758823
 30
0.0
  0
SPLINE
  5
106
330
1F
100
AcDbEntity
  8
0
  6
Continuous
 62
     7
370
    15
100
AcDbSpline
210
0.0
220
0.0
230
1.0
 70
     8
 71
     3
 72
    16
 73
    12
 74
     0
 42
0.000000001
 43
0.00000001
 40
0.0
 40
0.0
 40
0.0
 40
0.0
 40
0.0323395846601733
 40
0.1574535052621182
 40
0.2792632355153974
 40
0.4009263130444125
 40
0.5257090079819904
 40
0.6523527084166528
 40
0.7764870976557534
 40
0.8976005184819112
 40
1.0
 40
1.0
 40
1.0
 40
1.0
 10
379.3452604075849
 20
584.0434350336614
 30
0.0
 10
379.4136273343781
 20
584.0526674719573
 30
0.0
 10
379.7464891314825
 20
584.097617949432
 30
0.0
 10
380.2150551246957
 20
584.1420258068273
 30
0.0
 10
380.6494624729805
 20
584.146253908005
 30
0.0
 10
380.8177522213001
 20
584.097549897574
 30
0.0
 10
380.7128659386195
 20
584.029976979318
 30
0.0
 10
380.3314683169395
 20
583.9860250320135
 30
0.0
 10
379.7204075765944
 20
584.0006474909624
 30
0.0
 10
379.0018935183185
 20
584.0714851400022
 30
0.0
 10
378.5028456722052
 20
584.1344671113211
 30
0.0
 10
378.2742134985867
 20
584.1633214689014
 30
0.0
  0
SPLINE
  5
107
330
1F
100
AcDbEntity
  8
0
  6
Continuous
 62
     7
370
    15
100
AcDbSpline
210
0.0
220
0.0
230
1.0
 70
     8
 71
     3
 72
    18
 73
    14
 74
     0
 42
0.000000001
 43
0.00000001
 40
0.0
 40
0.0
 40
0.0
 40
0.0
 40
0.093332357116305
 40
0.1867454217553584
 40
0.2782211540800326
 40
0.3692919201059457
 40
0.4627898361989266
 40
0.5578510049364711
 40
0.6512134831892681
 40
0.7423489260233965
 40
0.8340294117507576
 40
0.928188089918802
 40
1.0
 40
1.0
 40
1.0
 40
1.0
 10
378.2742134985867
 20
564.5604145314138
 30
0.0
 10
378.5523965056656
 20
564.5927190931378
 30
0.0
 10
379.1090030737112
 20
564.6573561513902
 30
0.0
 10
379.851866826604
 20
564.6782839362037
 30
0.0
 10
380.4153283566195
 20
564.6153503578115
 30
0.0
 10
380.7458614248592
 20
564.4856955116572
 30
0.0
 10
380.8114625253884
 20
564.3302296421375
 30
0.0
 10
380.5925492583039
 20
564.2008737460957
 30
0.0
 10
380.1128566270077
 20
564.1419842547115
 30
0.0
 10
379.4384387249652
 20
564.1651273065306
 30
0.0
 10
378.6448466536857
 20
564.2492398115727
 30
0.0
 10
377.8572202434161
 20
564.3552314299048
 30
0.0
 10
377.4018472940838
 20
564.4001981011959
 30
0.0
 10
377.2048171959452
 20
564.4196542144113
 30
0.0
  0
SPLINE
  5
108
330
1F
100
AcDbEntity
  8
0
  6
Continuous
 62
     7
370
    15
100
AcDbSpline
210
0.0
220
0.0
230
1.0
 70
     8
 71
     3
 72
    11
 73
     7
 74
     0
 42
0.000000001
 43
0.00000001
 40
0.0
 40
0.0
 40
0.0
 40
0.0
 40
0.1808644509227023
 40
0.4668385748168117
 40
0.7503898370667512
 40
1.0
 40
1.0
 40
1.0
 40
1.0
 10
376.0204308051599
 20
564.3283698444467
 30
0.0
 10
376.0886297130828
 20
564.324545231865
 30
0.0
 10
376.264661436378
 20
564.3146733268131
 30
0.0
 10
376.8153880815644
 20
564.3651135627763
 30
0.0
 10
377.5254000881895
 20
564.4607122218954
 30
0.0
 10
378.0354319175822
 20
564.5286214641878
 30
0.0
 10
378.2742134985867
 20
564.5604145314138
 30
0.0
  0
SPLINE
  5
109
330
1F
100
AcDbEntity
  8
0
  6
Continuous
 62
     7
370
    15
100
AcDbSpline
210
0.0
220
0.0
230
1.0
 70
     8
 71
     3
 72
    11
 73
     7
 74
     0
 42
0.000000001
 43
0.00000001
 40
0.0
 40
0.0
 40
0.0
 40
0.0
 40
0.3251239172433983
 40
0.6505143344826049
 40
0.9696157027670441
 40
1.0
 40
1.0
 40
1.0
 40
1.0
 10
393.2837660397774
 20
549.1574669615808
 30
0.0
 10
393.5632457316429
 20
549.1225596204531
 30
0.0
 10
394.1224342013707
 20
549.052716325088
 30
0.0
 10
394.8453136205029
 20
548.9923606943148
 30
0.0
 10
395.2932642380173
 20
548.9818153168269
 30
0.0
 10
395.408058518866
 20
548.9977571571458
 30
0.0
 10
395.4180387380683
 20
548.9991431413576
 30
0.0
  0
LWPOLYLINE
  5
10A
330
1F
100
AcDbEntity
  8
0
  6
Continuous
 62
     7
370
    15
100
AcDbPolyline
 90
       13
 70
   128
 43
0.0
 10
394.3540901987
 20
549.0394222101
 10
393.6534807148
 20
548.9440799582
 10
392.8150934935
 20
548.8428526889
 10
392.0212245289
 20
548.7927185935
 10
391.3844877577
 20
548.8201595069
 10
390.9632573401
 20
548.9178942826
 10
390.7870158892
 20
549.0589454995
 10
390.8867504651
 20
549.2000154303
 10
391.2604761016
 20
549.2892104356
 10
391.8465286597
 20
549.2996982832
 10
392.5773607117
 20
549.2413202653
 10
393.2837660398
 20
549.1574669616
 10
393.2837660398
 20
549.1574669616
  0
LWPOLYLINE
  5
10B
330
1F
100
AcDbEntity
  8
0
  6
Continuous
 62
     7
370
    15
100
AcDbPolyline
 90
        7
 70
   128
 43
0.0
 10
281.3414272493
 20
178.4430801112
 10
281.3331626427
 20
178.4048271724
 10
281.0653254118
 20
178.1225339334
 10
280.4497818841
 20
177.9036912106
 10
279.5087794063
 20
177.7562085502
 10
278.2763282597
 20
177.6854163598
 10
277.6104659851
 20
177.6794648465
  0
ELLIPSE
  5
10C
330
1F
100
AcDbEntity
  8
0
  6
Continuous
 62
     7
370
    15
100
AcDbEllipse
 10
632.253591493
 20
571.7719751196
 30
0.0
 11
7.256517966689784
 21
7.18986204654118
 31
0.0
210
0.0
220
0.0
230
1.0
 40
0.9569893102
 41
3.588014571402853
 42
4.319133165907196
  0
ELLIPSE
  5
10D
330
1F
100
AcDbEntity
  8
0
  6
Continuous
 62
     7
370
    15
100
AcDbEllipse
 10
632.253591493
 20
561.2833784271
 30
0.0
 11
-7.256517966689899
 21
7.323791841906655
 31
0.0
210
0.0
220
0.0
230
1.0
 40
0.9394888971
 41
0.7588151117296635
 42
3.900407765319482
  0
ELLIPSE
  5
10E
330
1F
100
AcDbEntity
  8
0
  6
Continuous
 62
     7
370
    15
100
AcDbEllipse
 10
418.7126127518
 20
561.2833784271
 30
0.0
 11
7.256517966689843
 21
7.323791841906655
 31
0.0
210
0.0
220
0.0
230
1.0
 40
0.9394888971
 41
2.382777541860114
 42
5.524370195449933
  0
ELLIPSE
  5
10F
330
1F
100
AcDbEntity
  8
0
  6
Continuous
 62
     7
370
    15
100
AcDbEllipse
 10
418.7126127518
 20
571.7719751196
 30
0.0
 11
7.256517966689843
 21
-7.18986204654118
 31
0.0
210
0.0
220
0.0
230
1.0
 40
0.9569893102
 41
5.105644794862205
 42
5.836763389366546
  0
ELLIPSE
  5
110
330
1F
100
AcDbEntity
  8
0
  6
Continuous
 62
     7
370
    15
100
AcDbEllipse
 10
632.253591493
 20
559.6549725445
 30
0.0
 11
-7.256517966689787
 21
7.323791841906542
 31
0.0
210
0.0
220
0.0
230
1.0
 40
0.9394888971
 41
1.931477838583683
 42
2.727745038465454
  0
ELLIPSE
  5
111
330
1F
100
AcDbEntity
  8
0
  6
Continuous
 62
     7
370
    15
100
AcDbEllipse
 10
418.7126127518
 20
559.6549725445
 30
0.0
 11
7.256517966689842
 21
7.323791841906542
 31
0.0
210
0.0
220
0.0
230
1.0
 40
0.9394888971
 41
3.555440268714151
 42
4.35170746859592
  0
LINE
  5
112
330
1F
100
AcDbEntity
  8
0
  6
Continuous
 62
     7
370
    15
100
AcDbLine
 10
787.1773796656
 20
1843.0619201204
 30
0.0
 11
787.7431929626
 21
1843.7353060314
 31
0.0
  0
LINE
  5
113
330
1F
100
AcDbEntity
  8
0
  6
Continuous
 62
     7
370
    15
100
AcDbLine
 10
772.4309899244
 20
1856.6014024913
 30
0.0
 11
771.8651766274
 21
1855.9280165803
 31
0.0
  0
LINE
  5
114
330
1F
100
AcDbEntity
  8
0
  6
Continuous
 62
     7
370
    15
100
AcDbLine
 10
279.1010276174
 20
1855.9280165803
 30
0.0
 11
278.5352143204
 21
1856.6014024913
 31
0.0
  0
LINE
  5
115
330
1F
100
AcDbEntity
  8
0
  6
Continuous
 62
     7
370
    15
100
AcDbLine
 10
263.2230112821
 20
1843.7353060314
 30
0.0
 11
263.7888245792
 21
1843.0619201204
 31
0.0
  0
LINE
  5
116
330
1F
100
AcDbEntity
  8
0
  6
Continuous
 62
     7
370
    15
100
AcDbLine
 10
261.3931349817
 20
1326.743131093
 30
0.0
 11
260.8645475217
 21
1326.300201403
 31
0.0
  0
LINE
  5
117
330
1F
100
AcDbEntity
  8
0
  6
Continuous
 62
     7
370
    15
100
AcDbLine
 10
273.7099520507
 20
1310.9706357703
 30
0.0
 11
274.2385395107
 21
1311.4135654603
 31
0.0
  0
LINE
  5
118
330
1F
100
AcDbEntity
  8
0
  6
Continuous
 62
     7
370
    15
100
AcDbLine
 10
776.7276648029
 20
1311.4135654026
 30
0.0
 11
777.2562522629
 21
1310.9706357126
 31
0.0
  0
LINE
  5
119
330
1F
100
AcDbEntity
  8
0
  6
Continuous
 62
     7
370
    15
100
AcDbLine
 10
790.1016567919
 20
1326.3002013453
 30
0.0
 11
789.5730693319
 21
1326.7431310353
 31
0.0
  0
SPLINE
  5
11A
330
1F
100
AcDbEntity
  8
0
  6
Continuous
 62
     7
370
    15
100
AcDbSpline
210
0.0
220
0.0
230
1.0
 70
     8
 71
     3
 72
    10
 73
     6
 74
     0
 42
0.000000001
 43
0.00000001
 40
0.0
 40
0.0
 40
0.0
 40
0.0
 40
0.0479905944787558
 40
0.7424708309526084
 40
1.0
 40
1.0
 40
1.0
 40
1.0
 10
705.6535438029036
 20
1752.801195390126
 30
0.0
 10
705.6671689408945
 20
1752.833108234314
 30
0.0
 10
705.8779658196553
 20
1753.326837395198
 30
0.0
 10
706.001348600199
 20
1754.05090368194
 30
0.0
 10
705.9558382433169
 20
1754.728727330195
 30
0.0
 10
705.9435271838643
 20
1754.912086191866
 30
0.0
  0
SPLINE
  5
11B
330
1F
100
AcDbEntity
  8
0
  6
Continuous
 62
     7
370
    15
100
AcDbSpline
210
0.0
220
0.0
230
1.0
 70
     8
 71
     3
 72
     9
 73
     5
 74
     0
 42
0.000000001
 43
0.00000001
 40
0.0
 40
0.0
 40
0.0
 40
0.0
 40
0.4762109469336624
 40
1.0
 40
1.0
 40
1.0
 40
1.0
 10
345.0226770609022
 20
1754.661836207741
 30
0.0
 10
345.0207753699931
 20
1754.37167083018
 30
0.0
 10
345.0167819907537
 20
1753.762349731141
 30
0.0
 10
345.2109548327975
 20
1753.180180579174
 30
0.0
 10
345.3126604418628
 20
1752.87524675034
 30
0.0
  0
SPLINE
  5
11C
330
1F
100
AcDbEntity
  8
0
  6
Continuous
 62
     7
370
    15
100
AcDbSpline
210
0.0
220
0.0
230
1.0
 70
     8
 71
     3
 72
    34
 73
    30
 74
     0
 42
0.000000001
 43
0.00000001
 40
0.0
 40
0.0
 40
0.0
 40
0.0
 40
0.0204340227388268
 40
0.0592714180049369
 40
0.0981147374421782
 40
0.1369617018104675
 40
0.1758145635241416
 40
0.2146757830740451
 40
0.253548129273197
 40
0.2924348033544394
 40
0.3313395962330259
 40
0.3702670934218724
 40
0.4092229478457247
 40
0.4482142491730455
 40
0.4872500301402422
 40
0.5263419662440766
 40
0.5655053437988371
 40
0.604760384326416
 40
0.6441339889913601
 40
0.6836618001210805
 40
0.7233898312596873
 40
0.7633727361998675
 40
0.803658891678467
 40
0.844232804040658
 40
0.8847116766181451
 40
0.9195658047768369
 40
0.9522911635966261
 40
0.9870942273007836
 40
1.0
 40
1.0
 40
1.0
 40
1.0
 10
430.4831021223832
 20
1775.570374237515
 30
0.0
 10
429.5777381269285
 20
1775.568385537153
 30
0.0
 10
426.9516175383839
 20
1775.562617065034
 30
0.0
 10
422.6102067278837
 20
1775.498509615568
 30
0.0
 10
417.4838582751223
 20
1775.354829081332
 30
0.0
 10
412.4053940735552
 20
1775.139516005104
 30
0.0
 10
407.393824819606
 20
1774.854555894746
 30
0.0
 10
402.4675437827668
 20
1774.500606475916
 30
0.0
 10
397.6446239593143
 20
1774.078969328825
 30
0.0
 10
392.9426878874423
 20
1773.591047870303
 30
0.0
 10
388.3788389701569
 20
1773.038472427924
 30
0.0
 10
383.9695746419335
 20
1772.423039809906
 30
0.0
 10
379.7307017731537
 20
1771.74669349486
 30
0.0
 10
375.6772475284441
 20
1771.011480080715
 30
0.0
 10
371.8233658576565
 20
1770.219493362031
 30
0.0
 10
368.1822377407184
 20
1769.372793606789
 30
0.0
 10
364.7659646201684
 20
1768.473290233
 30
0.0
 10
361.5854561866492
 20
1767.52256645916
 30
0.0
 10
358.6503243945834
 20
1766.521611850039
 30
0.0
 10
355.9688080515269
 20
1765.470409572885
 30
0.0
 10
353.547850549438
 20
1764.367305122631
 30
0.0
 10
351.3934695132747
 20
1763.208100555272
 30
0.0
 10
349.5124579984675
 20
1761.985024651318
 30
0.0
 10
347.9168094948276
 20
1760.688069299147
 30
0.0
 10
346.681092396265
 20
1759.362073902219
 30
0.0
 10
345.7900983308654
 20
1758.025317107246
 30
0.0
 10
345.2259181207706
 20
1756.662266584319
 30
0.0
 10
344.959768258049
 20
1755.524867094878
 30
0.0
 10
345.0092828194408
 20
1754.845588617048
 30
0.0
 10
345.0226770609022
 20
1754.661836207741
 30
0.0
  0
SPLINE
  5
11D
330
1F
100
AcDbEntity
  8
0
  6
Continuous
 62
     7
370
    15
100
AcDbSpline
210
0.0
220
0.0
230
1.0
 70
     8
 71
     3
 72
    34
 73
    30
 74
     0
 42
0.000000001
 43
0.00000001
 40
0.0
 40
0.0
 40
0.0
 40
0.0
 40
0.0203682272580245
 40
0.0533407737395088
 40
0.0870252454216737
 40
0.1226013250516451
 40
0.1605369865484163
 40
0.2003348281532548
 40
0.2409597141832171
 40
0.2815685217977125
 40
0.3219049859505954
 40
0.3619677475748145
 40
0.4018043180293152
 40
0.4414646318319826
 40
0.4809897886966367
 40
0.5204113138785659
 40
0.559752899236245
 40
0.5990323293891273
 40
0.6382630539242753
 40
0.6774553627671007
 40
0.7166172390597196
 40
0.7557549736738243
 40
0.7948736096610983
 40
0.8339772669424355
 40
0.8730693829998359
 40
0.9121528947601533
 40
0.9512303794964231
 40
0.9882501271316975
 40
1.0
 40
1.0
 40
1.0
 40
1.0
 10
705.9435271838643
 20
1754.912086191866
 30
0.0
 10
705.9410285860093
 20
1755.201294709831
 30
0.0
 10
705.9344852014943
 20
1755.958680511006
 30
0.0
 10
705.5686803765294
 20
1757.157575028013
 30
0.0
 10
704.9106250040942
 20
1758.478262119054
 30
0.0
 10
703.944804945246
 20
1759.761827120996
 30
0.0
 10
702.6662460681649
 20
1761.025097299616
 30
0.0
 10
701.0539471197137
 20
1762.266073018123
 30
0.0
 10
699.1182469467698
 20
1763.47092374428
 30
0.0
 10
696.8840458200459
 20
1764.626866117935
 30
0.0
 10
694.3756356970023
 20
1765.7285388768
 30
0.0
 10
691.607292772056
 20
1766.77628660987
 30
0.0
 10
688.588784300226
 20
1767.771240380909
 30
0.0
 10
685.3293790102374
 20
1768.713641098011
 30
0.0
 10
681.8390439399595
 20
1769.60285070055
 30
0.0
 10
678.1288129049937
 20
1770.437603954657
 30
0.0
 10
674.2108441383086
 20
1771.216249657279
 30
0.0
 10
670.098365515793
 20
1771.936933706522
 30
0.0
 10
665.8055851300377
 20
1772.597729594971
 30
0.0
 10
661.3475938785533
 20
1773.19673047347
 30
0.0
 10
656.7402692090493
 20
1773.732113823199
 30
0.0
 10
652.0001819471673
 20
1774.202190198698
 30
0.0
 10
647.1445076223473
 20
1774.605430384027
 30
0.0
 10
642.190936557762
 20
1774.940516912294
 30
0.0
 10
637.1576010423488
 20
1775.206264955635
 30
0.0
 10
632.0629479827195
 20
1775.402001532048
 30
0.0
 10
627.0158276956413
 20
1775.524036667926
 30
0.0
 10
623.1486236350006
 20
1775.566925655278
 30
0.0
 10
621.0006137067669
 20
1775.56970469452
 30
0.0
 10
620.4831021223832
 20
1775.570374237515
 30
0.0
  0
LINE
  5
11E
330
1F
100
AcDbEntity
  8
0
  6
Continuous
 62
     7
370
    15
100
AcDbLine
 10
620.4831021224
 20
1775.5703742375
 30
0.0
 11
430.4831021224
 21
1775.5703742375
 31
0.0
  0
SPLINE
  5
11F
330
1F
100
AcDbEntity
  8
0
  6
Continuous
 62
     7
370
    15
100
AcDbSpline
210
0.0
220
0.0
230
1.0
 70
     8
 71
     3
 72
    25
 73
    21
 74
     0
 42
0.000000001
 43
0.00000001
 40
0.0
 40
0.0
 40
0.0
 40
0.0
 40
0.0307077216059585
 40
0.0868212771832839
 40
0.1445518592499462
 40
0.2058790868265716
 40
0.2734509685831082
 40
0.3411284828182278
 40
0.4047087840108017
 40
0.4652998583231263
 40
0.5243042000415788
 40
0.5825381278096698
 40
0.6404412575438346
 40
0.6982308235570904
 40
0.7560037443472029
 40
0.8137978882541743
 40
0.8716246304013046
 40
0.9294846019184744
 40
0.9873747574064319
 40
1.0
 40
1.0
 40
1.0
 40
1.0
 10
620.4831021223831
 20
1698.29210907236
 30
0.0
 10
621.38400102222
 20
1698.296683915063
 30
0.0
 10
623.9311516737899
 20
1698.309618566859
 30
0.0
 10
628.1651288398497
 20
1698.451928318389
 30
0.0
 10
633.2637335372419
 20
1698.778562806766
 30
0.0
 10
638.6459894440501
 20
1699.314063445964
 30
0.0
 10
644.2529799703584
 20
1700.097771327305
 30
0.0
 10
649.8632887370582
 20
1701.141220816831
 30
0.0
 10
655.224620030396
 20
1702.402170337441
 30
0.0
 10
660.2934045517859
 20
1703.851997150806
 30
0.0
 10
665.156760401261
 20
1705.500944098005
 30
0.0
 10
669.8760907988486
 20
1707.365114319547
 30
0.0
 10
674.4764243477266
 20
1709.455727645108
 30
0.0
 10
678.961496664019
 20
1711.778749435672
 30
0.0
 10
683.3244980127399
 20
1714.334959953627
 30
0.0
 10
687.5516813663207
 20
1717.123472565167
 30
0.0
 10
691.6346763423593
 20
1720.133653479136
 30
0.0
 10
695.5382030685697
 20
1723.379687567127
 30
0.0
 10
698.3390391311657
 20
1725.889232061339
 30
0.0
 10
699.7729528857599
 20
1727.37439597205
 30
0.0
 10
700.0296841742803
 20
1727.640303208967
 30
0.0
  0
SPLINE
  5
120
330
1F
100
AcDbEntity
  8
0
  6
Continuous
 62
     7
370
    15
100
AcDbSpline
210
0.0
220
0.0
230
1.0
 70
     8
 71
     3
 72
    26
 73
    22
 74
     0
 42
0.000000001
 43
0.00000001
 40
0.0
 40
0.0
 40
0.0
 40
0.0
 40
0.0027870666906848
 40
0.0589479819038363
 40
0.1147435845261414
 40
0.1701799195110358
 40
0.2252701996081121
 40
0.2800398985094329
 40
0.3345357522900339
 40
0.3888418404371078
 40
0.4431077933552001
 40
0.4975957055996139
 40
0.5527508673230701
 40
0.6092894440202219
 40
0.6682438889917859
 40
0.730687256510457
 40
0.7962294939883692
 40
0.8598189215130659
 40
0.9195000794629145
 40
0.9763605823658469
 40
1.0
 40
1.0
 40
1.0
 40
1.0
 10
350.9249460606181
 20
1727.627226146181
 30
0.0
 10
350.9813002531783
 20
1727.56822199278
 30
0.0
 10
352.1732221882914
 20
1726.320251939345
 30
0.0
 10
354.6641247255693
 20
1724.062127688439
 30
0.0
 10
358.3880657983607
 20
1720.883489695444
 30
0.0
 10
362.2641646949563
 20
1717.944503290767
 30
0.0
 10
366.2517616935261
 20
1715.221083908201
 30
0.0
 10
370.3447635146684
 20
1712.720727275781
 30
0.0
 10
374.5299502544395
 20
1710.440208416937
 30
0.0
 10
378.7998865036084
 20
1708.376370700002
 30
0.0
 10
383.1527367788586
 20
1706.522709149449
 30
0.0
 10
387.5977014321323
 20
1704.869772888086
 30
0.0
 10
392.1615830620869
 20
1703.405054228206
 30
0.0
 10
396.8962687623728
 20
1702.11457711244
 30
0.0
 10
401.8772482591183
 20
1700.98804844577
 30
0.0
 10
407.157484387726
 20
1700.031040988561
 30
0.0
 10
412.6246509406719
 20
1699.277861338608
 30
0.0
 10
418.0729332883935
 20
1698.746604767987
 30
0.0
 10
423.3198333580694
 20
1698.426297311422
 30
0.0
 10
427.4279572696145
 20
1698.304262024503
 30
0.0
 10
429.7895904641025
 20
1698.29486776774
 30
0.0
 10
430.4831021223837
 20
1698.29210907236
 30
0.0
  0
SPLINE
  5
121
330
1F
100
AcDbEntity
  8
0
  6
Continuous
 62
     7
370
    15
100
AcDbSpline
210
0.0
220
0.0
230
1.0
 70
     8
 71
     3
 72
    15
 73
    11
 74
     0
 42
0.000000001
 43
0.00000001
 40
0.0
 40
0.0
 40
0.0
 40
0.0
 40
0.1023858172977283
 40
0.2458125165637186
 40
0.3882766946455014
 40
0.5315262456911383
 40
0.6775783770365822
 40
0.8289194007421954
 40
0.9887479933922678
 40
0.9999999999999999
 40
0.9999999999999999
 40
0.9999999999999999
 40
0.9999999999999999
 10
345.016495117186
 20
1741.146194164435
 30
0.0
 10
345.0185091148103
 20
1740.588942794124
 30
0.0
 10
345.0233444117044
 20
1739.251068415523
 30
0.0
 10
345.3914578105513
 20
1737.175388833779
 30
0.0
 10
346.0366812984108
 20
1734.984404830554
 30
0.0
 10
346.9404307199686
 20
1732.93207700519
 30
0.0
 10
348.0578916523993
 20
1731.017324097769
 30
0.0
 10
349.3866237125281
 20
1729.258903440967
 30
0.0
 10
350.3821749565568
 20
1728.110282266103
 30
0.0
 10
350.9528459217476
 20
1727.597482452698
 30
0.0
 10
350.9903790698603
 20
1727.563755502279
 30
0.0
  0
SPLINE
  5
122
330
1F
100
AcDbEntity
  8
0
  6
Continuous
 62
     7
370
    15
100
AcDbSpline
210
0.0
220
0.0
230
1.0
 70
     8
 71
     3
 72
    15
 73
    11
 74
     0
 42
0.000000001
 43
0.00000001
 40
0.0
 40
0.0
 40
0.0
 40
0.0
 40
0.0508391758556325
 40
0.2134610233031804
 40
0.3660100448462001
 40
0.5118229855346821
 40
0.6532734875763441
 40
0.8074156065336511
 40
0.9567397581289482
 40
1.0
 40
1.0
 40
1.0
 40
1.0
 10
699.9684433309341
 20
1727.581465329299
 30
0.0
 10
700.1368539592486
 20
1727.736672585527
 30
0.0
 10
700.8439681964509
 20
1728.388349155431
 30
0.0
 10
701.9587632446091
 20
1729.720143908911
 30
0.0
 10
703.2557704220717
 20
1731.558390098481
 30
0.0
 10
704.3163012421182
 20
1733.525842227664
 30
0.0
 10
705.1736094728024
 20
1735.674004078497
 30
0.0
 10
705.7402340974853
 20
1737.988012678759
 30
0.0
 10
706.0019958278717
 20
1739.864571945156
 30
0.0
 10
705.9592999130481
 20
1740.91043430691
 30
0.0
 10
705.9497091275803
 20
1741.145366421185
 30
0.0
  0
LINE
  5
123
330
1F
100
AcDbEntity
  8
0
  6
Continuous
 62
     7
370
    15
100
AcDbLine
 10
344.9831021224
 20
1750.8894809407
 30
0.0
 11
344.9831021224
 21
1741.1457802928
 31
0.0
  0
LINE
  5
124
330
1F
100
AcDbEntity
  8
0
  6
Continuous
 62
     7
370
    15
100
AcDbLine
 10
705.9831021224
 20
1741.1457802928
 30
0.0
 11
705.9831021224
 21
1750.8894809407
 31
0.0
  0
SPLINE
  5
125
330
1F
100
AcDbEntity
  8
0
  6
Continuous
 62
     7
370
    15
100
AcDbSpline
210
0.0
220
0.0
230
1.0
 70
     8
 71
     3
 72
    34
 73
    30
 74
     0
 42
0.000000001
 43
0.00000001
 40
0.0
 40
0.0
 40
0.0
 40
0.0
 40
0.0205159947578751
 40
0.0595091880156601
 40
0.0985083292096604
 40
0.1375111299565172
 40
0.1765198517062297
 40
0.2155369648200154
 40
0.2545652492181113
 40
0.2936079189752581
 40
0.3326687802141283
 40
0.3717524368426435
 40
0.4108645644625131
 40
0.4500122811827296
 40
0.489204655974936
 40
0.5284534111726845
 40
0.5677738944120116
 40
0.6071864083343819
 40
0.646717962019588
 40
0.6864043407758704
 40
0.726291742732792
 40
0.7664350409292233
 40
0.8068828061675112
 40
0.8476194826393187
 40
0.8882607380699689
 40
0.9232546851617103
 40
0.9561113232587464
 40
0.9910540010485592
 40
1.0
 40
1.0
 40
1.0
 40
1.0
 10
430.4831021223832
 20
1771.672893978374
 30
0.0
 10
429.5777381269285
 20
1771.670905278012
 30
0.0
 10
426.951617538384
 20
1771.665136805892
 30
0.0
 10
422.6102067278838
 20
1771.601029356427
 30
0.0
 10
417.4838582751223
 20
1771.457348822191
 30
0.0
 10
412.4053940735552
 20
1771.242035745963
 30
0.0
 10
407.3938248196059
 20
1770.957075635605
 30
0.0
 10
402.4675437827667
 20
1770.603126216775
 30
0.0
 10
397.6446239593145
 20
1770.181489069684
 30
0.0
 10
392.9426878874416
 20
1769.693567611162
 30
0.0
 10
388.3788389701593
 20
1769.140992168783
 30
0.0
 10
383.9695746419242
 20
1768.525559550764
 30
0.0
 10
379.7307017731889
 20
1767.849213235719
 30
0.0
 10
375.6772475283128
 20
1767.113999821577
 30
0.0
 10
371.8233658581477
 20
1766.322013102879
 30
0.0
 10
368.1822377388812
 20
1765.475313347689
 30
0.0
 10
364.7659646270468
 20
1764.575809973705
 30
0.0
 10
361.5854561608822
 20
1763.625086200596
 30
0.0
 10
358.6503244912242
 20
1762.624131588736
 30
0.0
 10
355.9688076885496
 20
1761.572929321866
 30
0.0
 10
353.547851915236
 20
1760.469824832932
 30
0.0
 10
351.3934643640844
 20
1759.310620411341
 30
0.0
 10
349.512477431975
 20
1758.087543957366
 30
0.0
 10
347.9167364831278
 20
1756.790590673592
 30
0.0
 10
346.6813481454961
 20
1755.464587920867
 30
0.0
 10
345.7893107405553
 20
1754.12785446989
 30
0.0
 10
345.2287447841849
 20
1752.764723080554
 30
0.0
 10
344.9652436464177
 20
1751.684059732916
 30
0.0
 10
345.0065211902717
 20
1751.061760957795
 30
0.0
 10
345.0149349518944
 20
1750.934915388434
 30
0.0
  0
LINE
  5
126
330
1F
100
AcDbEntity
  8
0
  6
Continuous
 62
     7
370
    15
100
AcDbLine
 10
620.4831021224
 20
1771.6728939784
 30
0.0
 11
430.4831021224
 21
1771.6728939784
 31
0.0
  0
SPLINE
  5
127
330
1F
100
AcDbEntity
  8
0
  6
Continuous
 62
     7
370
    15
100
AcDbSpline
210
0.0
220
0.0
230
1.0
 70
     8
 71
     3
 72
    34
 73
    30
 74
     0
 42
0.000000001
 43
0.00000001
 40
0.0
 40
0.0
 40
0.0
 40
0.0
 40
0.0242898504062794
 40
0.0571304024944307
 40
0.0906800298324623
 40
0.1261136927082182
 40
0.1638974916660142
 40
0.2035360161261515
 40
0.2439982742199036
 40
0.284444518262659
 40
0.3246195090783752
 40
0.364521893040559
 40
0.4041989913125639
 40
0.4437005385163947
 40
0.4830674698371122
 40
0.5223311843293595
 40
0.5615152790092924
 40
0.6006374673016899
 40
0.6397111449527552
 40
0.678746560695672
 40
0.7177516657147641
 40
0.7567327256983514
 40
0.7956947635099838
 40
0.8346418825778398
 40
0.8735775066231262
 40
0.9125045608157122
 40
0.9514256121113968
 40
0.9882971637578228
 40
1.0
 40
1.0
 40
1.0
 40
1.0
 10
705.951269292872
 20
1750.84404649289
 30
0.0
 10
705.9496269805273
 20
1751.190464092025
 30
0.0
 10
705.9457642162985
 20
1752.005247902494
 30
0.0
 10
705.5704079123368
 20
1753.260273672494
 30
0.0
 10
704.9101297574217
 20
1754.580730572163
 30
0.0
 10
703.9449505039897
 20
1755.86436193592
 30
0.0
 10
702.6662038516076
 20
1757.127612668528
 30
0.0
 10
701.0539589269767
 20
1758.368593981742
 30
0.0
 10
699.1182437561979
 20
1759.573443154723
 30
0.0
 10
696.8840466686402
 20
1760.729385946675
 30
0.0
 10
694.3756354719367
 20
1761.831058594351
 30
0.0
 10
691.60729283182
 20
1762.878806356918
 30
0.0
 10
688.5887842843273
 20
1763.873760120121
 30
0.0
 10
685.3293790144734
 20
1764.816160839308
 30
0.0
 10
681.8390439388287
 20
1765.705370441292
 30
0.0
 10
678.1288129052949
 20
1766.540123695547
 30
0.0
 10
674.2108441382273
 20
1767.31876939813
 30
0.0
 10
670.098365515814
 20
1768.039453447384
 30
0.0
 10
665.8055851300311
 20
1768.70024933583
 30
0.0
 10
661.3475938785539
 20
1769.29925021433
 30
0.0
 10
656.7402692090483
 20
1769.834633564058
 30
0.0
 10
652.000181947167
 20
1770.304709939557
 30
0.0
 10
647.1445076223466
 20
1770.707950124886
 30
0.0
 10
642.1909365577613
 20
1771.043036653153
 30
0.0
 10
637.157601042348
 20
1771.308784696494
 30
0.0
 10
632.0629479827188
 20
1771.504521272907
 30
0.0
 10
627.0158276956406
 20
1771.626556408785
 30
0.0
 10
623.1486236350001
 20
1771.669445396136
 30
0.0
 10
621.0006137067667
 20
1771.672224435379
 30
0.0
 10
620.4831021223832
 20
1771.672893978374
 30
0.0
  0
LINE
  5
128
330
1F
100
AcDbEntity
  8
0
  6
Continuous
 62
     7
370
    15
100
AcDbLine
 10
430.4831021224
 20
1698.2921090724
 30
0.0
 11
525.4831521224
 21
1698.2921090724
 31
0.0
  0
LINE
  5
129
330
1F
100
AcDbEntity
  8
0
  6
Continuous
 62
     7
370
    15
100
AcDbLine
 10
525.4830521224
 20
1698.2921090724
 30
0.0
 11
620.4831021224
 21
1698.2921090724
 31
0.0
  0
SPLINE
  5
12A
330
1F
100
AcDbEntity
  8
0
  6
Continuous
 62
     7
370
    15
100
AcDbSpline
210
0.0
220
0.0
230
1.0
 70
     8
 71
     3
 72
    20
 73
    16
 74
     0
 42
0.000000001
 43
0.00000001
 40
0.0
 40
0.0
 40
0.0
 40
0.0
 40
0.0385015890928902
 40
0.1231719917684343
 40
0.2078420604583798
 40
0.2925117800505072
 40
0.3771811376115103
 40
0.4618501224728104
 40
0.5465187263024581
 40
0.6311869431627539
 40
0.7158547695530877
 40
0.8005222044375427
 40
0.8851892492569537
 40
0.9698559079252488
 40
0.9999999999999999
 40
0.9999999999999999
 40
0.9999999999999999
 40
0.9999999999999999
 10
376.0946693512163
 20
1709.726244726724
 30
0.0
 10
375.0448759083399
 20
1709.135670221995
 30
0.0
 10
371.6864392216731
 20
1707.246339424256
 30
0.0
 10
366.1895945453628
 20
1703.767963026228
 30
0.0
 10
359.6111081909803
 20
1699.310701490654
 30
0.0
 10
353.2245494448439
 20
1694.580631853401
 30
0.0
 10
347.0287236700487
 20
1689.604951961371
 30
0.0
 10
341.0364106984004
 20
1684.386255526487
 30
0.0
 10
335.2563803127003
 20
1678.934127523097
 30
0.0
 10
329.697544759996
 20
1673.257083650559
 30
0.0
 10
324.3702434501089
 20
1667.36313905375
 30
0.0
 10
319.2768652913985
 20
1661.265512164796
 30
0.0
 10
314.447991290332
 20
1654.95915569781
 30
0.0
 10
310.8033053249968
 20
1649.893427923038
 30
0.0
 10
308.8616602829398
 20
1646.874118915933
 30
0.0
 10
308.3518724229576
 20
1646.081385412117
 30
0.0
  0
SPLINE
  5
12B
330
1F
100
AcDbEntity
  8
0
  6
Continuous
 62
     7
370
    15
100
AcDbSpline
210
0.0
220
0.0
230
1.0
 70
     8
 71
     3
 72
    21
 73
    17
 74
     0
 42
0.000000001
 43
0.00000001
 40
0.0
 40
0.0
 40
0.0
 40
0.0
 40
0.0173616463157647
 40
0.0965320618146083
 40
0.1757027951419837
 40
0.2548738598097567
 40
0.3340452672139202
 40
0.4132170265664926
 40
0.4923891448417792
 40
0.5715616267370616
 40
0.650734474647992
 40
0.7299076886586647
 40
0.8090812665461681
 40
0.8882552037997358
 40
0.9674294936539525
 40
0.9999999999999999
 40
0.9999999999999999
 40
0.9999999999999999
 40
0.9999999999999999
 10
746.1193590931996
 20
1640.574898352357
 30
0.0
 10
745.8235264895253
 20
1641.074335612591
 30
0.0
 10
744.1786749204244
 20
1643.851244414938
 30
0.0
 10
740.9198217374495
 20
1648.743781949709
 30
0.0
 10
736.3388369631707
 20
1655.231469536579
 30
0.0
 10
731.480866814267
 20
1661.517763304216
 30
0.0
 10
726.3826515804403
 20
1667.610208909608
 30
0.0
 10
721.0444487860168
 20
1673.494494004842
 30
0.0
 10
715.4767920261755
 20
1679.162608248884
 30
0.0
 10
709.6878518051376
 20
1684.605153015423
 30
0.0
 10
703.6871533402744
 20
1689.814030473438
 30
0.0
 10
697.4832613984674
 20
1694.779462451731
 30
0.0
 10
691.0892366665771
 20
1699.499307453524
 30
0.0
 10
684.5030356414504
 20
1703.944851540066
 30
0.0
 10
679.0994115448995
 20
1707.355779928503
 30
0.0
 10
675.8387645629389
 20
1709.184611964179
 30
0.0
 10
674.8883764748186
 20
1709.717665738934
 30
0.0
  0
LINE
  5
12C
330
1F
100
AcDbEntity
  8
0
  6
Continuous
 62
     7
370
    15
100
AcDbLine
 10
275.4831021224
 20
1536.4381701467
 30
0.0
 11
275.4831021224
 21
1535.9148105843
 31
0.0
  0
LINE
  5
12D
330
1F
100
AcDbEntity
  8
0
  6
Continuous
 62
     7
370
    15
100
AcDbLine
 10
775.4831021224
 20
1535.9148105843
 30
0.0
 11
775.4831021224
 21
1536.4381701467
 31
0.0
  0
LINE
  5
12E
330
1F
100
AcDbEntity
  8
0
  6
Continuous
 62
     7
370
    15
100
AcDbLine
 10
475.4831021224
 20
1336.1861627029
 30
0.0
 11
575.4831021224
 21
1336.1861627029
 31
0.0
  0
LINE
  5
12F
330
1F
100
AcDbEntity
  8
0
  6
Continuous
 62
     7
370
    15
100
AcDbLine
 10
697.5856401317
 20
1377.7305991989
 30
0.0
 11
728.0807987083
 21
1352.1771910021
 31
0.0
  0
LINE
  5
130
330
1F
100
AcDbEntity
  8
0
  6
Continuous
 62
     7
370
    15
100
AcDbLine
 10
740.9262032322
 20
1367.506756639
 30
0.0
 11
713.0081600404
 21
1390.9006718385
 31
0.0
  0
LINE
  5
131
330
1F
100
AcDbEntity
  8
0
  6
Continuous
 62
     7
370
    15
100
AcDbLine
 10
675.0551741073
 20
1709.6230032003
 30
0.0
 11
675.3246654415
 21
1709.9437303174
 31
0.0
  0
LINE
  5
132
330
1F
100
AcDbEntity
  8
0
  6
Continuous
 62
     7
370
    15
100
AcDbLine
 10
705.9831021224
 20
1746.4309592725
 30
0.0
 11
713.1021075231
 21
1754.90343237
 31
0.0
  0
LINE
  5
133
330
1F
100
AcDbEntity
  8
0
  6
Continuous
 62
     7
370
    15
100
AcDbLine
 10
697.7899044849
 20
1767.76952883
 30
0.0
 11
695.5993472576
 21
1765.1625021272
 31
0.0
  0
LINE
  5
134
330
1F
100
AcDbEntity
  8
0
  6
Continuous
 62
     7
370
    15
100
AcDbLine
 10
721.8606736853
 20
1796.4166407516
 30
0.0
 11
697.7899044849
 21
1767.76952883
 31
0.0
  0
LINE
  5
135
330
1F
100
AcDbEntity
  8
0
  6
Continuous
 62
     7
370
    15
100
AcDbLine
 10
713.1021075231
 20
1754.90343237
 30
0.0
 11
737.1728767235
 21
1783.5505442917
 31
0.0
  0
LINE
  5
136
330
1F
100
AcDbEntity
  8
0
  6
Continuous
 62
     7
370
    15
100
AcDbLine
 10
789.5730692949
 20
1326.7431310663
 30
0.0
 11
740.9262032322
 21
1367.506756639
 31
0.0
  0
LINE
  5
137
330
1F
100
AcDbEntity
  8
0
  6
Continuous
 62
     7
370
    15
100
AcDbLine
 10
728.0807987083
 20
1352.1771910021
 30
0.0
 11
776.727664771
 21
1311.4135654293
 31
0.0
  0
LINE
  5
138
330
1F
100
AcDbEntity
  8
0
  6
Continuous
 62
     7
370
    15
100
AcDbLine
 10
771.8651766274
 20
1855.9280165803
 30
0.0
 11
721.8606736853
 21
1796.4166407516
 31
0.0
  0
LINE
  5
139
330
1F
100
AcDbEntity
  8
0
  6
Continuous
 62
     7
370
    15
100
AcDbLine
 10
737.1728767235
 20
1783.5505442917
 30
0.0
 11
787.1773796656
 21
1843.0619201204
 31
0.0
  0
LINE
  5
13A
330
1F
100
AcDbEntity
  8
0
  6
Continuous
 62
     7
370
    15
100
AcDbLine
 10
322.8854055365
 20
1352.1771910021
 30
0.0
 11
353.3805641131
 21
1377.7305991989
 31
0.0
  0
LINE
  5
13B
330
1F
100
AcDbEntity
  8
0
  6
Continuous
 62
     7
370
    15
100
AcDbLine
 10
337.9580442043
 20
1390.9006718385
 30
0.0
 11
310.0400010126
 21
1367.506756639
 31
0.0
  0
LINE
  5
13C
330
1F
100
AcDbEntity
  8
0
  6
Continuous
 62
     7
370
    15
100
AcDbLine
 10
355.3639348648
 20
1765.1659798045
 30
0.0
 11
353.1762997598
 21
1767.76952883
 31
0.0
  0
LINE
  5
13D
330
1F
100
AcDbEntity
  8
0
  6
Continuous
 62
     7
370
    15
100
AcDbLine
 10
337.8640967216
 20
1754.90343237
 30
0.0
 11
344.9831021224
 21
1746.4309592725
 31
0.0
  0
LINE
  5
13E
330
1F
100
AcDbEntity
  8
0
  6
Continuous
 62
     7
370
    15
100
AcDbLine
 10
375.6392201363
 20
1709.9464898101
 30
0.0
 11
375.9118112442
 21
1709.6220735893
 31
0.0
  0
LINE
  5
13F
330
1F
100
AcDbEntity
  8
0
  6
Continuous
 62
     7
370
    15
100
AcDbLine
 10
353.1762997598
 20
1767.76952883
 30
0.0
 11
329.1055305595
 21
1796.4166407516
 31
0.0
  0
LINE
  5
140
330
1F
100
AcDbEntity
  8
0
  6
Continuous
 62
     7
370
    15
100
AcDbLine
 10
313.7933275213
 20
1783.5505442917
 30
0.0
 11
337.8640967216
 21
1754.90343237
 31
0.0
  0
LINE
  5
141
330
1F
100
AcDbEntity
  8
0
  6
Continuous
 62
     7
370
    15
100
AcDbLine
 10
274.2385394738
 20
1311.4135654293
 30
0.0
 11
322.8854055365
 21
1352.1771910021
 31
0.0
  0
LINE
  5
142
330
1F
100
AcDbEntity
  8
0
  6
Continuous
 62
     7
370
    15
100
AcDbLine
 10
310.0400010126
 20
1367.506756639
 30
0.0
 11
261.3931349498
 21
1326.7431310663
 31
0.0
  0
LINE
  5
143
330
1F
100
AcDbEntity
  8
0
  6
Continuous
 62
     7
370
    15
100
AcDbLine
 10
263.7888245792
 20
1843.0619201204
 30
0.0
 11
313.7933275213
 21
1783.5505442917
 31
0.0
  0
LINE
  5
144
330
1F
100
AcDbEntity
  8
0
  6
Continuous
 62
     7
370
    15
100
AcDbLine
 10
329.1055305595
 20
1796.4166407516
 30
0.0
 11
279.1010276174
 21
1855.9280165803
 31
0.0
  0
LINE
  5
145
330
1F
100
AcDbEntity
  8
0
  6
Continuous
 62
     7
370
    15
100
AcDbLine
 10
524.4576210125
 20
1789.5012944508
 30
0.0
 11
473.3395948625
 21
1789.5012944508
 31
0.0
  0
LINE
  5
146
330
1F
100
AcDbEntity
  8
0
  6
Continuous
 62
     7
370
    15
100
AcDbLine
 10
577.6266093822
 20
1789.5012944508
 30
0.0
 11
526.5420153275
 21
1789.5012944508
 31
0.0
  0
SPLINE
  5
147
330
1F
100
AcDbEntity
  8
0
  6
Continuous
 62
     7
370
    15
100
AcDbSpline
210
0.0
220
0.0
230
1.0
 70
     8
 71
     3
 72
    26
 73
    22
 74
     0
 42
0.000000001
 43
0.00000001
 40
0.0
 40
0.0
 40
0.0
 40
0.0
 40
0.0270208941791562
 40
0.0632014157362383
 40
0.1009262406657515
 40
0.1414070139862248
 40
0.1863530744606945
 40
0.2380934950170258
 40
0.2989534773397519
 40
0.3674207483962363
 40
0.4347643142015957
 40
0.49870384009709
 40
0.5602151657268027
 40
0.6201486778338084
 40
0.6790346465079077
 40
0.7372057428406719
 40
0.794881156316981
 40
0.8522133497339305
 40
0.909314509215463
 40
0.9662723637057635
 40
1.0
 40
1.0
 40
1.0
 40
1.0
 10
626.5145568583775
 20
1775.519117344249
 30
0.0
 10
626.3210401697285
 20
1775.934092763414
 30
0.0
 10
625.8684078989338
 20
1776.904713269644
 30
0.0
 10
624.9245262394805
 20
1778.240299394993
 30
0.0
 10
623.75516964596
 20
1779.567082582836
 30
0.0
 10
622.3994618900383
 20
1780.773581338244
 30
0.0
 10
620.8229673608649
 20
1781.904987507113
 30
0.0
 10
618.9349044773128
 20
1782.996593588588
 30
0.0
 10
616.6448029604703
 20
1784.059228268918
 30
0.0
 10
613.9668317026985
 20
1785.051089219033
 30
0.0
 10
611.0094122646844
 20
1785.932649284008
 30
0.0
 10
607.9203729304744
 20
1786.685535905094
 30
0.0
 10
604.7361342261174
 20
1787.326465035287
 30
0.0
 10
601.4473935852808
 20
1787.873574695271
 30
0.0
 10
598.0513836834666
 20
1788.336855300402
 30
0.0
 10
594.5542824686459
 20
1788.721290343599
 30
0.0
 10
590.9683940938837
 20
1789.029103198409
 30
0.0
 10
587.3099895814281
 20
1789.261660432127
 30
0.0
 10
583.5981723266005
 20
1789.417915514417
 30
0.0
 10
580.3605243890097
 20
1789.491602269057
 30
0.0
 10
578.3677569859591
 20
1789.498666959711
 30
0.0
 10
577.6266093822173
 20
1789.501294450778
 30
0.0
  0
SPLINE
  5
148
330
1F
100
AcDbEntity
  8
0
  6
Continuous
 62
     7
370
    15
100
AcDbSpline
210
0.0
220
0.0
230
1.0
 70
     8
 71
     3
 72
    26
 73
    22
 74
     0
 42
0.000000001
 43
0.00000001
 40
0.0
 40
0.0
 40
0.0
 40
0.0
 40
0.029940256403798
 40
0.0868114881474858
 40
0.1437436869095548
 40
0.2007918870062131
 40
0.2580332655513455
 40
0.3155614522678926
 40
0.373497168381645
 40
0.4320046102116363
 40
0.4913182836088026
 40
0.5517890545485524
 40
0.6139649702994499
 40
0.6787237649309488
 40
0.7473672938178386
 40
0.8064182343328078
 40
0.8554892885019143
 40
0.8986218542613195
 40
0.9380868693307907
 40
0.9753015435750212
 40
1.0
 40
1.0
 40
1.0
 40
1.0
 10
473.3395948625491
 20
1789.501294450778
 30
0.0
 10
472.6816492729317
 20
1789.499207804708
 30
0.0
 10
470.7739423052815
 20
1789.493157594311
 30
0.0
 10
467.6230462868154
 20
1789.425907174894
 30
0.0
 10
463.9189473635303
 20
1789.275223314721
 30
0.0
 10
460.2733417041764
 20
1789.04924218757
 30
0.0
 10
456.7071536662704
 20
1788.749570299124
 30
0.0
 10
453.239135789863
 20
1788.375895024281
 30
0.0
 10
449.8856479531092
 20
1787.927705084967
 30
0.0
 10
446.6595561975266
 20
1787.403082135482
 30
0.0
 10
443.5687331989053
 20
1786.797688149439
 30
0.0
 10
440.6136727852252
 20
1786.102518957164
 30
0.0
 10
437.7837487401069
 20
1785.299570447092
 30
0.0
 10
435.0527872991861
 20
1784.353049858384
 30
0.0
 10
432.5703533347801
 20
1783.276261194585
 30
0.0
 10
430.431835100477
 20
1782.095658038644
 30
0.0
 10
428.685387123203
 20
1780.873539906596
 30
0.0
 10
427.2316541365497
 20
1779.593780614603
 30
0.0
 10
426.0084844558244
 20
1778.200634432806
 30
0.0
 10
425.0637250566397
 20
1776.851906565213
 30
0.0
 10
424.6281526930979
 20
1775.895091933676
 30
0.0
 10
424.4543936709878
 20
1775.513398353844
 30
0.0
  0
ARC
  5
149
330
1F
100
AcDbEntity
  8
0
  6
Continuous
 62
     7
370
    15
100
AcDbCircle
 10
784.7361294475
 20
1317.749559149
 30
0.0
 40
15.0
100
AcDbArc
 50
270.0
 51
98.2283714797
  0
ARC
  5
14A
330
1F
100
AcDbEntity
  8
0
  6
Continuous
 62
     7
370
    15
100
AcDbCircle
 10
784.7361294475
 20
1317.749559149
 30
0.0
 40
15.00000000000013
100
AcDbArc
 50
181.8490012712
 51
270.0
  0
ARC
  5
14B
330
1F
100
AcDbEntity
  8
0
  6
Continuous
 62
     7
370
    15
100
AcDbCircle
 10
781.2187180376
 20
1851.5151260833
 30
0.0
 40
15.00000000000006
100
AcDbArc
 50
293.3117780349
 51
188.1509895148
  0
ARC
  5
14C
330
1F
100
AcDbEntity
  8
0
  6
Continuous
 62
     7
370
    15
100
AcDbCircle
 10
781.2187180376
 20
1851.5151260833
 30
0.0
 40
14.99999999999991
100
AcDbArc
 50
271.7716193064
 51
293.3117780349
  0
ARC
  5
14D
330
1F
100
AcDbEntity
  8
0
  6
Continuous
 62
     7
370
    15
100
AcDbCircle
 10
266.2300748661
 20
1317.7495592067
 30
0.0
 40
15.00000000000009
100
AcDbArc
 50
280.8626260897
 51
358.1509987288
  0
ARC
  5
14E
330
1F
100
AcDbEntity
  8
0
  6
Continuous
 62
     7
370
    15
100
AcDbCircle
 10
266.2300748661
 20
1317.7495592067
 30
0.0
 40
15.00000000000009
100
AcDbArc
 50
81.7716285203
 51
280.8626260897
  0
ARC
  5
14F
330
1F
100
AcDbEntity
  8
0
  6
Continuous
 62
     7
370
    15
100
AcDbCircle
 10
269.7474862072
 20
1851.5151260833
 30
0.0
 40
14.99999999999997
100
AcDbArc
 50
351.8490104852
 51
268.2283806936
  0
ARC
  5
150
330
1F
100
AcDbEntity
  8
0
  6
Continuous
 62
     7
370
    15
100
AcDbCircle
 10
779.4064915762
 20
1849.3583585188
 30
0.0
 40
10.00159178345114
100
AcDbArc
 50
320.9835395849
 51
138.9390692363
  0
ARC
  5
151
330
1F
100
AcDbEntity
  8
0
  6
Continuous
 62
     7
370
    15
100
AcDbCircle
 10
779.9723048732
 20
1850.0317444298
 30
0.0
 40
10.00159178345126
100
AcDbArc
 50
320.9835395849
 51
138.9390692363
  0
LINE
  5
152
330
1F
100
AcDbEntity
  8
0
  6
Continuous
 62
     7
370
    15
100
AcDbLine
 10
263.6350105888
 20
1843.2497922143
 30
0.0
 11
263.7888245792
 21
1843.0619201204
 31
0.0
  0
ARC
  5
153
330
1F
100
AcDbEntity
  8
0
  6
Continuous
 62
     7
370
    15
100
AcDbCircle
 10
271.5676437118
 20
1849.3453846813
 30
0.0
 40
10.00414493033208
100
AcDbArc
 50
41.146793138
 51
217.5393892443
  0
LINE
  5
154
330
1F
100
AcDbEntity
  8
0
  6
Continuous
 62
     7
370
    15
100
AcDbLine
 10
263.0691972918
 20
1843.9231781253
 30
0.0
 11
263.2230112821
 21
1843.7353060314
 31
0.0
  0
ARC
  5
155
330
1F
100
AcDbEntity
  8
0
  6
Continuous
 62
     7
370
    15
100
AcDbCircle
 10
271.0018304148
 20
1850.0187705923
 30
0.0
 40
10.00414493033213
100
AcDbArc
 50
41.146793138
 51
217.5393892443
  0
ARC
  5
156
330
1F
100
AcDbEntity
  8
0
  6
Continuous
 62
     7
370
    15
100
AcDbCircle
 10
267.9094510969
 20
1319.1459946469
 30
0.0
 40
9.992388166823497
100
AcDbArc
 50
189.3169153361
 51
309.3007474755
  0
ARC
  5
157
330
1F
100
AcDbEntity
  8
0
  6
Continuous
 62
     7
370
    15
100
AcDbCircle
 10
267.7197867148
 20
1319.2327896916
 30
0.0
 40
9.819966910125299
100
AcDbArc
 50
130.1105194856
 51
189.995823075
  0
ARC
  5
158
330
1F
100
AcDbEntity
  8
0
  6
Continuous
 62
     7
370
    15
100
AcDbCircle
 10
267.3808636368
 20
1318.7030649569
 30
0.0
 40
9.99238816682402
100
AcDbArc
 50
189.3169153361
 51
309.3007474755
  0
ARC
  5
159
330
1F
100
AcDbEntity
  8
0
  6
Continuous
 62
     7
370
    15
100
AcDbCircle
 10
267.1911992547
 20
1318.7898600016
 30
0.0
 40
9.819966910122568
100
AcDbArc
 50
130.1105194856
 51
189.995823075
  0
ARC
  5
15A
330
1F
100
AcDbEntity
  8
0
  6
Continuous
 62
     7
370
    15
100
AcDbCircle
 10
783.0671493598
 20
1319.1480804699
 30
0.0
 40
10.00058937131506
100
AcDbArc
 50
230.6607308874
 51
49.4166418635
  0
ARC
  5
15B
330
1F
100
AcDbEntity
  8
0
  6
Continuous
 62
     7
370
    15
100
AcDbCircle
 10
783.5957368199
 20
1318.7051507799
 30
0.0
 40
10.00058937131506
100
AcDbArc
 50
230.6607308874
 51
49.4166418635
  0
ARC
  5
15C
330
1F
100
AcDbEntity
  8
0
  6
Continuous
 62
     7
370
    15
100
AcDbCircle
 10
474.9858781904
 20
1536.4387355679
 30
0.0
 40
199.5015405448437
100
AcDbArc
 50
146.6599773136
 51
211.4653263067
  0
ARC
  5
15D
330
1F
100
AcDbEntity
  8
0
  6
Continuous
 62
     7
370
    15
100
AcDbCircle
 10
575.9803260544
 20
1536.4376047255
 30
0.0
 40
199.5015405448449
100
AcDbArc
 50
326.6599773136
 51
31.4653263067
  0
ARC
  5
15E
330
1F
100
AcDbEntity
  8
0
  6
Continuous
 62
     7
370
    15
100
AcDbCircle
 10
475.3442382256
 20
1536.0500372426
 30
0.0
 40
199.8611818506408
100
AcDbArc
 50
180.0387664944
 51
270.0398092105
  0
ARC
  5
15F
330
1F
100
AcDbEntity
  8
0
  6
Continuous
 62
     7
370
    15
100
AcDbCircle
 10
575.6219660191
 20
1536.0500372426
 30
0.0
 40
199.8611818506415
100
AcDbArc
 50
269.9601907895
 51
359.9612335056
  0
LINE
  5
160
330
1F
100
AcDbEntity
  8
0
  6
Continuous
 62
     7
370
    15
100
AcDbLine
 10
575.4831021224
 20
1336.1889036334
 30
0.0
 11
575.4831021224
 21
1336.1861627029
 31
0.0
  0
LINE
  5
161
330
1F
100
AcDbEntity
  8
0
  6
Continuous
 62
     7
370
    15
100
AcDbLine
 10
475.4831021224
 20
1336.1861627029
 30
0.0
 11
475.4831021224
 21
1336.1889036334
 31
0.0
  0
ARC
  5
162
330
1F
100
AcDbEntity
  8
0
  6
Continuous
 62
     7
370
    15
100
AcDbCircle
 10
783.0617332127
 20
1319.1526189286
 30
0.0
 40
10.00066858205564
100
AcDbArc
 50
230.7012123395
 51
49.3761604493
  0
ARC
  5
163
330
1F
100
AcDbEntity
  8
0
  6
Continuous
 62
     7
370
    15
100
AcDbCircle
 10
779.4065137223
 20
1849.3583848753
 30
0.0
 40
10.00159116934364
100
AcDbArc
 50
320.9833424037
 51
138.9392664175
  0
ARC
  5
164
330
1F
100
AcDbEntity
  8
0
  6
Continuous
 62
     7
370
    15
100
AcDbCircle
 10
267.9044710321
 20
1319.1526189286
 30
0.0
 40
10.0006685820556
100
AcDbArc
 50
130.6238395507
 51
309.2987876605
  0
ARC
  5
165
330
1F
100
AcDbEntity
  8
0
  6
Continuous
 62
     7
370
    15
100
AcDbCircle
 10
271.5596905224
 20
1849.3583848753
 30
0.0
 40
10.00159116934377
100
AcDbArc
 50
41.0607335825
 51
219.0166575963
  0
SPLINE
  5
166
330
1F
100
AcDbEntity
  8
0
  6
Continuous
 62
     7
370
    15
100
AcDbSpline
210
0.0
220
0.0
230
1.0
 70
     8
 71
     3
 72
    11
 73
     7
 74
     0
 42
0.000000001
 43
0.00000001
 40
0.0
 40
0.0
 40
0.0
 40
0.0
 40
0.3504930628620687
 40
0.506673992992311
 40
0.8876465104668229
 40
1.0
 40
1.0
 40
1.0
 40
1.0
 10
526.5420153275172
 20
1789.500964961523
 30
0.0
 10
526.3051709818997
 20
1789.500144472177
 30
0.0
 10
525.9627879705732
 20
1789.49895836992
 30
0.0
 10
525.3222705063174
 20
1789.497051653634
 30
0.0
 10
524.8339128591213
 20
1789.501880447088
 30
0.0
 10
524.5274231145719
 20
1789.500051944089
 30
0.0
 10
524.457621012479
 20
1789.499635508123
 30
0.0
  0
LINE
  5
167
330
1F
100
AcDbEntity
  8
0
  6
Continuous
 62
     7
370
    15
100
AcDbLine
 10
1252.2240447855
 20
165.0577859473
 30
0.0
 11
1244.6402432726
 21
171.0577859473
 31
0.0
  0
LINE
  5
168
330
1F
100
AcDbEntity
  8
0
  6
Continuous
 62
     7
370
    15
100
AcDbLine
 10
1229.8078462984
 20
171.0577859473
 30
0.0
 11
1222.2240447855
 21
165.0577859473
 31
0.0
  0
LINE
  5
169
330
1F
100
AcDbEntity
  8
0
  6
Continuous
 62
     7
370
    15
100
AcDbLine
 10
1222.2240447855
 20
165.0577859473
 30
0.0
 11
1222.2240447855
 21
159.0577859473
 31
0.0
  0
LINE
  5
16A
330
1F
100
AcDbEntity
  8
0
  6
Continuous
 62
     7
370
    15
100
AcDbLine
 10
1252.2240447855
 20
159.0577859473
 30
0.0
 11
1252.2240447855
 21
165.0577859473
 31
0.0
  0
LINE
  5
16B
330
1F
100
AcDbEntity
  8
0
  6
Continuous
 62
     7
370
    15
100
AcDbLine
 10
1755.9896117198
 20
165.1717854582
 30
0.0
 11
1755.9896117198
 21
159.1717854582
 31
0.0
  0
LINE
  5
16C
330
1F
100
AcDbEntity
  8
0
  6
Continuous
 62
     7
370
    15
100
AcDbLine
 10
1785.9896117198
 20
159.1717854582
 30
0.0
 11
1785.9896117198
 21
165.1717854582
 31
0.0
  0
LINE
  5
16D
330
1F
100
AcDbEntity
  8
0
  6
Continuous
 62
     7
370
    15
100
AcDbLine
 10
1785.9896117198
 20
165.1717854582
 30
0.0
 11
1778.4058102069
 21
171.1717854582
 31
0.0
  0
LINE
  5
16E
330
1F
100
AcDbEntity
  8
0
  6
Continuous
 62
     7
370
    15
100
AcDbLine
 10
1763.5734132327
 20
171.1717854582
 30
0.0
 11
1755.9896117198
 21
165.1717854582
 31
0.0
  0
LINE
  5
16F
330
1F
100
AcDbEntity
  8
0
  6
Continuous
 62
     7
370
    15
100
AcDbLine
 10
1759.1151106891
 20
178.1775299627
 30
0.0
 11
1759.7884966001
 21
174.275427103
 31
0.0
  0
LINE
  5
170
330
1F
100
AcDbEntity
  8
0
  6
Continuous
 62
     7
370
    15
100
AcDbLine
 10
1779.4971831954
 20
177.6765552523
 30
0.0
 11
1778.8237972844
 21
181.578658112
 31
0.0
  0
LWPOLYLINE
  5
171
330
1F
100
AcDbEntity
  8
0
  6
Continuous
 62
     7
370
    15
100
AcDbPolyline
 90
        3
 70
   128
 43
0.0
 10
1765.0437350527
 20
173.5240327115
 10
1764.0470153653
 20
172.1467516038
 10
1763.5734132327
 20
171.1717854582
  0
ARC
  5
172
330
1F
100
AcDbEntity
  8
0
  6
Continuous
 62
     7
370
    15
100
AcDbCircle
 10
1770.9896117198
 20
168.1717854582
 30
0.0
 40
8.00000000000001
100
AcDbArc
 50
22.024312837
 51
61.5745111509
  0
SPLINE
  5
173
330
1F
100
AcDbEntity
  8
0
  6
Continuous
 62
     7
370
    15
100
AcDbSpline
210
0.0
220
0.0
230
1.0
 70
     8
 71
     3
 72
    13
 73
     9
 74
     0
 42
0.000000001
 43
0.00000001
 40
0.0
 40
0.0
 40
0.0
 40
0.0
 40
0.1435713265920542
 40
0.3383828359628288
 40
0.5573247585305801
 40
0.7394888417495024
 40
0.898267728079909
 40
1.0
 40
1.0
 40
1.0
 40
1.0
 10
1774.765156339218
 20
175.2324093381458
 30
0.0
 10
1774.72088417884
 20
175.2600701826912
 30
0.0
 10
1774.616539254694
 20
175.3252639455727
 30
0.0
 10
1774.388987144735
 20
175.6608714438492
 30
0.0
 10
1774.371237403604
 20
176.1119178367916
 30
0.0
 10
1774.513748253776
 20
176.4140426298387
 30
0.0
 10
1774.614309815175
 20
176.5130985197024
 30
0.0
 10
1774.610050789274
 20
176.5092966522404
 30
0.0
 10
1774.608387596097
 20
176.5078119841093
 30
0.0
  0
SPLINE
  5
174
330
1F
100
AcDbEntity
  8
0
  6
Continuous
 62
     7
370
    15
100
AcDbSpline
210
0.0
220
0.0
230
1.0
 70
     8
 71
     3
 72
    14
 73
    10
 74
     0
 42
0.000000001
 43
0.00000001
 40
0.0
 40
0.0
 40
0.0
 40
0.0
 40
0.0185741965627785
 40
0.210525024519306
 40
0.3900462932531231
 40
0.5930362227891205
 40
0.8069648653630368
 40
0.9830046611397693
 40
1.0
 40
1.0
 40
1.0
 40
1.0
 10
1764.779025087155
 20
174.8163901566564
 30
0.0
 10
1764.776547027558
 20
174.8169108977321
 30
0.0
 10
1764.748460022243
 20
174.8228131195245
 30
0.0
 10
1764.843773769098
 20
174.7972939696086
 30
0.0
 10
1765.063249012944
 20
174.6211689922673
 30
0.0
 10
1765.258805186424
 20
174.2296751217334
 30
0.0
 10
1765.229415830587
 20
173.8074868333004
 30
0.0
 10
1765.102019021402
 20
173.5917325948638
 30
0.0
 10
1765.074428499747
 20
173.5620838462764
 30
0.0
 10
1765.071999355095
 20
173.5594734897215
 30
0.0
  0
LINE
  5
175
330
1F
100
AcDbEntity
  8
0
  6
Continuous
 62
     7
370
    15
100
AcDbLine
 10
1233.0727714602
 20
174.9098704064
 30
0.0
 11
1233.0082108935
 21
174.8617400362
 31
0.0
  0
SPLINE
  5
176
330
1F
100
AcDbEntity
  8
0
  6
Continuous
 62
     7
370
    15
100
AcDbSpline
210
0.0
220
0.0
230
1.0
 70
     8
 71
     3
 72
    10
 73
     6
 74
     0
 42
0.000000001
 43
0.00000001
 40
0.0
 40
0.0
 40
0.0
 40
0.0
 40
0.2412879319190091
 40
0.7753891546319228
 40
1.0
 40
1.0
 40
1.0
 40
1.0
 10
1242.828053809099
 20
173.7765909029471
 30
0.0
 10
1242.81221863947
 20
173.7924950551499
 30
0.0
 10
1242.761331640296
 20
173.8436037327932
 30
0.0
 10
1242.629883494623
 20
174.0449751168899
 30
0.0
 10
1242.645592226428
 20
174.226114879495
 30
0.0
 10
1242.650242675101
 20
174.2797399065905
 30
0.0
  0
ARC
  5
177
330
1F
100
AcDbEntity
  8
0
  6
Continuous
 62
     7
370
    15
100
AcDbCircle
 10
1237.2240447855
 20
168.0577859473
 30
0.0
 40
7.999999999999954
100
AcDbArc
 50
121.8968164978
 51
157.975683201
  0
LWPOLYLINE
  5
178
330
1F
100
AcDbEntity
  8
0
  6
Continuous
 62
     7
370
    15
100
AcDbPolyline
 90
        3
 70
   128
 43
0.0
 10
1244.6402429403
 20
171.0577867686
 10
1243.9368791355
 20
172.4095505307
 10
1242.8536690486
 20
173.7417397346
  0
LINE
  5
179
330
1F
100
AcDbEntity
  8
0
  6
Continuous
 62
     7
370
    15
100
AcDbLine
 10
1228.6154277454
 20
180.9952149937
 30
0.0
 11
1228.1724980554
 21
177.0551123825
 31
0.0
  0
LINE
  5
17A
330
1F
100
AcDbEntity
  8
0
  6
Continuous
 62
     7
370
    15
100
AcDbLine
 10
1248.0473102755
 20
174.820869957
 30
0.0
 11
1248.4902399655
 21
178.7609725682
 31
0.0
  0
SPLINE
  5
17B
330
1F
100
AcDbEntity
  8
0
  6
Continuous
 62
     7
370
    15
100
AcDbSpline
210
0.0
220
0.0
230
1.0
 70
     8
 71
     3
 72
    14
 73
    10
 74
     0
 42
0.000000001
 43
0.00000001
 40
0.0
 40
0.0
 40
0.0
 40
0.0
 40
0.0575865434207723
 40
0.2322220402234745
 40
0.449748359515062
 40
0.6416293054322322
 40
0.7992302303680158
 40
0.9506380548300194
 40
0.9999999999999999
 40
0.9999999999999999
 40
0.9999999999999999
 40
0.9999999999999999
 10
1242.821322500322
 20
173.7827155352719
 30
0.0
 10
1242.80996225467
 20
173.7935371098145
 30
0.0
 10
1242.764151215042
 20
173.8371759179358
 30
0.0
 10
1242.613665273477
 20
174.1086195728396
 30
0.0
 10
1242.607762919243
 20
174.5531551597645
 30
0.0
 10
1242.81101521884
 20
174.9142334024589
 30
0.0
 10
1242.996970858317
 20
175.0616395902186
 30
0.0
 10
1243.07477923449
 20
175.092802462813
 30
0.0
 10
1243.059547230421
 20
175.0881439925969
 30
0.0
 10
1243.055802237581
 20
175.0869986451086
 30
0.0
  0
SPLINE
  5
17C
330
1F
100
AcDbEntity
  8
0
  6
Continuous
 62
     7
370
    15
100
AcDbSpline
210
0.0
220
0.0
230
1.0
 70
     8
 71
     3
 72
    14
 73
    10
 74
     0
 42
0.000000001
 43
0.00000001
 40
0.0
 40
0.0
 40
0.0
 40
0.0
 40
0.0593047876692885
 40
0.2369069332680555
 40
0.4078785880806389
 40
0.6013664616171379
 40
0.8053011220646894
 40
0.9717708499102106
 40
1.0
 40
1.0
 40
1.0
 40
1.0
 10
1233.104702229349
 20
176.202969693306
 30
0.0
 10
1233.099278284735
 20
176.2059738485256
 30
0.0
 10
1233.077611061308
 20
176.2179746536563
 30
0.0
 10
1233.174756863001
 20
176.1506850595252
 30
0.0
 10
1233.339713618442
 20
175.9050978737875
 30
0.0
 10
1233.409973092236
 20
175.4824592320929
 30
0.0
 10
1233.269961818852
 20
175.0916102618474
 30
0.0
 10
1233.086170703237
 20
174.908720075468
 30
0.0
 10
1233.042552052724
 20
174.8825125220645
 30
0.0
 10
1233.036227838403
 20
174.8787127212317
 30
0.0
  0
LINE
  5
17D
330
1F
100
AcDbEntity
  8
0
  6
Continuous
 62
     7
370
    15
100
AcDbLine
 10
1248.4902399773
 20
178.7609726733
 30
0.0
 11
1289.25386555
 21
541.3757876089
 31
0.0
  0
LINE
  5
17E
330
1F
100
AcDbEntity
  8
0
  6
Continuous
 62
     7
370
    15
100
AcDbLine
 10
1269.3790533639
 20
543.610030337
 30
0.0
 11
1228.6154277912
 21
180.9952154014
 31
0.0
  0
LINE
  5
17F
330
1F
100
AcDbEntity
  8
0
  6
Continuous
 62
     7
370
    15
100
AcDbLine
 10
1778.8237972844
 20
181.578658112
 30
0.0
 11
1719.3124214557
 21
526.4321901102
 31
0.0
  0
LINE
  5
180
330
1F
100
AcDbEntity
  8
0
  6
Continuous
 62
     7
370
    15
100
AcDbLine
 10
1699.6037348604
 20
523.0310619609
 30
0.0
 11
1759.1151106891
 21
178.1775299627
 31
0.0
  0
SPLINE
  5
181
330
1F
100
AcDbEntity
  8
0
  6
Continuous
 62
     7
370
    15
100
AcDbSpline
210
0.0
220
0.0
230
1.0
 70
     8
 71
     3
 72
    26
 73
    22
 74
     0
 42
0.000000001
 43
0.00000001
 40
0.0
 40
0.0
 40
0.0
 40
0.0
 40
0.0280659536823564
 40
0.0797984496650684
 40
0.1314537218189439
 40
0.1832238990419043
 40
0.2353547936664157
 40
0.2880604233121506
 40
0.3415048535834531
 40
0.3957845299482174
 40
0.4509157907383154
 40
0.5068338990742506
 40
0.563407876071454
 40
0.620469035428212
 40
0.6778441843136026
 40
0.7353826315950269
 40
0.7929530827152051
 40
0.8504834438607889
 40
0.9079445847095358
 40
0.9653314450557615
 40
1.0
 40
1.0
 40
1.0
 40
1.0
 10
1306.005863685099
 20
585.5498674927477
 30
0.0
 10
1305.483130235537
 20
585.5720701946119
 30
0.0
 10
1303.996869717358
 20
585.6351979688252
 30
0.0
 10
1301.546382356778
 20
585.4658386145895
 30
0.0
 10
1298.687478256288
 20
584.9807086802738
 30
0.0
 10
1295.880965876931
 20
584.1825495191899
 30
0.0
 10
1293.140918589668
 20
583.0866978670513
 30
0.0
 10
1290.478945602895
 20
581.6953950160639
 30
0.0
 10
1287.907173600846
 20
580.01359087965
 30
0.0
 10
1285.438850985371
 20
578.0460469864828
 30
0.0
 10
1283.088803731177
 20
575.7999361947072
 30
0.0
 10
1280.873192119993
 20
573.2859632867456
 30
0.0
 10
1278.808664911454
 20
570.519280496304
 30
0.0
 10
1276.911141858377
 20
567.5193851270001
 30
0.0
 10
1275.194748859003
 20
564.3091791792774
 30
0.0
 10
1273.671112330725
 20
560.9139917446902
 30
0.0
 10
1272.349679985095
 20
557.3598277019748
 30
0.0
 10
1271.235299973458
 20
553.6728570663128
 30
0.0
 10
1270.338595967637
 20
549.8764144008375
 30
0.0
 10
1269.731726149416
 20
546.5096113803985
 30
0.0
 10
1269.480371742811
 20
544.4024434133595
 30
0.0
 10
1269.385710347516
 20
543.6088728427253
 30
0.0
  0
SPLINE
  5
182
330
1F
100
AcDbEntity
  8
0
  6
Continuous
 62
     7
370
    15
100
AcDbSpline
210
0.0
220
0.0
230
1.0
 70
     8
 71
     3
 72
    23
 73
    19
 74
     0
 42
0.000000001
 43
0.00000001
 40
0.0
 40
0.0
 40
0.0
 40
0.0
 40
0.0330713420105633
 40
0.0978812908169369
 40
0.1624860656161032
 40
0.2268018152341919
 40
0.2907812115125443
 40
0.3543999052246792
 40
0.4176701864958385
 40
0.4806614184118644
 40
0.5435303445316885
 40
0.6064827388736155
 40
0.6699115376822169
 40
0.7344971495610186
 40
0.8013381842557069
 40
0.8722257172584964
 40
0.9500993099456144
 40
1.0
 40
1.0
 40
1.0
 40
1.0
 10
1289.222873476132
 20
541.0929501855377
 30
0.0
 10
1289.28227589305
 20
541.6046606469471
 30
0.0
 10
1289.458089298015
 20
543.1191707164592
 30
0.0
 10
1289.880360963298
 20
545.5813365581832
 30
0.0
 10
1290.540676806814
 20
548.4141615686237
 30
0.0
 10
1291.354612758224
 20
551.0990163962543
 30
0.0
 10
1292.303042282388
 20
553.6063784901563
 30
0.0
 10
1293.367453596839
 20
555.909229538355
 30
0.0
 10
1294.525372238737
 20
557.984818814768
 30
0.0
 10
1295.752113092487
 20
559.815284589956
 30
0.0
 10
1297.020730416692
 20
561.3880610770608
 30
0.0
 10
1298.30339460095
 20
562.6973478998548
 30
0.0
 10
1299.573774605911
 20
563.7456149273088
 30
0.0
 10
1300.811413093016
 20
564.543974631976
 30
0.0
 10
1302.007661711705
 20
565.1121627250866
 30
0.0
 10
1303.176676716172
 20
565.4682379396274
 30
0.0
 10
1304.171799556286
 20
565.6104483577957
 30
0.0
 10
1304.803876190037
 20
565.5903509373867
 30
0.0
 10
1305.050726021746
 20
565.5825021345979
 30
0.0
  0
SPLINE
  5
183
330
1F
100
AcDbEntity
  8
0
  6
Continuous
 62
     7
370
    15
100
AcDbSpline
210
0.0
220
0.0
230
1.0
 70
     8
 71
     3
 72
    24
 73
    20
 74
     0
 42
0.000000001
 43
0.00000001
 40
0.0
 40
0.0
 40
0.0
 40
0.0
 40
0.0288312781190721
 40
0.0912552588027907
 40
0.1537510252093762
 40
0.2162822048753646
 40
0.2788258661341034
 40
0.3413486525788699
 40
0.4038028997681133
 40
0.466126717332268
 40
0.5282464917326156
 40
0.590082397107093
 40
0.6515568302801852
 40
0.7126046983056477
 40
0.7731836005415177
 40
0.833281677462693
 40
0.892921473798325
 40
0.9521592994029756
 40
1.0
 40
1.0
 40
1.0
 40
1.0
 10
1719.306573534095
 20
526.4326728484768
 30
0.0
 10
1719.198832891729
 20
527.0366355614964
 30
0.0
 10
1718.857817826006
 20
528.9482668619262
 30
0.0
 10
1718.088548748146
 20
532.1128667777217
 30
0.0
 10
1716.920968246633
 20
535.8749120237698
 30
0.0
 10
1715.50392133441
 20
539.5137739485823
 30
0.0
 10
1713.851074577615
 20
543.0062451913722
 30
0.0
 10
1711.969424431857
 20
546.3278917048381
 30
0.0
 10
1709.87014140794
 20
549.4552438802616
 30
0.0
 10
1707.565996431231
 20
552.3653872748084
 30
0.0
 10
1705.072259649372
 20
555.0365748724688
 30
0.0
 10
1702.406505434988
 20
557.4487558249622
 30
0.0
 10
1699.588468805453
 20
559.5841013203359
 30
0.0
 10
1696.639637612642
 20
561.4278625331302
 30
0.0
 10
1693.582618782516
 20
562.9675526978484
 30
0.0
 10
1690.440680440546
 20
564.1974337561304
 30
0.0
 10
1687.236367827855
 20
565.102221336119
 30
0.0
 10
1684.195880666398
 20
565.678023260283
 30
0.0
 10
1682.221048749879
 20
565.8150777925165
 30
0.0
 10
1681.33873045695
 20
565.8763112169447
 30
0.0
  0
SPLINE
  5
184
330
1F
100
AcDbEntity
  8
0
  6
Continuous
 62
     7
370
    15
100
AcDbSpline
210
0.0
220
0.0
230
1.0
 70
     8
 71
     3
 72
    21
 73
    17
 74
     0
 42
0.000000001
 43
0.00000001
 40
0.0
 40
0.0
 40
0.0
 40
0.0
 40
0.0347385151851812
 40
0.1215504028571045
 40
0.2064509193322527
 40
0.2880285738729748
 40
0.3665492311546081
 40
0.4427840583120489
 40
0.5174679599268125
 40
0.5911634563574506
 40
0.6642673431488461
 40
0.7370465655427485
 40
0.8096723753786644
 40
0.8822445107022258
 40
0.9548040007222128
 40
1.0
 40
1.0
 40
1.0
 40
1.0
 10
1680.149615802936
 20
545.9242778100469
 30
0.0
 10
1680.423271659334
 20
545.9076160409755
 30
0.0
 10
1681.380796165262
 20
545.8493163487713
 30
0.0
 10
1683.013849204464
 20
545.5476391792284
 30
0.0
 10
1685.033537925182
 20
544.8718811629631
 30
0.0
 10
1686.994713400909
 20
543.8970714175574
 30
0.0
 10
1688.872809545456
 20
542.6490432597169
 30
0.0
 10
1690.655734064529
 20
541.142682198948
 30
0.0
 10
1692.332619193861
 20
539.3906854519975
 30
0.0
 10
1693.89015488669
 20
537.4055445030752
 30
0.0
 10
1695.312876126161
 20
535.2022875992246
 30
0.0
 10
1696.583945930213
 20
532.7991378273847
 30
0.0
 10
1697.688138236034
 20
530.2182870042386
 30
0.0
 10
1698.606304213484
 20
527.4837755503947
 30
0.0
 10
1699.248170811627
 20
524.9874865002547
 30
0.0
 10
1699.535267548473
 20
523.3957174594984
 30
0.0
 10
1699.645458792962
 20
522.7847770027481
 30
0.0
  0
LINE
  5
185
330
1F
100
AcDbEntity
  8
0
  6
Continuous
 62
     7
370
    15
100
AcDbLine
 10
1625.3291813853
 20
548.7980038037
 30
0.0
 11
1680.287606475
 21
545.9177547919
 31
0.0
  0
LINE
  5
186
330
1F
100
AcDbEntity
  8
0
  6
Continuous
 62
     7
370
    15
100
AcDbLine
 10
1577.6439081301
 20
551.2970830796
 30
0.0
 11
1621.5388289969
 21
548.9966477551
 31
0.0
  0
LINE
  5
187
330
1F
100
AcDbEntity
  8
0
  6
Continuous
 62
     7
370
    15
100
AcDbLine
 10
1622.5994605755
 20
568.9685093294
 30
0.0
 11
1578.690627255
 21
571.2696737747
 31
0.0
  0
LINE
  5
188
330
1F
100
AcDbEntity
  8
0
  6
Continuous
 62
     7
370
    15
100
AcDbLine
 10
1681.3343259979
 20
565.8903454661
 30
0.0
 11
1626.3806027156
 21
568.7703480667
 31
0.0
  0
LINE
  5
189
330
1F
100
AcDbEntity
  8
0
  6
Continuous
 62
     7
370
    15
100
AcDbLine
 10
1332.1780568406
 20
564.1614032355
 30
0.0
 11
1377.5095609779
 21
561.7856797721
 31
0.0
  0
LINE
  5
18A
330
1F
100
AcDbEntity
  8
0
  6
Continuous
 62
     7
370
    15
100
AcDbLine
 10
1304.9634677376
 20
565.5876594145
 30
0.0
 11
1328.998068932
 21
564.3280593399
 31
0.0
  0
LINE
  5
18B
330
1F
100
AcDbEntity
  8
0
  6
Continuous
 62
     7
370
    15
100
AcDbLine
 10
1330.0516870153
 20
584.3002884759
 30
0.0
 11
1306.0101871964
 21
585.560250092
 31
0.0
  0
LINE
  5
18C
330
1F
100
AcDbEntity
  8
0
  6
Continuous
 62
     7
370
    15
100
AcDbLine
 10
1378.5562801027
 20
581.7582704672
 30
0.0
 11
1333.2394581791
 21
584.1332244683
 31
0.0
  0
LINE
  5
18D
330
1F
100
AcDbEntity
  8
0
  6
Continuous
 62
     7
370
    15
100
AcDbLine
 10
1578.690627255
 20
571.2696737747
 30
0.0
 11
1378.5562801027
 21
581.7582704672
 31
0.0
  0
LINE
  5
18E
330
1F
100
AcDbEntity
  8
0
  6
Continuous
 62
     7
370
    15
100
AcDbLine
 10
1377.5095609779
 20
561.7856797721
 30
0.0
 11
1577.6439081301
 21
551.2970830796
 31
0.0
  0
LINE
  5
18F
330
1F
100
AcDbEntity
  8
0
  6
Continuous
 62
     7
370
    15
100
AcDbLine
 10
1621.8167007183
 20
548.9820851153
 30
0.0
 11
1625.3291813853
 21
548.7980038037
 31
0.0
  0
LINE
  5
190
330
1F
100
AcDbEntity
  8
0
  6
Continuous
 62
     7
370
    15
100
AcDbLine
 10
1626.3806027156
 20
568.7703480667
 30
0.0
 11
1622.8058661404
 21
568.9576920721
 31
0.0
  0
SPLINE
  5
191
330
1F
100
AcDbEntity
  8
0
  6
Continuous
 62
     7
370
    15
100
AcDbSpline
210
0.0
220
0.0
230
1.0
 70
     8
 71
     3
 72
    25
 73
    21
 74
     0
 42
0.000000001
 43
0.00000001
 40
0.0
 40
0.0
 40
0.0
 40
0.0
 40
0.0274148340347594
 40
0.0876362340842889
 40
0.1478793333832171
 40
0.2081225838088283
 40
0.2683647439739691
 40
0.328604765202254
 40
0.3888416924403056
 40
0.4490747050333522
 40
0.5093031512324888
 40
0.5695265748539804
 40
0.629744733094371
 40
0.6899576049817339
 40
0.750165390401139
 40
0.8103685000434493
 40
0.8705675369712007
 40
0.9307632707677207
 40
0.9877977608531879
 40
1.0
 40
1.0
 40
1.0
 40
1.0
 10
1674.329751970572
 20
600.2437765724369
 30
0.0
 10
1674.361099859495
 20
599.7786000389833
 30
0.0
 10
1674.461308780263
 20
598.2915832098982
 30
0.0
 10
1674.410043896001
 20
595.7718332102572
 30
0.0
 10
1674.046264766296
 20
592.7160211594838
 30
0.0
 10
1673.366721426844
 20
589.7130073293359
 30
0.0
 10
1672.383512295466
 20
586.795400337946
 30
0.0
 10
1671.105678297274
 20
583.993778736766
 30
0.0
 10
1669.547037691524
 20
581.3377046105379
 30
0.0
 10
1667.723925302919
 20
578.8551457833169
 30
0.0
 10
1665.655584839898
 20
576.5722504134587
 30
0.0
 10
1663.363812067773
 20
574.5130530340872
 30
0.0
 10
1660.872762350102
 20
572.6992202666647
 30
0.0
 10
1658.208685593812
 20
571.1498446556128
 30
0.0
 10
1655.399639302364
 20
569.8811606938854
 30
0.0
 10
1652.475231621742
 20
568.9066921906222
 30
0.0
 10
1649.466155083916
 20
568.2359322435046
 30
0.0
 10
1646.45799155882
 20
567.8849000219442
 30
0.0
 10
1644.248303749215
 20
567.8430786446786
 30
0.0
 10
1643.069558791232
 20
567.8970859801789
 30
0.0
 10
1642.861817495103
 20
567.9066042002155
 30
0.0
  0
SPLINE
  5
192
330
1F
100
AcDbEntity
  8
0
  6
Continuous
 62
     7
370
    15
100
AcDbSpline
210
0.0
220
0.0
230
1.0
 70
     8
 71
     3
 72
    17
 73
    13
 74
     0
 42
0.000000001
 43
0.00000001
 40
0.0
 40
0.0
 40
0.0
 40
0.0
 40
0.0960106574720171
 40
0.1981508988428911
 40
0.3002886980763387
 40
0.4024242043117036
 40
0.504557625160858
 40
0.6066892215183103
 40
0.7088193009603011
 40
0.8109482099012556
 40
0.9130763247135918
 40
1.0
 40
1.0
 40
1.0
 40
1.0
 10
1682.760661919115
 20
565.7524627725918
 30
0.0
 10
1683.542459919157
 20
566.7214750375704
 30
0.0
 10
1685.15596804941
 20
568.7213639702261
 30
0.0
 10
1687.285259849072
 20
571.9867355079787
 30
0.0
 10
1689.20742363661
 20
575.4651821931744
 30
0.0
 10
1690.841217183009
 20
579.0892850547976
 30
0.0
 10
1692.183319390624
 20
582.8304617448221
 30
0.0
 10
1693.222913798248
 20
586.666554364951
 30
0.0
 10
1693.955835346019
 20
590.5730855766458
 30
0.0
 10
1694.370234435054
 20
594.5248618314572
 30
0.0
 10
1694.484074654402
 20
598.301997738871
 30
0.0
 10
1694.332849482309
 20
600.7479460349167
 30
0.0
 10
1694.263318018221
 20
601.8725628150155
 30
0.0
  0
LINE
  5
193
330
1F
100
AcDbEntity
  8
0
  6
Continuous
 62
     7
370
    15
100
AcDbLine
 10
1694.2633180182
 20
601.872562815
 30
0.0
 11
1682.1516570769
 21
750.0986387781
 31
0.0
  0
LINE
  5
194
330
1F
100
AcDbEntity
  8
0
  6
Continuous
 62
     7
370
    15
100
AcDbLine
 10
1662.2180910293
 20
748.4698525355
 30
0.0
 11
1674.3297519706
 21
600.2437765724
 31
0.0
  0
SPLINE
  5
195
330
1F
100
AcDbEntity
  8
0
  6
Continuous
 62
     7
370
    15
100
AcDbSpline
210
0.0
220
0.0
230
1.0
 70
     8
 71
     3
 72
    12
 73
     8
 74
     0
 42
0.000000001
 43
0.00000001
 40
0.0
 40
0.0
 40
0.0
 40
0.0
 40
0.1516953388352901
 40
0.4096720879803647
 40
0.6676937137779246
 40
0.9257179707764202
 40
1.0
 40
1.0
 40
1.0
 40
1.0
 10
1663.330869040955
 20
763.7565297691691
 30
0.0
 10
1663.166516957896
 20
762.9960961686583
 30
0.0
 10
1662.722663761433
 20
760.9424508603475
 30
0.0
 10
1662.254058013677
 20
757.5456257835948
 30
0.0
 10
1662.011557501377
 20
753.5806283472473
 30
0.0
 10
1662.063184005785
 20
750.54937298281
 30
0.0
 10
1662.18979014701
 20
748.8497724514825
 30
0.0
 10
1662.218091029275
 20
748.4698525355165
 30
0.0
  0
SPLINE
  5
196
330
1F
100
AcDbEntity
  8
0
  6
Continuous
 62
     7
370
    15
100
AcDbSpline
210
0.0
220
0.0
230
1.0
 70
     8
 71
     3
 72
    11
 73
     7
 74
     0
 42
0.000000001
 43
0.00000001
 40
0.0
 40
0.0
 40
0.0
 40
0.0
 40
0.1517126474224499
 40
0.4849270490483768
 40
0.8182724019548204
 40
1.0
 40
1.0
 40
1.0
 40
1.0
 10
1682.151657076924
 20
750.098638778095
 30
0.0
 10
1682.120240794029
 20
750.5638601778804
 30
0.0
 10
1682.019823290181
 20
752.0508716062943
 30
0.0
 10
1682.07402640754
 20
754.5693810291613
 30
0.0
 10
1682.371652719489
 20
757.1637363536348
 30
0.0
 10
1682.701791170663
 20
758.7114468046312
 30
0.0
 10
1682.818270336659
 20
759.2575086822922
 30
0.0
  0
LINE
  5
197
330
1F
100
AcDbEntity
  8
0
  6
Continuous
 62
     7
370
    15
100
AcDbLine
 10
1694.0397396943
 20
807.8630324788
 30
0.0
 11
1700.2165227757
 21
834.6176193769
 31
0.0
  0
LINE
  5
198
330
1F
100
AcDbEntity
  8
0
  6
Continuous
 62
     7
370
    15
100
AcDbLine
 10
1682.8182703367
 20
759.2575086823
 30
0.0
 11
1692.9241720336
 21
803.0309780705
 31
0.0
  0
LINE
  5
199
330
1F
100
AcDbEntity
  8
0
  6
Continuous
 62
     7
370
    15
100
AcDbLine
 10
1700.2165227757
 20
834.6176193769
 30
0.0
 11
1708.7194807351
 21
871.4479766378
 31
0.0
  0
LINE
  5
19A
330
1F
100
AcDbEntity
  8
0
  6
Continuous
 62
     7
370
    15
100
AcDbLine
 10
1708.9757800872
 20
873.9545655395
 30
0.0
 11
1708.972455308
 21
873.9553331253
 31
0.0
  0
LINE
  5
19B
330
1F
100
AcDbEntity
  8
0
  6
Continuous
 62
     7
370
    15
100
AcDbLine
 10
1222.2240447855
 20
165.0577859473
 30
0.0
 11
1252.2240447855
 21
165.0577859473
 31
0.0
  0
LINE
  5
19C
330
1F
100
AcDbEntity
  8
0
  6
Continuous
 62
     7
370
    15
100
AcDbLine
 10
1229.8078462984
 20
171.0577859473
 30
0.0
 11
1244.6402432726
 21
171.0577859473
 31
0.0
  0
LINE
  5
19D
330
1F
100
AcDbEntity
  8
0
  6
Continuous
 62
     7
370
    15
100
AcDbLine
 10
1222.2240447855
 20
159.0577859473
 30
0.0
 11
1252.2240447855
 21
159.0577859473
 31
0.0
  0
LINE
  5
19E
330
1F
100
AcDbEntity
  8
0
  6
Continuous
 62
     7
370
    15
100
AcDbLine
 10
1757.2141359483
 20
165.1717854582
 30
0.0
 11
1785.9896117198
 21
165.1717854582
 31
0.0
  0
LINE
  5
19F
330
1F
100
AcDbEntity
  8
0
  6
Continuous
 62
     7
370
    15
100
AcDbLine
 10
1755.9896117198
 20
165.1717854582
 30
0.0
 11
1757.2141359483
 21
165.1717854582
 31
0.0
  0
LINE
  5
1A0
330
1F
100
AcDbEntity
  8
0
  6
Continuous
 62
     7
370
    15
100
AcDbLine
 10
1757.2141359483
 20
159.1717854582
 30
0.0
 11
1785.9896117198
 21
159.1717854582
 31
0.0
  0
LINE
  5
1A1
330
1F
100
AcDbEntity
  8
0
  6
Continuous
 62
     7
370
    15
100
AcDbLine
 10
1755.9896117198
 20
159.1717854582
 30
0.0
 11
1757.2141359483
 21
159.1717854582
 31
0.0
  0
LINE
  5
1A2
330
1F
100
AcDbEntity
  8
0
  6
Continuous
 62
     7
370
    15
100
AcDbLine
 10
1764.1788342147
 20
171.1717854582
 30
0.0
 11
1778.4058102069
 21
171.1717854582
 31
0.0
  0
LINE
  5
1A3
330
1F
100
AcDbEntity
  8
0
  6
Continuous
 62
     7
370
    15
100
AcDbLine
 10
1763.5734132327
 20
171.1717854582
 30
0.0
 11
1764.1788342147
 21
171.1717854582
 31
0.0
  0
LWPOLYLINE
  5
1A4
330
1F
100
AcDbEntity
  8
0
  6
Continuous
 62
     7
370
    15
100
AcDbPolyline
 90
       18
 70
   128
 43
0.0
 10
1759.1151106891
 20
178.1775299627
 10
1759.2098877022
 20
178.4301207595
 10
1759.6482722152
 20
178.7694586693
 10
1760.4235485236
 20
179.1488655498
 10
1761.5076961215
 20
179.5546286479
 10
1762.8615310901
 20
179.9720826279
 10
1764.4361223062
 20
180.3861396154
 10
1766.1745599408
 20
180.781834512
 10
1768.0140123282
 20
181.1448658731
 10
1769.8879968665
 20
181.4621127996
 10
1771.7287828719
 20
181.7221091609
 10
1773.469839542
 20
181.9154580111
 10
1775.0482405526
 20
182.035171219
 10
1776.4069383785
 20
182.0769220373
 10
1777.4968261403
 20
182.0392014827
 10
1778.2785124546
 20
181.9233728743
 10
1778.7237451414
 20
181.7336225599
 10
1778.8237972844
 20
181.578658112
  0
LWPOLYLINE
  5
1A5
330
1F
100
AcDbEntity
  8
0
  6
Continuous
 62
     7
370
    15
100
AcDbPolyline
 90
       30
 70
   128
 43
0.0
 10
1765.1377745864
 20
173.9381860802
 10
1764.3291932337
 20
173.8692310269
 10
1762.8539638627
 20
173.7881317902
 10
1761.6241021598
 20
173.7861074922
 10
1760.6840585314
 20
173.8632312962
 10
1760.0678086034
 20
174.0167157471
 10
1759.797625254
 20
174.2410135169
 10
1759.8832736132
 20
174.5280178998
 10
1760.3216581262
 20
174.8673558096
 10
1761.0969344346
 20
175.2467626901
 10
1762.1810820325
 20
175.6525257882
 10
1763.5349170011
 20
176.0699797682
 10
1765.1095082172
 20
176.4840367557
 10
1766.8479458518
 20
176.8797316523
 10
1768.6873982392
 20
177.2427630134
 10
1770.5613827775
 20
177.5600099399
 10
1772.4021687829
 20
177.8200063012
 10
1774.143225453
 20
178.0133551514
 10
1775.7216264636
 20
178.1330683592
 10
1777.0803242895
 20
178.1748191776
 10
1778.1702120513
 20
178.137098623
 10
1778.9518983656
 20
178.0212700146
 10
1779.3971310524
 20
177.8315197002
 10
1779.4898182423
 20
177.5747057504
 10
1779.2266099788
 20
177.2601100905
 10
1778.6170192943
 20
176.8991030274
 10
1777.6830783844
 20
176.5047322969
 10
1776.458542307
 20
176.0912514847
 10
1774.9876689863
 20
175.6736048647
 10
1774.5618057307
 20
175.5638062195
  0
ARC
  5
1A6
330
1F
100
AcDbEntity
  8
0
  6
Continuous
 62
     7
370
    15
100
AcDbCircle
 10
1774.2615902024
 20
149.7466837608
 30
0.0
 40
27.470683382232
100
AcDbArc
 50
90.322399917
 51
110.746265028
  0
LINE
  5
1A7
330
1F
100
AcDbEntity
  8
0
  6
Continuous
 62
     7
370
    15
100
AcDbLine
 10
1765.028982243
 20
173.5066118538
 30
0.0
 11
1765.0437350527
 21
173.5240327115
 31
0.0
  0
LWPOLYLINE
  5
1A8
330
1F
100
AcDbEntity
  8
0
  6
Continuous
 62
     7
370
    15
100
AcDbPolyline
 90
       30
 70
   128
 43
0.0
 10
1233.2347475134
 20
175.3176627026
 10
1232.6367607344
 20
175.4325225255
 10
1231.1656972098
 20
175.7536029797
 10
1229.9456154175
 20
176.0813477035
 10
1229.0206122925
 20
176.4039111487
 10
1228.4241198576
 20
176.7096350318
 10
1228.1776969037
 20
176.9874696954
 10
1228.2902497983
 20
177.2273734706
 10
1228.7577105866
 20
177.42067561
 10
1229.5631840178
 20
177.5603896706
 10
1230.6775581834
 20
177.6414660223
 10
1232.0605566975
 20
177.6609743545
 10
1233.6621943906
 20
177.6182095851
 10
1235.4245839033
 20
177.5147173445
 10
1237.2840278868
 20
177.3542381118
 10
1239.1733211908
 20
177.1425720247
 10
1241.0241798329
 20
176.8873692469
 10
1242.7697089592
 20
176.5978534718
 10
1244.3468205993
 20
176.2844885539
 10
1245.6985138293
 20
175.9586003177
 10
1246.7759349342
 20
175.6319672133
 10
1247.5401431079
 20
175.3163946119
 10
1247.9635178761
 20
175.0232881297
 10
1248.0307573713
 20
174.7632413986
 10
1247.7394313832
 20
174.545653185
 10
1247.100069192
 20
174.3783876939
 10
1246.135779013
 20
174.2674903359
 10
1244.8814128059
 20
174.2169692305
 10
1243.3823066334
 20
174.2286503421
 10
1242.7298202912
 20
174.2505676418
  0
ARC
  5
1A9
330
1F
100
AcDbEntity
  8
0
  6
Continuous
 62
     7
370
    15
100
AcDbCircle
 10
1235.144248807
 20
148.8307747093
 30
0.0
 40
28.07059094524555
100
AcDbArc
 50
74.3773904371
 51
94.3107568495
  0
LWPOLYLINE
  5
1AA
330
1F
100
AcDbEntity
  8
0
  6
Continuous
 62
     7
370
    15
100
AcDbPolyline
 90
       18
 70
   128
 43
0.0
 10
1228.6154277454
 20
180.9952149937
 10
1228.7331794883
 20
181.1674760818
 10
1229.2006402766
 20
181.3607782212
 10
1230.0061137078
 20
181.5004922818
 10
1231.1204878733
 20
181.5815686335
 10
1232.5034863875
 20
181.6010769657
 10
1234.1051240805
 20
181.5583121964
 10
1235.8675135933
 20
181.4548199557
 10
1237.7269575768
 20
181.294340723
 10
1239.6162508808
 20
181.0826746359
 10
1241.4671095228
 20
180.8274718581
 10
1243.2126386492
 20
180.537956083
 10
1244.7897502893
 20
180.2245911651
 10
1246.1414435193
 20
179.8987029289
 10
1247.2188646242
 20
179.5720698245
 10
1247.9830727979
 20
179.2564972231
 10
1248.406447566
 20
178.9633907409
 10
1248.4902399655
 20
178.7609725682
  0
ARC
  5
1AB
330
1F
100
AcDbEntity
  8
0
  6
Continuous
 62
     7
370
    15
100
AcDbCircle
 10
1693.044859874
 20
901.3527871562
 30
0.0
 40
2.000000000000202
100
AcDbArc
 50
77.0
 51
167.0
  0
ARC
  5
1AC
330
1F
100
AcDbEntity
  8
0
  6
Continuous
 62
     7
370
    15
100
AcDbCircle
 10
1655.4780337985
 20
738.6329863371
 30
0.0
 40
1.99999999999987
100
AcDbArc
 50
167.0
 51
257.0
  0
LINE
  5
1AD
330
1F
100
AcDbEntity
  8
0
  6
Continuous
 62
     7
370
    15
100
AcDbLine
 10
1653.529293669
 20
739.0828884458
 30
0.0
 11
1691.0961197444
 21
901.8026892649
 31
0.0
  0
LINE
  5
1AE
330
1F
100
AcDbEntity
  8
0
  6
Continuous
 62
     7
370
    15
100
AcDbLine
 10
1694.9936000035
 20
900.9028850476
 30
0.0
 11
1657.4267739281
 21
738.1830842284
 31
0.0
  0
ARC
  5
1AF
330
1F
100
AcDbEntity
  8
0
  6
Continuous
 62
     7
370
    15
100
AcDbCircle
 10
1655.4780337985
 20
738.6329863371
 30
0.0
 40
2.000000000000057
100
AcDbArc
 50
257.0
 51
347.0
  0
ARC
  5
1B0
330
1F
100
AcDbEntity
  8
0
  6
Continuous
 62
     7
370
    15
100
AcDbCircle
 10
1693.044859874
 20
901.3527871562
 30
0.0
 40
1.99999999999981
100
AcDbArc
 50
347.0
 51
77.0
  0
LINE
  5
1B1
330
1F
100
AcDbEntity
  8
0
  6
Continuous
 62
     7
370
    15
100
AcDbLine
 10
1679.8535810757
 20
906.4508420466
 30
0.0
 11
1689.5972817235
 21
904.2013315032
 31
0.0
  0
LINE
  5
1B2
330
1F
100
AcDbEntity
  8
0
  6
Continuous
 62
     7
370
    15
100
AcDbLine
 10
1641.3869507829
 20
739.8335609683
 30
0.0
 11
1651.1306514307
 21
737.5840504249
 31
0.0
  0
ARC
  5
1B3
330
1F
100
AcDbEntity
  8
0
  6
Continuous
 62
     7
370
    15
100
AcDbCircle
 10
1689.1473796148
 20
902.2525913736
 30
0.0
 40
2.000000000000134
100
AcDbArc
 50
347.0
 51
77.0
  0
ARC
  5
1B4
330
1F
100
AcDbEntity
  8
0
  6
Continuous
 62
     7
370
    15
100
AcDbCircle
 10
1651.5805535394
 20
739.5327905545
 30
0.0
 40
1.999999999999912
100
AcDbArc
 50
257.0
 51
347.0
  0
ARC
  5
1B5
330
1F
100
AcDbEntity
  8
0
  6
Continuous
 62
     7
370
    15
100
AcDbCircle
 10
1676.7042663148
 20
892.8096611396
 30
0.0
 40
14.00000000000054
100
AcDbArc
 50
77.0
 51
120.6028189727
  0
ARC
  5
1B6
330
1F
100
AcDbEntity
  8
0
  6
Continuous
 62
     7
370
    15
100
AcDbCircle
 10
1644.5362655437
 20
753.4747418753
 30
0.0
 40
14.00000000000043
100
AcDbArc
 50
213.3971810273
 51
257.0
  0
LINE
  5
1B7
330
1F
100
AcDbEntity
  8
0
  6
Continuous
 62
     7
370
    15
100
AcDbLine
 10
1620.1074621251
 20
816.5876055684
 30
0.0
 11
1627.0809448098
 21
846.7930775767
 31
0.0
  0
ARC
  5
1B8
330
1F
100
AcDbEntity
  8
0
  6
Continuous
 62
     7
370
    15
100
AcDbCircle
 10
1716.0734107268
 20
826.2475479467
 30
0.0
 40
91.33333333333366
100
AcDbArc
 50
120.6028189727
 51
167.0
  0
ARC
  5
1B9
330
1F
100
AcDbEntity
  8
0
  6
Continuous
 62
     7
370
    15
100
AcDbCircle
 10
1709.0999280421
 20
796.0420759383
 30
0.0
 40
91.33333333333358
100
AcDbArc
 50
167.0
 51
213.3971810273
  0
LINE
  5
1BA
330
1F
100
AcDbEntity
  8
0
  6
Continuous
 62
     7
370
    15
100
AcDbLine
 10
1655.6385627341
 20
584.2603332377
 30
0.0
 11
1655.1152031717
 21
574.2740378902
 31
0.0
  0
LINE
  5
1BB
330
1F
100
AcDbEntity
  8
0
  6
Continuous
 62
     7
370
    15
100
AcDbLine
 10
1256.1867488323
 20
605.1947157349
 30
0.0
 11
1255.6633892698
 21
595.2084203874
 31
0.0
  0
ARC
  5
1BC
330
1F
100
AcDbEntity
  8
0
  6
Continuous
 62
     7
370
    15
100
AcDbCircle
 10
1643.655008317
 20
584.8883647127
 30
0.0
 40
12.0000000000001
100
AcDbArc
 50
357.0
 51
50.1301023542
  0
ARC
  5
1BD
330
1F
100
AcDbEntity
  8
0
  6
Continuous
 62
     7
370
    15
100
AcDbCircle
 10
1268.1703032493
 20
604.56668426
 30
0.0
 40
12.00000000000018
100
AcDbArc
 50
123.8698976458
 51
177.0
  0
ARC
  5
1BE
330
1F
100
AcDbEntity
  8
0
  6
Continuous
 62
     7
370
    15
100
AcDbCircle
 10
1653.1179441021
 20
574.3787098027
 30
0.0
 40
1.999999999999878
100
AcDbArc
 50
267.0
 51
357.0
  0
LINE
  5
1BF
330
1F
100
AcDbEntity
  8
0
  6
Continuous
 62
     7
370
    15
100
AcDbLine
 10
1653.0132721897
 20
572.3814507332
 30
0.0
 11
1257.5559764268
 21
593.1064894054
 31
0.0
  0
ARC
  5
1C0
330
1F
100
AcDbEntity
  8
0
  6
Continuous
 62
     7
370
    15
100
AcDbCircle
 10
1257.6606483393
 20
595.1037484749
 30
0.0
 40
2.000000000000105
100
AcDbArc
 50
177.0
 51
267.0
  0
LINE
  5
1C1
330
1F
100
AcDbEntity
  8
0
  6
Continuous
 62
     7
370
    15
100
AcDbLine
 10
1348.0521732974
 20
638.4324019937
 30
0.0
 11
1567.7506709434
 21
626.9184916203
 31
0.0
  0
ARC
  5
1C2
330
1F
100
AcDbEntity
  8
0
  6
Continuous
 62
     7
370
    15
100
AcDbCircle
 10
1560.3189651569
 20
485.1130976851
 30
0.0
 40
142.0000000000009
100
AcDbArc
 50
50.1301023542
 51
87.0
  0
ARC
  5
1C3
330
1F
100
AcDbEntity
  8
0
  6
Continuous
 62
     7
370
    15
100
AcDbCircle
 10
1340.6204675109
 20
496.6270080586
 30
0.0
 40
142.0000000000006
100
AcDbArc
 50
87.0
 51
123.8698976458
  0
LWPOLYLINE
  5
1C4
330
1F
100
AcDbEntity
  8
0
  6
Continuous
 62
     7
370
    15
100
AcDbPolyline
 90
       18
 70
   128
 43
0.0
 10
1248.4902399773
 20
178.7609726733
 10
1248.4280941354
 20
178.9373477982
 10
1248.037786516
 20
179.2277782892
 10
1247.3046679957
 20
179.5417128857
 10
1246.255235388
 20
179.8678051735
 10
1244.9274179215
 20
180.1942693276
 10
1243.3692063791
 20
180.5093060829
 10
1241.6369185858
 20
180.8015291904
 10
1239.7931639358
 20
181.0603769453
 10
1237.9045805262
 20
181.2764939156
 10
1236.0394266819
 20
181.4420690708
 10
1234.2651139225
 20
181.5511180934
 10
1232.6457705341
 20
181.5996996676
 10
1231.2399238059
 20
181.5860579287
 10
1230.0983847015
 20
181.5106859247
 10
1229.2624114184
 20
181.3763077963
 10
1228.7622182092
 20
181.187780319
 10
1228.6154277912
 20
180.9952154014
  0
LWPOLYLINE
  5
1C5
330
1F
100
AcDbEntity
  8
0
  6
Continuous
 62
     7
370
    15
100
AcDbPolyline
 90
       18
 70
   128
 43
0.0
 10
1759.1151106891
 20
178.1775299627
 10
1759.2476670397
 20
178.4720642857
 10
1759.7315941005
 20
178.8174161872
 10
1760.5494014866
 20
179.2011037498
 10
1761.6715315082
 20
179.6092595053
 10
1763.0574274628
 20
180.0271316412
 10
1764.6569994596
 20
180.4396171698
 10
1766.412434799
 20
180.8318077894
 10
1768.2602874741
 20
181.1895287091
 10
1770.1337712746
 20
181.4998509628
 10
1771.9651736148
 20
181.7515586958
 10
1773.6883028424
 20
181.9355545348
 10
1775.2408805775
 20
182.0451883907
 10
1776.5667926155
 20
182.0764978105
 10
1777.6181170408
 20
182.0283511899
 10
1778.3568562495
 20
181.9024886735
 10
1778.7563102818
 20
181.7034592603
 10
1778.8237972844
 20
181.578658112
  0
SPLINE
  5
1C6
330
1F
100
AcDbEntity
  8
0
  6
Continuous
 62
     7
370
    15
100
AcDbSpline
210
0.0
220
0.0
230
1.0
 70
     8
 71
     3
 72
    15
 73
    11
 74
     0
 42
0.000000001
 43
0.00000001
 40
0.0
 40
0.0
 40
0.0
 40
0.0
 40
0.1386822018193205
 40
0.2774471778051746
 40
0.4136743450001744
 40
0.5470070965156411
 40
0.6822456332804372
 40
0.821205979117159
 40
0.9600146554725486
 40
1.0
 40
1.0
 40
1.0
 40
1.0
 10
1621.986556933677
 20
568.8704899173682
 30
0.0
 10
1622.012222865296
 20
568.8326797422695
 30
0.0
 10
1622.06357004756
 20
568.7570368246073
 30
0.0
 10
1622.489912414801
 20
568.656834206813
 30
0.0
 10
1623.118498493809
 20
568.6176646120826
 30
0.0
 10
1623.893251410544
 20
568.6407844253332
 30
0.0
 10
1624.736529466393
 20
568.703903806031
 30
0.0
 10
1625.548284498589
 20
568.7624027301388
 30
0.0
 10
1626.129770909667
 20
568.787583911476
 30
0.0
 10
1626.33439508582
 20
568.7677392473133
 30
0.0
 10
1626.380157064557
 20
568.7633012033024
 30
0.0
  0
SPLINE
  5
1C7
330
1F
100
AcDbEntity
  8
0
  6
Continuous
 62
     7
370
    15
100
AcDbSpline
210
0.0
220
0.0
230
1.0
 70
     8
 71
     3
 72
    12
 73
     8
 74
     0
 42
0.000000001
 43
0.00000001
 40
0.0
 40
0.0
 40
0.0
 40
0.0
 40
0.1853113837961589
 40
0.4027963226402719
 40
0.6159190310498904
 40
0.8242884365879041
 40
1.0
 40
1.0
 40
1.0
 40
1.0
 10
1624.474320073496
 20
568.6857891277037
 30
0.0
 10
1624.234733151157
 20
568.7294630362932
 30
0.0
 10
1623.713962493176
 20
568.8243934685999
 30
0.0
 10
1622.987671657084
 20
568.9414520939997
 30
0.0
 10
1622.400531144663
 20
568.9877207749025
 30
0.0
 10
1622.049493029463
 20
568.9552348677764
 30
0.0
 10
1622.006311752018
 20
568.8970902502891
 30
0.0
 10
1621.986556933677
 20
568.8704899173681
 30
0.0
  0
SPLINE
  5
1C8
330
1F
100
AcDbEntity
  8
0
  6
Continuous
 62
     7
370
    15
100
AcDbSpline
210
0.0
220
0.0
230
1.0
 70
     8
 71
     3
 72
    12
 73
     8
 74
     0
 42
0.000000001
 43
0.00000001
 40
0.0
 40
0.0
 40
0.0
 40
0.0
 40
0.213379939673567
 40
0.4269347842065203
 40
0.6363621043852203
 40
0.8449526669837887
 40
1.0
 40
1.0
 40
1.0
 40
1.0
 10
1620.953441177609
 20
549.1574669615807
 30
0.0
 10
1620.97861214322
 20
549.1227724917546
 30
0.0
 10
1621.028974706769
 20
549.0533551134814
 30
0.0
 10
1621.449202194903
 20
548.989823695605
 30
0.0
 10
1622.069504014011
 20
548.9866165808951
 30
0.0
 10
1622.769266096578
 20
549.0303206339015
 30
0.0
 10
1623.246446685624
 20
549.0657840071585
 30
0.0
 10
1623.449906167133
 20
549.0809048224244
 30
0.0
  0
SPLINE
  5
1C9
330
1F
100
AcDbEntity
  8
0
  6
Continuous
 62
     7
370
    15
100
AcDbSpline
210
0.0
220
0.0
230
1.0
 70
     8
 71
     3
 72
    15
 73
    11
 74
     0
 42
0.000000001
 43
0.00000001
 40
0.0
 40
0.0
 40
0.0
 40
0.0
 40
0.0671410062865406
 40
0.2006770704063122
 40
0.3362483970220847
 40
0.4753029184233664
 40
0.6139852918442706
 40
0.7487256832938605
 40
0.8822059622393424
 40
0.9999999999999999
 40
0.9999999999999999
 40
0.9999999999999999
 40
0.9999999999999999
 10
1625.329629265566
 20
548.8066019627527
 30
0.0
 10
1625.246604921045
 20
548.8092693875799
 30
0.0
 10
1624.99845430263
 20
548.8172420264997
 30
0.0
 10
1624.38089074289
 20
548.9137555577256
 30
0.0
 10
1623.576715375712
 20
549.0600022430632
 30
0.0
 10
1622.73607172886
 20
549.2092743017929
 30
0.0
 10
1621.972125549121
 20
549.3025942847536
 30
0.0
 10
1621.383384338483
 20
549.3120721041292
 30
0.0
 10
1621.020989120724
 20
549.2503285592081
 30
0.0
 10
1620.975000178443
 20
549.1871052180313
 30
0.0
 10
1620.953441177609
 20
549.1574669615807
 30
0.0
  0
SPLINE
  5
1CA
330
1F
100
AcDbEntity
  8
0
  6
Continuous
 62
     7
370
    15
100
AcDbSpline
210
0.0
220
0.0
230
1.0
 70
     8
 71
     3
 72
    20
 73
    16
 74
     0
 42
0.000000001
 43
0.00000001
 40
0.0
 40
0.0
 40
0.0
 40
0.0
 40
0.035928487297181
 40
0.1208869958275199
 40
0.2069378877364312
 40
0.2952646033325949
 40
0.3836208867973367
 40
0.4695165229234633
 40
0.5543595444480645
 40
0.6411292386609715
 40
0.729843665345885
 40
0.8175365521927141
 40
0.9029135177657805
 40
0.9881876938115681
 40
1.0
 40
1.0
 40
1.0
 40
1.0
 10
1330.05129337116
 20
584.2919063891266
 30
0.0
 10
1330.134299323637
 20
584.2895997551432
 30
0.0
 10
1330.413585789215
 20
584.2818387255619
 30
0.0
 10
1331.056078138552
 20
584.1885698302253
 30
0.0
 10
1331.877254775872
 20
584.043681714238
 30
0.0
 10
1332.693303856388
 20
583.893535474401
 30
0.0
 10
1333.392539396523
 20
583.7980936575533
 30
0.0
 10
1333.890479338535
 20
583.7875978867253
 30
0.0
 10
1334.141226418033
 20
583.854505857772
 30
0.0
 10
1334.123491659802
 20
583.9663233531716
 30
0.0
 10
1333.825874752257
 20
584.0774610744932
 30
0.0
 10
1333.276073935236
 20
584.1434149449968
 30
0.0
 10
1332.551860594681
 20
584.1457040402595
 30
0.0
 10
1331.966254380365
 20
584.112257087665
 30
0.0
 10
1331.658976458393
 20
584.08958247469
 30
0.0
 10
1331.621590605947
 20
584.0868237026652
 30
0.0
  0
SPLINE
  5
1CB
330
1F
100
AcDbEntity
  8
0
  6
Continuous
 62
     7
370
    15
100
AcDbSpline
210
0.0
220
0.0
230
1.0
 70
     8
 71
     3
 72
    12
 73
     8
 74
     0
 42
0.000000001
 43
0.00000001
 40
0.0
 40
0.0
 40
0.0
 40
0.0
 40
0.0642238996392834
 40
0.3038426677749876
 40
0.5391795811133578
 40
0.7689028512501673
 40
0.9999999999999999
 40
0.9999999999999999
 40
0.9999999999999999
 40
0.9999999999999999
 10
1330.592258438296
 20
564.3757575824009
 30
0.0
 10
1330.66698789185
 20
564.3622354006629
 30
0.0
 10
1331.020532236818
 20
564.2982620854882
 30
0.0
 10
1331.646783109663
 20
564.2010626018961
 30
0.0
 10
1332.343730478816
 20
564.1422657879647
 30
0.0
 10
1332.861841891204
 20
564.1638503219947
 30
0.0
 10
1332.996805627855
 20
564.2234629252341
 30
0.0
 10
1333.064488684956
 20
564.253358090625
 30
0.0
  0
SPLINE
  5
1CC
330
1F
100
AcDbEntity
  8
0
  6
Continuous
 62
     7
370
    15
100
AcDbSpline
210
0.0
220
0.0
230
1.0
 70
     8
 71
     3
 72
    15
 73
    11
 74
     0
 42
0.000000001
 43
0.00000001
 40
0.0
 40
0.0
 40
0.0
 40
0.0
 40
0.0834180777385719
 40
0.233517390286871
 40
0.3798980618029657
 40
0.523478558510031
 40
0.6694816220202143
 40
0.819354415076098
 40
0.9686216922599792
 40
1.0
 40
1.0
 40
1.0
 40
1.0
 10
1333.059427506494
 20
564.2989014173703
 30
0.0
 10
1333.065469749349
 20
564.3186173703017
 30
0.0
 10
1333.082384173911
 20
564.3738094581605
 30
0.0
 10
1332.796608527342
 20
564.449227996551
 30
0.0
 10
1332.263339183122
 20
564.4779472821361
 30
0.0
 10
1331.543333981327
 20
564.4471942511533
 30
0.0
 10
1330.71721808286
 20
564.3814191152837
 30
0.0
 10
1329.88067167389
 20
564.3269895945291
 30
0.0
 10
1329.272013182697
 20
564.3075082838351
 30
0.0
 10
1329.03895124828
 20
564.3298559341792
 30
0.0
 10
1328.99846817141
 20
564.33373774203
 30
0.0
  0
ELLIPSE
  5
1CD
330
1F
100
AcDbEntity
  8
0
  6
Continuous
 62
     7
370
    15
100
AcDbEllipse
 10
1578.1672676925
 20
561.2833784271
 30
0.0
 11
11.90120335714437
 21
-0.6237156387437609
 31
0.0
210
0.0
220
0.0
230
1.0
 40
0.8390996312
 41
0.0
 42
1.570796326794907
  0
ELLIPSE
  5
1CE
330
1F
100
AcDbEntity
  8
0
  6
Continuous
 62
     7
370
    15
100
AcDbEllipse
 10
1578.1672676925
 20
561.2833784271
 30
0.0
 11
11.90120335714437
 21
-0.6237156387437609
 31
0.0
210
0.0
220
0.0
230
1.0
 40
0.8390996312
 41
4.712388980384692
 42
6.283185307179586
  0
ELLIPSE
  5
1CF
330
1F
100
AcDbEntity
  8
0
  6
Continuous
 62
     7
370
    15
100
AcDbEllipse
 10
1378.0329205403
 20
571.7719751196
 30
0.0
 11
0.5233595624295048
 21
9.98629534754582
 31
0.0
210
0.0
220
0.0
230
1.0
 40
0.8390996312
 41
0.0
 42
3.141592653589837
  0
SPLINE
  5
1D0
330
1F
100
AcDbEntity
  8
0
  6
Continuous
 62
     7
370
    15
100
AcDbSpline
210
0.0
220
0.0
230
1.0
 70
     8
 71
     3
 72
    17
 73
    13
 74
     0
 42
0.000000001
 43
0.00000001
 40
0.0
 40
0.0
 40
0.0
 40
0.0
 40
0.1029987413266042
 40
0.2059351177323025
 40
0.3106167715756006
 40
0.4173313483348461
 40
0.5224453811490927
 40
0.6247192817653194
 40
0.727388852870644
 40
0.8329938382576374
 40
0.9395976038665403
 40
1.0
 40
1.0
 40
1.0
 40
1.0
 10
1673.42935687027
 20
807.4936804070866
 30
0.0
 10
1673.438263553475
 20
807.5189200803081
 30
0.0
 10
1673.456071526958
 20
807.5693841443292
 30
0.0
 10
1673.635414192953
 20
807.9529963084657
 30
0.0
 10
1673.88182616628
 20
808.5287713675275
 30
0.0
 10
1674.148073347986
 20
809.2727446441055
 30
0.0
 10
1674.366924479537
 20
810.0950890106826
 30
0.0
 10
1674.504604196172
 20
810.8945841466398
 30
0.0
 10
1674.565148887727
 20
811.5951193110039
 30
0.0
 10
1674.572857602278
 20
812.1077110400125
 30
0.0
 10
1674.560292772566
 20
812.3756081910923
 30
0.0
 10
1674.554880840795
 20
812.3400218522141
 30
0.0
 10
1674.552923466031
 20
812.3271510687925
 30
0.0
  0
SPLINE
  5
1D1
330
1F
100
AcDbEntity
  8
0
  6
Continuous
 62
     7
370
    15
100
AcDbSpline
210
0.0
220
0.0
230
1.0
 70
     8
 71
     3
 72
    17
 73
    13
 74
     0
 42
0.000000001
 43
0.00000001
 40
0.0
 40
0.0
 40
0.0
 40
0.0
 40
0.1051322342069266
 40
0.210190143538421
 40
0.3171949945723046
 40
0.4257586590233324
 40
0.5321271717415098
 40
0.6359399111924295
 40
0.7408266357698384
 40
0.8486958108826564
 40
0.9569029282102193
 40
1.0
 40
1.0
 40
1.0
 40
1.0
 10
1694.039739694265
 20
807.8630324787824
 30
0.0
 10
1694.030454020866
 20
807.8533398154806
 30
0.0
 10
1694.011889238718
 20
807.833961341257
 30
0.0
 10
1693.833757087567
 20
807.4901639060835
 30
0.0
 10
1693.593714898574
 20
806.9430332744779
 30
0.0
 10
1693.339634680113
 20
806.214401910627
 30
0.0
 10
1693.134996603788
 20
805.3949630907969
 30
0.0
 10
1693.006258183304
 20
804.5847129311704
 30
0.0
 10
1692.945332019211
 20
803.8577940462854
 30
0.0
 10
1692.926803370814
 20
803.3143221046772
 30
0.0
 10
1692.923040421888
 20
803.0223030526832
 30
0.0
 10
1692.917649808881
 20
803.0305054940964
 30
0.0
 10
1692.916114361402
 20
803.0328418550953
 30
0.0
  0
ARC
  5
1D2
330
1F
100
AcDbEntity
  8
0
  6
Continuous
 62
     7
370
    15
100
AcDbCircle
 10
1698.9757800872
 20
873.6974871813
 30
0.0
 40
10.0
100
AcDbArc
 50
0.0
 51
167.0
  0
LWPOLYLINE
  5
1D3
330
1F
100
AcDbEntity
  8
0
  6
Continuous
 62
     7
370
    15
100
AcDbPolyline
 90
        3
 70
   128
 43
0.0
 10
1708.7194807351
 20
871.4479766378
 10
1708.7950670599
 20
871.8049747377
 10
1708.9757800872
 20
873.6974871813
  0
ENDSEC
  0
SECTION
  2
OBJECTS
  0
DICTIONARY
  5
C
330
0
100
AcDbDictionary
281
     1
  3
ACAD_DETAILVIEWSTYLE
350
1DB
  3
ACAD_GROUP
350
D
  3
ACAD_LAYOUT
350
1A
  3
ACAD_MATERIAL
350
43
  3
ACAD_MLEADERSTYLE
350
6B
  3
ACAD_MLINESTYLE
350
17
  3
ACAD_PLOTSETTINGS
350
19
  3
ACAD_PLOTSTYLENAME
350
E
  3
ACAD_SCALELIST
350
47
  3
ACAD_SECTIONVIEWSTYLE
350
1DC
  3
ACAD_TABLESTYLE
350
69
  3
ACAD_VISUALSTYLE
350
2A
  3
ACDB_RECOMPOSE_DATA
350
1D8
  3
AcDbVariableDictionary
350
1D4
  0
SUN
  5
6D
330
29
100
AcDbSun
 90
        1
290
     0
 63
     7
421
 16777215
 40
1.0
291
     1
 91
  2455826
 92
 54000000
292
     0
 70
     2
 71
   256
280
     1
  0
DICTIONARY
  5
1DB
102
{ACAD_REACTORS
330
C
102
}
330
C
100
AcDbDictionary
281
     1
  0
DICTIONARY
  5
D
102
{ACAD_REACTORS
330
C
102
}
330
C
100
AcDbDictionary
281
     1
  0
DICTIONARY
  5
1A
102
{ACAD_REACTORS
330
C
102
}
330
C
100
AcDbDictionary
281
     1
  3
Layout1
350
1E
  3
Layout2
350
26
  3
Model
350
22
  0
DICTIONARY
  5
43
102
{ACAD_REACTORS
330
C
102
}
330
C
100
AcDbDictionary
281
     1
  3
ByBlock
350
45
  3
ByLayer
350
44
  3
Global
350
46
  0
DICTIONARY
  5
6B
102
{ACAD_REACTORS
330
C
102
}
330
C
100
AcDbDictionary
281
     1
  3
Standard
350
6C
  0
DICTIONARY
  5
17
102
{ACAD_REACTORS
330
C
102
}
330
C
100
AcDbDictionary
281
     1
  3
Standard
350
18
  0
DICTIONARY
  5
19
102
{ACAD_REACTORS
330
C
102
}
330
C
100
AcDbDictionary
281
     1
  0
ACDBDICTIONARYWDFLT
  5
E
102
{ACAD_REACTORS
330
C
102
}
330
C
100
AcDbDictionary
281
     1
  3
Normal
350
F
100
AcDbDictionaryWithDefault
340
F
  0
DICTIONARY
  5
47
102
{ACAD_REACTORS
330
C
102
}
330
C
100
AcDbDictionary
281
     1
  3
A0
350
48
  3
A1
350
49
  3
A2
350
4A
  3
A3
350
4B
  3
A4
350
4C
  3
A5
350
4D
  3
A6
350
4E
  3
A7
350
4F
  3
A8
350
50
  3
A9
350
51
  3
B0
350
52
  3
B1
350
53
  3
B2
350
54
  3
B3
350
55
  3
B4
350
56
  3
B5
350
57
  3
B6
350
58
  3
B7
350
59
  3
B8
350
5A
  3
B9
350
5B
  3
C0
350
5C
  3
C1
350
5D
  3
C2
350
5E
  3
C3
350
5F
  3
C4
350
60
  3
C5
350
61
  3
C6
350
62
  3
C7
350
63
  3
C8
350
64
  3
C9
350
65
  3
D0
350
66
  3
D1
350
67
  3
D2
350
68
  0
DICTIONARY
  5
1DC
102
{ACAD_REACTORS
330
C
102
}
330
C
100
AcDbDictionary
281
     1
  0
DICTIONARY
  5
69
102
{ACAD_REACTORS
330
C
102
}
330
C
100
AcDbDictionary
281
     1
  3
Standard
350
6A
  0
DICTIONARY
  5
2A
102
{ACAD_REACTORS
330
C
102
}
330
C
100
AcDbDictionary
281
     1
  3
2dWireframe
350
2F
  3
Basic
350
32
  3
Brighten
350
36
  3
ColorChange
350
3A
  3
Conceptual
350
34
  3
Dim
350
35
  3
EdgeColorOff
350
3D
  3
Facepattern
350
39
  3
Flat
350
2B
  3
FlatWithEdges
350
2C
  3
Gouraud
350
2D
  3
GouraudWithEdges
350
2E
  3
Hidden
350
31
  3
JitterOff
350
3B
  3
Linepattern
350
38
  3
OverhangOff
350
3C
  3
Realistic
350
33
  3
Shaded
350
42
  3
Shaded with edges
350
41
  3
Shades of Gray
350
3E
  3
Sketchy
350
3F
  3
Thicken
350
37
  3
Wireframe
350
30
  3
X-Ray
350
40
  0
XRECORD
  5
1D8
102
{ACAD_REACTORS
330
C
102
}
330
C
100
AcDbXrecord
280
     1
 90
        1
330
6A
  0
DICTIONARY
  5
1D4
102
{ACAD_REACTORS
330
C
102
}
330
C
100
AcDbDictionary
281
     1
  3
CANNOSCALE
350
1D5
  3
CMLEADERSTYLE
350
1DA
  3
CTABLESTYLE
350
1D9
  0
LAYOUT
  5
1E
102
{ACAD_REACTORS
330
1A
102
}
330
1A
100
AcDbPlotSettings
  1

  2
none_device
  4

  6

 40
0.0
 41
0.0
 42
0.0
 43
0.0
 44
0.0
 45
0.0
 46
0.0
 47
0.0
 48
0.0
 49
0.0
140
0.0
141
0.0
142
1.0
143
1.0
 70
   688
 72
     1
 73
     0
 74
     5
  7

 75
    16
 76
     0
 77
     2
 78
   300
147
1.0
148
0.0
149
0.0
100
AcDbLayout
  1
Layout1
 70
     1
 71
     1
 10
0.0
 20
0.0
 11
420.0
 21
297.0
 12
0.0
 22
0.0
 32
0.0
 14
1.0000000000E+20
 24
1.0000000000E+20
 34
1.0000000000E+20
 15
-1.0000000000E+20
 25
-1.0000000000E+20
 35
-1.0000000000E+20
146
0.0
 13
0.0
 23
0.0
 33
0.0
 16
1.0
 26
0.0
 36
0.0
 17
0.0
 27
1.0
 37
0.0
 76
     0
330
1B
  0
LAYOUT
  5
26
102
{ACAD_REACTORS
330
1A
102
}
330
1A
100
AcDbPlotSettings
  1

  2
none_device
  4

  6

 40
0.0
 41
0.0
 42
0.0
 43
0.0
 44
0.0
 45
0.0
 46
0.0
 47
0.0
 48
0.0
 49
0.0
140
0.0
141
0.0
142
1.0
143
1.0
 70
   688
 72
     1
 73
     0
 74
     5
  7

 75
    16
 76
     0
 77
     2
 78
   300
147
1.0
148
0.0
149
0.0
100
AcDbLayout
  1
Layout2
 70
     1
 71
     2
 10
0.0
 20
0.0
 11
0.0
 21
0.0
 12
0.0
 22
0.0
 32
0.0
 14
0.0
 24
0.0
 34
0.0
 15
0.0
 25
0.0
 35
0.0
146
0.0
 13
0.0
 23
0.0
 33
0.0
 16
1.0
 26
0.0
 36
0.0
 17
0.0
 27
1.0
 37
0.0
 76
     0
330
23
  0
LAYOUT
  5
22
102
{ACAD_REACTORS
330
1A
102
}
330
1A
100
AcDbPlotSettings
  1

  2
none_device
  4
Letter_(8.50_x_11.00_Inches)
  6

 40
6.35
 41
6.35
 42
6.35000508
 43
6.35000508
 44
215.9
 45
279.4
 46
0.0
 47
0.0
 48
0.0
 49
0.0
140
0.0
141
0.0
142
1.0
143
1.0
 70
  1712
 72
     1
 73
     0
 74
     0
  7

 75
     0
 76
     0
 77
     2
 78
   300
147
1.0
148
0.0
149
0.0
100
AcDbLayout
  1
Model
 70
     1
 71
     0
 10
0.0
 20
0.0
 11
2000.0
 21
2000.0
 12
0.0
 22
0.0
 32
0.0
 14
0.0
 24
0.0
 34
0.0
 15
2000.0
 25
2000.0
 35
0.0
146
0.0
 13
0.0
 23
0.0
 33
0.0
 16
1.0
 26
0.0
 36
0.0
 17
0.0
 27
1.0
 37
0.0
 76
     0
330
1F
331
29
  0
MATERIAL
  5
45
102
{ACAD_REACTORS
330
43
102
}
330
43
100
AcDbMaterial
  1
ByBlock
 72
     1
 94
      127
  0
MATERIAL
  5
44
102
{ACAD_REACTORS
330
43
102
}
330
43
100
AcDbMaterial
  1
ByLayer
 72
     1
 94
      127
  0
MATERIAL
  5
46
102
{ACAD_REACTORS
330
43
102
}
330
43
100
AcDbMaterial
  1
Global
 72
     1
 94
      127
  0
MLEADERSTYLE
  5
6C
102
{ACAD_REACTORS
330
6B
102
}
330
6B
100
AcDbMLeaderStyle
179
     2
170
     2
171
     1
172
     0
 90
        2
 40
0.0
 41
0.0
173
     1
 91
-1056964608
340
14
 92
       -2
290
     1
 42
2.0
291
     1
 43
8.0
  3
Standard
341
0
 44
4.0
300

342
11
174
     1
178
     6
175
     1
176
     0
 93
-1056964608
 45
4.0
292
     0
297
     0
 46
4.0
343
0
 94
-1056964608
 47
1.0
 49
1.0
140
1.0
293
     1
141
0.0
294
     1
177
     0
142
1.0
295
     0
296
     0
143
3.75
271
     0
272
     9
273
     9
  0
MLINESTYLE
  5
18
102
{ACAD_REACTORS
330
17
102
}
330
17
100
AcDbMlineStyle
  2
Standard
 70
     0
  3

 62
   256
 51
90.0
 52
90.0
 71
     2
 49
0.5
 62
   256
  6
BYLAYER
 49
-0.5
 62
   256
  6
BYLAYER
  0
ACDBPLACEHOLDER
  5
F
102
{ACAD_REACTORS
330
E
102
}
330
E
  0
SCALE
  5
48
102
{ACAD_REACTORS
330
47
102
}
330
47
100
AcDbScale
 70
     0
300
1:1
140
1.0
141
1.0
290
     1
  0
SCALE
  5
49
102
{ACAD_REACTORS
330
47
102
}
330
47
100
AcDbScale
 70
     0
300
1:2
140
1.0
141
2.0
290
     0
  0
SCALE
  5
4A
102
{ACAD_REACTORS
330
47
102
}
330
47
100
AcDbScale
 70
     0
300
1:4
140
1.0
141
4.0
290
     0
  0
SCALE
  5
4B
102
{ACAD_REACTORS
330
47
102
}
330
47
100
AcDbScale
 70
     0
300
1:5
140
1.0
141
5.0
290
     0
  0
SCALE
  5
4C
102
{ACAD_REACTORS
330
47
102
}
330
47
100
AcDbScale
 70
     0
300
1:8
140
1.0
141
8.0
290
     0
  0
SCALE
  5
4D
102
{ACAD_REACTORS
330
47
102
}
330
47
100
AcDbScale
 70
     0
300
1:10
140
1.0
141
10.0
290
     0
  0
SCALE
  5
4E
102
{ACAD_REACTORS
330
47
102
}
330
47
100
AcDbScale
 70
     0
300
1:16
140
1.0
141
16.0
290
     0
  0
SCALE
  5
4F
102
{ACAD_REACTORS
330
47
102
}
330
47
100
AcDbScale
 70
     0
300
1:20
140
1.0
141
20.0
290
     0
  0
SCALE
  5
50
102
{ACAD_REACTORS
330
47
102
}
330
47
100
AcDbScale
 70
     0
300
1:30
140
1.0
141
30.0
290
     0
  0
SCALE
  5
51
102
{ACAD_REACTORS
330
47
102
}
330
47
100
AcDbScale
 70
     0
300
1:40
140
1.0
141
40.0
290
     0
  0
SCALE
  5
52
102
{ACAD_REACTORS
330
47
102
}
330
47
100
AcDbScale
 70
     0
300
1:50
140
1.0
141
50.0
290
     0
  0
SCALE
  5
53
102
{ACAD_REACTORS
330
47
102
}
330
47
100
AcDbScale
 70
     0
300
1:100
140
1.0
141
100.0
290
     0
  0
SCALE
  5
54
102
{ACAD_REACTORS
330
47
102
}
330
47
100
AcDbScale
 70
     0
300
2:1
140
2.0
141
1.0
290
     0
  0
SCALE
  5
55
102
{ACAD_REACTORS
330
47
102
}
330
47
100
AcDbScale
 70
     0
300
4:1
140
4.0
141
1.0
290
     0
  0
SCALE
  5
56
102
{ACAD_REACTORS
330
47
102
}
330
47
100
AcDbScale
 70
     0
300
8:1
140
8.0
141
1.0
290
     0
  0
SCALE
  5
57
102
{ACAD_REACTORS
330
47
102
}
330
47
100
AcDbScale
 70
     0
300
10:1
140
10.0
141
1.0
290
     0
  0
SCALE
  5
58
102
{ACAD_REACTORS
330
47
102
}
330
47
100
AcDbScale
 70
     0
300
100:1
140
100.0
141
1.0
290
     0
  0
SCALE
  5
59
102
{ACAD_REACTORS
330
47
102
}
330
47
100
AcDbScale
 70
     0
300
1/128" = 1'-0"
140
0.0078125
141
12.0
290
     0
  0
SCALE
  5
5A
102
{ACAD_REACTORS
330
47
102
}
330
47
100
AcDbScale
 70
     0
300
1/64" = 1'-0"
140
0.015625
141
12.0
290
     0
  0
SCALE
  5
5B
102
{ACAD_REACTORS
330
47
102
}
330
47
100
AcDbScale
 70
     0
300
1/32" = 1'-0"
140
0.03125
141
12.0
290
     0
  0
SCALE
  5
5C
102
{ACAD_REACTORS
330
47
102
}
330
47
100
AcDbScale
 70
     0
300
1/16" = 1'-0"
140
0.0625
141
12.0
290
     0
  0
SCALE
  5
5D
102
{ACAD_REACTORS
330
47
102
}
330
47
100
AcDbScale
 70
     0
300
3/32" = 1'-0"
140
0.09375
141
12.0
290
     0
  0
SCALE
  5
5E
102
{ACAD_REACTORS
330
47
102
}
330
47
100
AcDbScale
 70
     0
300
1/8" = 1'-0"
140
0.125
141
12.0
290
     0
  0
SCALE
  5
5F
102
{ACAD_REACTORS
330
47
102
}
330
47
100
AcDbScale
 70
     0
300
3/16" = 1'-0"
140
0.1875
141
12.0
290
     0
  0
SCALE
  5
60
102
{ACAD_REACTORS
330
47
102
}
330
47
100
AcDbScale
 70
     0
300
1/4" = 1'-0"
140
0.25
141
12.0
290
     0
  0
SCALE
  5
61
102
{ACAD_REACTORS
330
47
102
}
330
47
100
AcDbScale
 70
     0
300
3/8" = 1'-0"
140
0.375
141
12.0
290
     0
  0
SCALE
  5
62
102
{ACAD_REACTORS
330
47
102
}
330
47
100
AcDbScale
 70
     0
300
1/2" = 1'-0"
140
0.5
141
12.0
290
     0
  0
SCALE
  5
63
102
{ACAD_REACTORS
330
47
102
}
330
47
100
AcDbScale
 70
     0
300
3/4" = 1'-0"
140
0.75
141
12.0
290
     0
  0
SCALE
  5
64
102
{ACAD_REACTORS
330
47
102
}
330
47
100
AcDbScale
 70
     0
300
1" = 1'-0"
140
1.0
141
12.0
290
     0
  0
SCALE
  5
65
102
{ACAD_REACTORS
330
47
102
}
330
47
100
AcDbScale
 70
     0
300
1-1/2" = 1'-0"
140
1.5
141
12.0
290
     0
  0
SCALE
  5
66
102
{ACAD_REACTORS
330
47
102
}
330
47
100
AcDbScale
 70
     0
300
3" = 1'-0"
140
3.0
141
12.0
290
     0
  0
SCALE
  5
67
102
{ACAD_REACTORS
330
47
102
}
330
47
100
AcDbScale
 70
     0
300
6" = 1'-0"
140
6.0
141
12.0
290
     0
  0
SCALE
  5
68
102
{ACAD_REACTORS
330
47
102
}
330
47
100
AcDbScale
 70
     0
300
1'-0" = 1'-0"
140
12.0
141
12.0
290
     0
  0
TABLESTYLE
  5
6A
102
{ACAD_REACTORS
330
69
102
}
102
{ACAD_XDICTIONARY
360
1D6
102
}
330
69
100
AcDbTableStyle
  3
Standard
 70
     0
 71
     0
 40
0.06
 41
0.06
280
     0
281
     0
  7
Standard
140
4.5
170
     2
 62
     0
 63
   257
283
     0
 90
        4
 91
        0
  1

274
    -2
284
     1
 64
     0
275
    -2
285
     1
 65
     0
276
    -2
286
     1
 66
     0
277
    -2
287
     1
 67
     0
278
    -2
288
     1
 68
     0
279
    -2
289
     1
 69
     0
  7
Standard
140
6.0
170
     5
 62
     0
 63
   257
283
     0
 90
        4
 91
        0
  1

274
    -2
284
     1
 64
     0
275
    -2
285
     1
 65
     0
276
    -2
286
     1
 66
     0
277
    -2
287
     1
 67
     0
278
    -2
288
     1
 68
     0
279
    -2
289
     1
 69
     0
  7
Standard
140
4.5
170
     5
 62
     0
 63
   257
283
     0
 90
        4
 91
        0
  1

274
    -2
284
     1
 64
     0
275
    -2
285
     1
 65
     0
276
    -2
286
     1
 66
     0
277
    -2
287
     1
 67
     0
278
    -2
288
     1
 68
     0
279
    -2
289
     1
 69
     0
  0
VISUALSTYLE
  5
2F
102
{ACAD_REACTORS
330
2A
102
}
330
2A
100
AcDbVisualStyle
  2
2dWireframe
 70
     4
177
     2
291
     0
 71
     0
176
     1
 72
     2
176
     1
 73
     0
176
     1
 90
        0
176
     1
 40
0.6
176
     1
 41
30.0
176
     1
 62
     5
 63
     7
421
 16777215
176
     1
 74
     1
176
     1
 91
        4
176
     1
 64
     7
176
     1
 65
   257
176
     1
 75
     1
176
     1
175
     1
176
     1
 42
1.0
176
     1
 92
        0
176
     1
 66
   257
176
     1
 43
1.0
176
     1
 76
     1
176
     1
 77
     6
176
     1
 78
     2
176
     1
 67
     7
176
     1
 79
     5
176
     1
170
     0
176
     1
171
     0
176
     1
290
     0
176
     1
 93
        1
176
     1
 44
0.0
176
     1
173
     0
176
     1
  0
VISUALSTYLE
  5
32
102
{ACAD_REACTORS
330
2A
102
}
330
2A
100
AcDbVisualStyle
  2
Basic
 70
     7
177
     2
291
     1
 71
     1
176
     1
 72
     0
176
     1
 73
     1
176
     1
 90
        0
176
     1
 40
0.6
176
     1
 41
30.0
176
     1
 62
     5
 63
     7
421
 16777215
176
     1
 74
     0
176
     1
 91
        4
176
     1
 64
     7
176
     1
 65
   257
176
     1
 75
     1
176
     1
175
     1
176
     1
 42
1.0
176
     1
 92
        8
176
     1
 66
     7
176
     1
 43
1.0
176
     1
 76
     1
176
     1
 77
     6
176
     1
 78
     2
176
     1
 67
     7
176
     1
 79
     5
176
     1
170
     0
176
     1
171
     0
176
     1
290
     0
176
     1
 93
        1
176
     1
 44
0.0
176
     1
173
     0
176
     1
  0
VISUALSTYLE
  5
36
102
{ACAD_REACTORS
330
2A
102
}
330
2A
100
AcDbVisualStyle
  2
Brighten
 70
    12
177
     2
291
     1
 71
     2
176
     1
 72
     2
176
     1
 73
     0
176
     1
 90
        0
176
     1
 40
0.6
176
     1
 41
30.0
176
     1
 62
     5
 63
     7
421
 16777215
176
     1
 74
     1
176
     1
 91
        4
176
     1
 64
     7
176
     1
 65
   257
176
     1
 75
     1
176
     1
175
     1
176
     1
 42
1.0
176
     1
 92
        8
176
     1
 66
     7
176
     1
 43
1.0
176
     1
 76
     1
176
     1
 77
     6
176
     1
 78
     2
176
     1
 67
     7
176
     1
 79
     5
176
     1
170
     0
176
     1
171
     0
176
     1
290
     0
176
     1
 93
        1
176
     1
 44
50.0
176
     1
173
     0
176
     1
  0
VISUALSTYLE
  5
3A
102
{ACAD_REACTORS
330
2A
102
}
330
2A
100
AcDbVisualStyle
  2
ColorChange
 70
    16
177
     2
291
     1
 71
     2
176
     1
 72
     2
176
     1
 73
     3
176
     1
 90
        0
176
     1
 40
0.6
176
     1
 41
30.0
176
     1
 62
     5
 63
     8
421
  8421504
176
     1
 74
     1
176
     1
 91
        4
176
     1
 64
     7
176
     1
 65
   257
176
     1
 75
     1
176
     1
175
     1
176
     1
 42
1.0
176
     1
 92
        8
176
     1
 66
     8
424
  8421504
176
     1
 43
1.0
176
     1
 76
     1
176
     1
 77
     6
176
     1
 78
     2
176
     1
 67
     7
176
     1
 79
     5
176
     1
170
     0
176
     1
171
     0
176
     1
290
     0
176
     1
 93
        1
176
     1
 44
0.0
176
     1
173
     0
176
     1
  0
VISUALSTYLE
  5
34
102
{ACAD_REACTORS
330
2A
102
}
330
2A
100
AcDbVisualStyle
  2
Conceptual
 70
     9
177
     2
291
     0
 71
     3
176
     1
 72
     2
176
     1
 73
     0
176
     1
 90
        0
176
     1
 40
0.6
176
     1
 41
30.0
176
     1
 62
     5
 63
     7
421
 16777215
176
     1
 74
     2
176
     1
 91
        2
176
     1
 64
     7
176
     1
 65
   257
176
     1
 75
     1
176
     1
175
     1
176
     1
 42
179.0
176
     1
 92
        8
176
     1
 66
     7
176
     1
 43
1.0
176
     1
 76
     1
176
     1
 77
     6
176
     1
 78
     2
176
     1
 67
     7
176
     1
 79
     3
176
     1
170
     0
176
     1
171
     0
176
     1
290
     0
176
     1
 93
        1
176
     1
 44
0.0
176
     1
173
     0
176
     1
  0
VISUALSTYLE
  5
35
102
{ACAD_REACTORS
330
2A
102
}
330
2A
100
AcDbVisualStyle
  2
Dim
 70
    11
177
     2
291
     1
 71
     2
176
     1
 72
     2
176
     1
 73
     0
176
     1
 90
        0
176
     1
 40
0.6
176
     1
 41
30.0
176
     1
 62
     5
 63
     7
421
 16777215
176
     1
 74
     1
176
     1
 91
        4
176
     1
 64
     7
176
     1
 65
   257
176
     1
 75
     1
176
     1
175
     1
176
     1
 42
1.0
176
     1
 92
        8
176
     1
 66
     7
176
     1
 43
1.0
176
     1
 76
     1
176
     1
 77
     6
176
     1
 78
     2
176
     1
 67
     7
176
     1
 79
     5
176
     1
170
     0
176
     1
171
     0
176
     1
290
     0
176
     1
 93
        1
176
     1
 44
-50.0
176
     1
173
     0
176
     1
  0
VISUALSTYLE
  5
3D
102
{ACAD_REACTORS
330
2A
102
}
330
2A
100
AcDbVisualStyle
  2
EdgeColorOff
 70
    22
177
     2
291
     1
 71
     2
176
     0
 72
     2
176
     0
 73
     0
176
     0
 90
        0
176
     0
 40
0.6
176
     0
 41
30.0
176
     0
 62
     5
 63
     7
421
 16777215
176
     0
 74
     1
176
     0
 91
        4
176
     0
 64
     7
176
     0
 65
   257
176
     0
 75
     1
176
     0
175
     1
176
     0
 42
1.0
176
     0
 92
        8
176
     2
 66
     7
176
     0
 43
1.0
176
     0
 76
     1
176
     0
 77
     6
176
     0
 78
     2
176
     0
 67
     7
176
     0
 79
     5
176
     0
170
     0
176
     0
171
     0
176
     0
290
     0
176
     0
 93
        1
176
     0
 44
0.0
176
     0
173
     0
176
     0
  0
VISUALSTYLE
  5
39
102
{ACAD_REACTORS
330
2A
102
}
330
2A
100
AcDbVisualStyle
  2
Facepattern
 70
    15
177
     2
291
     1
 71
     2
176
     1
 72
     2
176
     1
 73
     0
176
     1
 90
        0
176
     1
 40
0.6
176
     1
 41
30.0
176
     1
 62
     5
 63
     7
421
 16777215
176
     1
 74
     1
176
     1
 91
        4
176
     1
 64
     7
176
     1
 65
   257
176
     1
 75
     1
176
     1
175
     1
176
     1
 42
1.0
176
     1
 92
        8
176
     1
 66
     7
176
     1
 43
1.0
176
     1
 76
     1
176
     1
 77
     6
176
     1
 78
     2
176
     1
 67
     7
176
     1
 79
     5
176
     1
170
     0
176
     1
171
     0
176
     1
290
     0
176
     1
 93
        1
176
     1
 44
0.0
176
     1
173
     0
176
     1
  0
VISUALSTYLE
  5
2B
102
{ACAD_REACTORS
330
2A
102
}
330
2A
100
AcDbVisualStyle
  2
Flat
 70
     0
177
     2
291
     1
 71
     2
176
     1
 72
     1
176
     1
 73
     1
176
     1
 90
        2
176
     1
 40
0.6
176
     1
 41
30.0
176
     1
 62
     5
 63
     7
421
 16777215
176
     1
 74
     0
176
     1
 91
        0
176
     1
 64
     7
176
     1
 65
   257
176
     1
 75
     1
176
     1
175
     1
176
     1
 42
1.0
176
     1
 92
        8
176
     1
 66
     7
176
     1
 43
1.0
176
     1
 76
     1
176
     1
 77
     6
176
     1
 78
     2
176
     1
 67
     7
176
     1
 79
     5
176
     1
170
     0
176
     1
171
     0
176
     1
290
     0
176
     1
 93
       13
176
     1
 44
0.0
176
     1
173
     0
176
     1
  0
VISUALSTYLE
  5
2C
102
{ACAD_REACTORS
330
2A
102
}
330
2A
100
AcDbVisualStyle
  2
FlatWithEdges
 70
     1
177
     2
291
     1
 71
     2
176
     1
 72
     1
176
     1
 73
     1
176
     1
 90
        2
176
     1
 40
0.6
176
     1
 41
30.0
176
     1
 62
     5
 63
     7
421
 16777215
176
     1
 74
     1
176
     1
 91
        0
176
     1
 64
     7
176
     1
 65
   257
176
     1
 75
     1
176
     1
175
     1
176
     1
 42
1.0
176
     1
 92
        0
176
     1
 66
   257
176
     1
 43
1.0
176
     1
 76
     1
176
     1
 77
     6
176
     1
 78
     2
176
     1
 67
     7
176
     1
 79
     5
176
     1
170
     0
176
     1
171
     0
176
     1
290
     0
176
     1
 93
       13
176
     1
 44
0.0
176
     1
173
     0
176
     1
  0
VISUALSTYLE
  5
2D
102
{ACAD_REACTORS
330
2A
102
}
330
2A
100
AcDbVisualStyle
  2
Gouraud
 70
     2
177
     2
291
     1
 71
     2
176
     1
 72
     2
176
     1
 73
     1
176
     1
 90
        2
176
     1
 40
0.6
176
     1
 41
30.0
176
     1
 62
     5
 63
     7
421
 16777215
176
     1
 74
     0
176
     1
 91
        0
176
     1
 64
     7
176
     1
 65
   257
176
     1
 75
     1
176
     1
175
     1
176
     1
 42
1.0
176
     1
 92
        0
176
     1
 66
     7
176
     1
 43
1.0
176
     1
 76
     1
176
     1
 77
     6
176
     1
 78
     2
176
     1
 67
     7
176
     1
 79
     5
176
     1
170
     0
176
     1
171
     0
176
     1
290
     0
176
     1
 93
       13
176
     1
 44
0.0
176
     1
173
     0
176
     1
  0
VISUALSTYLE
  5
2E
102
{ACAD_REACTORS
330
2A
102
}
330
2A
100
AcDbVisualStyle
  2
GouraudWithEdges
 70
     3
177
     2
291
     1
 71
     2
176
     1
 72
     2
176
     1
 73
     1
176
     1
 90
        2
176
     1
 40
0.6
176
     1
 41
30.0
176
     1
 62
     5
 63
     7
421
 16777215
176
     1
 74
     1
176
     1
 91
        0
176
     1
 64
     7
176
     1
 65
   257
176
     1
 75
     1
176
     1
175
     1
176
     1
 42
1.0
176
     1
 92
        0
176
     1
 66
   257
176
     1
 43
1.0
176
     1
 76
     1
176
     1
 77
     6
176
     1
 78
     2
176
     1
 67
     7
176
     1
 79
     5
176
     1
170
     0
176
     1
171
     0
176
     1
290
     0
176
     1
 93
       13
176
     1
 44
0.0
176
     1
173
     0
176
     1
  0
VISUALSTYLE
  5
31
102
{ACAD_REACTORS
330
2A
102
}
330
2A
100
AcDbVisualStyle
  2
Hidden
 70
     6
177
     2
291
     0
 71
     1
176
     1
 72
     2
176
     1
 73
     2
176
     1
 90
        0
176
     1
 40
0.6
176
     1
 41
30.0
176
     1
 62
     5
 63
     7
421
 16777215
176
     1
 74
     2
176
     1
 91
        2
176
     1
 64
     7
176
     1
 65
   257
176
     1
 75
     2
176
     1
175
     1
176
     1
 42
40.0
176
     1
 92
        0
176
     1
 66
   257
176
     1
 43
1.0
176
     1
 76
     1
176
     1
 77
     6
176
     1
 78
     2
176
     1
 67
     7
176
     1
 79
     3
176
     1
170
     0
176
     1
171
     0
176
     1
290
     0
176
     1
 93
        1
176
     1
 44
0.0
176
     1
173
     0
176
     1
  0
VISUALSTYLE
  5
3B
102
{ACAD_REACTORS
330
2A
102
}
330
2A
100
AcDbVisualStyle
  2
JitterOff
 70
    20
177
     2
291
     1
 71
     2
176
     0
 72
     2
176
     0
 73
     0
176
     0
 90
        0
176
     0
 40
0.6
176
     0
 41
30.0
176
     0
 62
     5
 63
     7
421
 16777215
176
     0
 74
     1
176
     0
 91
        4
176
     0
 64
     7
176
     0
 65
   257
176
     0
 75
     1
176
     0
175
     1
176
     0
 42
1.0
176
     0
 92
       10
176
     2
 66
     7
176
     0
 43
1.0
176
     0
 76
     1
176
     0
 77
     6
176
     0
 78
     2
176
     0
 67
     7
176
     0
 79
     5
176
     0
170
     0
176
     0
171
     0
176
     0
290
     0
176
     0
 93
        1
176
     0
 44
0.0
176
     0
173
     0
176
     0
  0
VISUALSTYLE
  5
38
102
{ACAD_REACTORS
330
2A
102
}
330
2A
100
AcDbVisualStyle
  2
Linepattern
 70
    14
177
     2
291
     1
 71
     2
176
     1
 72
     2
176
     1
 73
     0
176
     1
 90
        0
176
     1
 40
0.6
176
     1
 41
30.0
176
     1
 62
     5
 63
     7
421
 16777215
176
     1
 74
     1
176
     1
 91
        4
176
     1
 64
     7
176
     1
 65
   257
176
     1
 75
     7
176
     1
175
     7
176
     1
 42
1.0
176
     1
 92
        8
176
     1
 66
     7
176
     1
 43
1.0
176
     1
 76
     1
176
     1
 77
     6
176
     1
 78
     2
176
     1
 67
     7
176
     1
 79
     5
176
     1
170
     0
176
     1
171
     0
176
     1
290
     0
176
     1
 93
        1
176
     1
 44
0.0
176
     1
173
     0
176
     1
  0
VISUALSTYLE
  5
3C
102
{ACAD_REACTORS
330
2A
102
}
330
2A
100
AcDbVisualStyle
  2
OverhangOff
 70
    21
177
     2
291
     1
 71
     2
176
     0
 72
     2
176
     0
 73
     0
176
     0
 90
        0
176
     0
 40
0.6
176
     0
 41
30.0
176
     0
 62
     5
 63
     7
421
 16777215
176
     0
 74
     1
176
     0
 91
        4
176
     0
 64
     7
176
     0
 65
   257
176
     0
 75
     1
176
     0
175
     1
176
     0
 42
1.0
176
     0
 92
        9
176
     2
 66
     7
176
     0
 43
1.0
176
     0
 76
     1
176
     0
 77
     6
176
     0
 78
     2
176
     0
 67
     7
176
     0
 79
     5
176
     0
170
     0
176
     0
171
     0
176
     0
290
     0
176
     0
 93
        1
176
     0
 44
0.0
176
     0
173
     0
176
     0
  0
VISUALSTYLE
  5
33
102
{ACAD_REACTORS
330
2A
102
}
330
2A
100
AcDbVisualStyle
  2
Realistic
 70
     8
177
     2
291
     0
 71
     2
176
     1
 72
     3
176
     1
 73
     0
176
     1
 90
        2
176
     1
 40
0.6
176
     1
 41
30.0
176
     1
 62
     5
 63
     7
421
 16777215
176
     1
 74
     0
176
     1
 91
        0
176
     1
 64
     7
176
     1
 65
   257
176
     1
 75
     1
176
     1
175
     1
176
     1
 42
1.0
176
     1
 92
        8
176
     1
 66
   257
176
     1
 43
1.0
176
     1
 76
     1
176
     1
 77
     6
176
     1
 78
     2
176
     1
 67
     7
176
     1
 79
     3
176
     1
170
     0
176
     1
171
     0
176
     1
290
     0
176
     1
 93
       13
176
     1
 44
0.0
176
     1
173
     0
176
     1
  0
VISUALSTYLE
  5
42
102
{ACAD_REACTORS
330
2A
102
}
330
2A
100
AcDbVisualStyle
  2
Shaded
 70
    27
177
     2
291
     0
 71
     2
176
     1
 72
     2
176
     1
 73
     1
176
     1
 90
        2
176
     1
 40
0.6
176
     1
 41
30.0
176
     1
 62
     5
 63
     7
421
 16777215
176
     1
 74
     0
176
     1
 91
        4
176
     1
 64
     7
176
     1
 65
   257
176
     1
 75
     1
176
     1
175
     1
176
     1
 42
1.0
176
     1
 92
        8
176
     1
 66
   257
176
     1
 43
1.0
176
     1
 76
     1
176
     1
 77
     6
176
     1
 78
     2
176
     1
 67
     8
425
  7895160
176
     1
 79
     3
176
     1
170
     0
176
     1
171
     0
176
     1
290
     0
176
     1
 93
        5
176
     1
 44
0.0
176
     1
173
     0
176
     1
  0
VISUALSTYLE
  5
41
102
{ACAD_REACTORS
330
2A
102
}
330
2A
100
AcDbVisualStyle
  2
Shaded with edges
 70
    26
177
     2
291
     0
 71
     2
176
     1
 72
     2
176
     1
 73
     1
176
     1
 90
        2
176
     1
 40
0.6
176
     1
 41
30.0
176
     1
 62
     5
 63
     7
421
 16777215
176
     1
 74
     1
176
     1
 91
       10
176
     1
 64
     7
176
     1
 65
   257
176
     1
 75
     2
176
     1
175
     1
176
     1
 42
1.0
176
     1
 92
        8
176
     1
 66
   257
176
     1
 43
1.0
176
     1
 76
     1
176
     1
 77
     6
176
     1
 78
     2
176
     1
 67
     7
176
     1
 79
     3
176
     1
170
     0
176
     1
171
     0
176
     1
290
     0
176
     1
 93
        5
176
     1
 44
0.0
176
     1
173
     0
176
     1
  0
VISUALSTYLE
  5
3E
102
{ACAD_REACTORS
330
2A
102
}
330
2A
100
AcDbVisualStyle
  2
Shades of Gray
 70
    23
177
     2
291
     0
 71
     2
176
     1
 72
     2
176
     1
 73
     3
176
     1
 90
        0
176
     1
 40
0.6
176
     1
 41
30.0
176
     1
 62
     5
 63
     7
421
 16777215
176
     1
 74
     2
176
     1
 91
        2
176
     1
 64
     7
176
     1
 65
     7
176
     1
 75
     1
176
     1
175
     1
176
     1
 42
40.0
176
     1
 92
        8
176
     1
 66
     7
176
     1
 43
1.0
176
     1
 76
     1
176
     1
 77
     6
176
     1
 78
     2
176
     1
 67
     7
176
     1
 79
     3
176
     1
170
     0
176
     1
171
     0
176
     1
290
     0
176
     1
 93
        1
176
     1
 44
0.0
176
     1
173
     0
176
     1
  0
VISUALSTYLE
  5
3F
102
{ACAD_REACTORS
330
2A
102
}
330
2A
100
AcDbVisualStyle
  2
Sketchy
 70
    24
177
     2
291
     0
 71
     1
176
     1
 72
     2
176
     1
 73
     2
176
     1
 90
        0
176
     1
 40
0.6
176
     1
 41
30.0
176
     1
 62
     5
 63
     7
421
 16777215
176
     1
 74
     2
176
     1
 91
        2
176
     1
 64
     7
176
     1
 65
     7
176
     1
 75
     1
176
     1
175
     1
176
     1
 42
40.0
176
     1
 92
       11
176
     1
 66
     7
176
     1
 43
1.0
176
     1
 76
     1
176
     1
 77
     6
176
     1
 78
     2
176
     1
 67
     7
176
     1
 79
     6
176
     1
170
     0
176
     1
171
     0
176
     1
290
     0
176
     1
 93
        1
176
     1
 44
0.0
176
     1
173
     0
176
     1
  0
VISUALSTYLE
  5
37
102
{ACAD_REACTORS
330
2A
102
}
330
2A
100
AcDbVisualStyle
  2
Thicken
 70
    13
177
     2
291
     1
 71
     2
176
     1
 72
     2
176
     1
 73
     0
176
     1
 90
        0
176
     1
 40
0.6
176
     1
 41
30.0
176
     1
 62
     5
 63
     7
421
 16777215
176
     1
 74
     1
176
     1
 91
        4
176
     1
 64
     7
176
     1
 65
   257
176
     1
 75
     1
176
     1
175
     1
176
     1
 42
1.0
176
     1
 92
       12
176
     1
 66
     7
176
     1
 43
1.0
176
     1
 76
     1
176
     1
 77
     6
176
     1
 78
     2
176
     1
 67
     7
176
     1
 79
     5
176
     1
170
     0
176
     1
171
     0
176
     1
290
     0
176
     1
 93
        1
176
     1
 44
0.0
176
     1
173
     0
176
     1
  0
VISUALSTYLE
  5
30
102
{ACAD_REACTORS
330
2A
102
}
330
2A
100
AcDbVisualStyle
  2
Wireframe
 70
     5
177
     2
291
     0
 71
     0
176
     1
 72
     2
176
     1
 73
     0
176
     1
 90
        0
176
     1
 40
0.6
176
     1
 41
30.0
176
     1
 62
     5
 63
     7
421
 16777215
176
     1
 74
     1
176
     1
 91
        4
176
     1
 64
     7
176
     1
 65
   257
176
     1
 75
     1
176
     1
175
     1
176
     1
 42
1.0
176
     1
 92
        0
176
     1
 66
   257
176
     1
 43
1.0
176
     1
 76
     1
176
     1
 77
     6
176
     1
 78
     2
176
     1
 67
     7
176
     1
 79
     3
176
     1
170
     0
176
     1
171
     0
176
     1
290
     0
176
     1
 93
        1
176
     1
 44
0.0
176
     1
173
     0
176
     1
  0
VISUALSTYLE
  5
40
102
{ACAD_REACTORS
330
2A
102
}
330
2A
100
AcDbVisualStyle
  2
X-Ray
 70
    25
177
     2
291
     0
 71
     2
176
     1
 72
     2
176
     1
 73
     1
176
     1
 90
        1
176
     1
 40
0.5
176
     1
 41
30.0
176
     1
 62
     5
 63
     7
421
 16777215
176
     1
 74
     1
176
     1
 91
        0
176
     1
 64
     7
176
     1
 65
   257
176
     1
 75
     1
176
     1
175
     1
176
     1
 42
1.0
176
     1
 92
        8
176
     1
 66
     7
176
     1
 43
1.0
176
     1
 76
     1
176
     1
 77
     6
176
     1
 78
     2
176
     1
 67
     7
176
     1
 79
     3
176
     1
170
     0
176
     1
171
     0
176
     1
290
     0
176
     1
 93
       13
176
     1
 44
0.0
176
     1
173
     0
176
     1
  0
DICTIONARYVAR
  5
1D5
102
{ACAD_REACTORS
330
1D4
102
}
330
1D4
100
DictionaryVariables
280
     0
  1
1:1
  0
DICTIONARYVAR
  5
1DA
102
{ACAD_REACTORS
330
1D4
102
}
330
1D4
100
DictionaryVariables
280
     0
  1
Standard
  0
DICTIONARYVAR
  5
1D9
102
{ACAD_REACTORS
330
1D4
102
}
330
1D4
100
DictionaryVariables
280
     0
  1
Standard
  0
DICTIONARY
  5
1D6
330
6A
100
AcDbDictionary
280
     1
281
     1
  3
ACAD_ROUNDTRIP_2008_TABLESTYLE_CELLSTYLEMAP
360
1D7
  0
CELLSTYLEMAP
  5
1D7
102
{ACAD_REACTORS
330
1D6
102
}
330
1D6
100
AcDbCellStyleMap
 90
        3
300
CELLSTYLE
  1
TABLEFORMAT_BEGIN
 90
        5
170
     1
 91
        0
 92
    32768
 62
   257
 93
        1
300
CONTENTFORMAT
  1
CONTENTFORMAT_BEGIN
 90
        0
 91
        0
 92
        4
 93
        0
300

 40
0.0
140
1.0
 94
        5
 62
     0
340
11
144
6.0
309
CONTENTFORMAT_END
171
     1
301
MARGIN
  1
CELLMARGIN_BEGIN
 40
1.5
 40
1.5
 40
1.5
 40
1.5
 40
1.5
 40
1.5
309
CELLMARGIN_END
 94
        6
 95
        1
302
GRIDFORMAT
  1
GRIDFORMAT_BEGIN
 90
        0
 91
        1
 62
     0
 92
       -2
340
14
 93
        0
 40
0.045
309
GRIDFORMAT_END
 95
        2
302
GRIDFORMAT
  1
GRIDFORMAT_BEGIN
 90
        0
 91
        1
 62
     0
 92
       -2
340
14
 93
        0
 40
0.045
309
GRIDFORMAT_END
 95
        4
302
GRIDFORMAT
  1
GRIDFORMAT_BEGIN
 90
        0
 91
        1
 62
     0
 92
       -2
340
14
 93
        0
 40
0.045
309
GRIDFORMAT_END
 95
        8
302
GRIDFORMAT
  1
GRIDFORMAT_BEGIN
 90
        0
 91
        1
 62
     0
 92
       -2
340
14
 93
        0
 40
0.045
309
GRIDFORMAT_END
 95
       16
302
GRIDFORMAT
  1
GRIDFORMAT_BEGIN
 90
        0
 91
        1
 62
     0
 92
       -2
340
14
 93
        0
 40
0.045
309
GRIDFORMAT_END
 95
       32
302
GRIDFORMAT
  1
GRIDFORMAT_BEGIN
 90
        0
 91
        1
 62
     0
 92
       -2
340
14
 93
        0
 40
0.045
309
GRIDFORMAT_END
309
TABLEFORMAT_END
  1
CELLSTYLE_BEGIN
 90
        1
 91
        1
300
_TITLE
309
CELLSTYLE_END
300
CELLSTYLE
  1
TABLEFORMAT_BEGIN
 90
        5
170
     1
 91
        0
 92
        0
 62
   257
 93
        1
300
CONTENTFORMAT
  1
CONTENTFORMAT_BEGIN
 90
        0
 91
        0
 92
        4
 93
        0
300

 40
0.0
140
1.0
 94
        5
 62
     0
340
11
144
4.5
309
CONTENTFORMAT_END
171
     1
301
MARGIN
  1
CELLMARGIN_BEGIN
 40
1.5
 40
1.5
 40
1.5
 40
1.5
 40
1.5
 40
1.5
309
CELLMARGIN_END
 94
        6
 95
        1
302
GRIDFORMAT
  1
GRIDFORMAT_BEGIN
 90
        0
 91
        1
 62
     0
 92
       -2
340
14
 93
        0
 40
0.045
309
GRIDFORMAT_END
 95
        2
302
GRIDFORMAT
  1
GRIDFORMAT_BEGIN
 90
        0
 91
        1
 62
     0
 92
       -2
340
14
 93
        0
 40
0.045
309
GRIDFORMAT_END
 95
        4
302
GRIDFORMAT
  1
GRIDFORMAT_BEGIN
 90
        0
 91
        1
 62
     0
 92
       -2
340
14
 93
        0
 40
0.045
309
GRIDFORMAT_END
 95
        8
302
GRIDFORMAT
  1
GRIDFORMAT_BEGIN
 90
        0
 91
        1
 62
     0
 92
       -2
340
14
 93
        0
 40
0.045
309
GRIDFORMAT_END
 95
       16
302
GRIDFORMAT
  1
GRIDFORMAT_BEGIN
 90
        0
 91
        1
 62
     0
 92
       -2
340
14
 93
        0
 40
0.045
309
GRIDFORMAT_END
 95
       32
302
GRIDFORMAT
  1
GRIDFORMAT_BEGIN
 90
        0
 91
        1
 62
     0
 92
       -2
340
14
 93
        0
 40
0.045
309
GRIDFORMAT_END
309
TABLEFORMAT_END
  1
CELLSTYLE_BEGIN
 90
        2
 91
        1
300
_HEADER
309
CELLSTYLE_END
300
CELLSTYLE
  1
TABLEFORMAT_BEGIN
 90
        5
170
     1
 91
        0
 92
        0
 62
   257
 93
        1
300
CONTENTFORMAT
  1
CONTENTFORMAT_BEGIN
 90
        0
 91
        0
 92
        4
 93
        0
300

 40
0.0
140
1.0
 94
        2
 62
     0
340
11
144
4.5
309
CONTENTFORMAT_END
171
     1
301
MARGIN
  1
CELLMARGIN_BEGIN
 40
1.5
 40
1.5
 40
1.5
 40
1.5
 40
1.5
 40
1.5
309
CELLMARGIN_END
 94
        6
 95
        1
302
GRIDFORMAT
  1
GRIDFORMAT_BEGIN
 90
        0
 91
        1
 62
     0
 92
       -2
340
14
 93
        0
 40
0.045
309
GRIDFORMAT_END
 95
        2
302
GRIDFORMAT
  1
GRIDFORMAT_BEGIN
 90
        0
 91
        1
 62
     0
 92
       -2
340
14
 93
        0
 40
0.045
309
GRIDFORMAT_END
 95
        4
302
GRIDFORMAT
  1
GRIDFORMAT_BEGIN
 90
        0
 91
        1
 62
     0
 92
       -2
340
14
 93
        0
 40
0.045
309
GRIDFORMAT_END
 95
        8
302
GRIDFORMAT
  1
GRIDFORMAT_BEGIN
 90
        0
 91
        1
 62
     0
 92
       -2
340
14
 93
        0
 40
0.045
309
GRIDFORMAT_END
 95
       16
302
GRIDFORMAT
  1
GRIDFORMAT_BEGIN
 90
        0
 91
        1
 62
     0
 92
       -2
340
14
 93
        0
 40
0.045
309
GRIDFORMAT_END
 95
       32
302
GRIDFORMAT
  1
GRIDFORMAT_BEGIN
 90
        0
 91
        1
 62
     0
 92
       -2
340
14
 93
        0
 40
0.045
309
GRIDFORMAT_END
309
TABLEFORMAT_END
  1
CELLSTYLE_BEGIN
 90
        3
 91
        2
300
_DATA
309
CELLSTYLE_END
  0
ENDSEC
  0
EOF
