  0
SECTION
  2
HEADER
  9
$ACADVER
  1
AC1015
  9
$ACADMAINTVER
 70
     6
  9
$DWGCODEPAGE
  3
ANSI_1252
  9
$INSBASE
 10
0.0
 20
0.0
 30
0.0
  9
$EXTMIN
 10
0.0
 20
0.0
 30
0.0
  9
$EXTMAX
 10
1189.0
 20
841.0
 30
0.0
  9
$LIMMIN
 10
0.0
 20
0.0
  9
$LIMMAX
 10
1189.0
 20
841.0
  9
$ORTHOMODE
 70
     0
  9
$REGENMODE
 70
     1
  9
$FILLMODE
 70
     1
  9
$QTEXTMODE
 70
     0
  9
$MIRRTEXT
 70
     1
  9
$LTSCALE
 40
1.0
  9
$ATTMODE
 70
     1
  9
$TEXTSIZE
 40
3.5
  9
$TRACEWID
 40
1.0
  9
$TEXTSTYLE
  7
Standard
  9
$CLAYER
  8
0
  9
$CELTYPE
  6
ByLayer
  9
$CECOLOR
 62
   256
  9
$CELTSCALE
 40
1.0
  9
$DISPSILH
 70
     0
  9
$DIMSCALE
 40
1.0
  9
$DIMASZ
 40
3.302
  9
$DIMEXO
 40
1.0
  9
$DIMDLI
 40
3.75
  9
$DIMRND
 40
0.0
  9
$DIMDLE
 40
0.0
  9
$DIMEXE
 40
1.0
  9
$DIMTP
 40
0.0
  9
$DIMTM
 40
0.0
  9
$DIMTXT
 40
3.5
  9
$DIMCEN
 40
2.5
  9
$DIMTSZ
 40
0.0
  9
$DIMTOL
 70
     0
  9
$DIMLIM
 70
     0
  9
$DIMTIH
 70
     1
  9
$DIMTOH
 70
     1
  9
$DIMSE1
 70
     0
  9
$DIMSE2
 70
     0
  9
$DIMTAD
 70
     1
  9
$DIMZIN
 70
     0
  9
$DIMBLK
  1

  9
$DIMASO
 70
     1
  9
$DIMSHO
 70
     1
  9
$DIMPOST
  1

  9
$DIMAPOST
  1

  9
$DIMALT
 70
     0
  9
$DIMALTD
 70
     3
  9
$DIMALTF
 40
0.0393700787
  9
$DIMLFAC
 40
5.0
  9
$DIMTOFL
 70
     1
  9
$DIMTVP
 40
0.0
  9
$DIMTIX
 70
     0
  9
$DIMSOXD
 70
     0
  9
$DIMSAH
 70
     0
  9
$DIMBLK1
  1

  9
$DIMBLK2
  1

  9
$DIMSTYLE
  2
ISO-25
  9
$DIMCLRD
 70
     0
  9
$DIMCLRE
 70
     0
  9
$DIMCLRT
 70
     0
  9
$DIMTFAC
 40
1.0
  9
$DIMGAP
 40
1.524
  9
$DIMJUST
 70
     0
  9
$DIMSD1
 70
     0
  9
$DIMSD2
 70
     0
  9
$DIMTOLJ
 70
     0
  9
$DIMTZIN
 70
     0
  9
$DIMALTZ
 70
     0
  9
$DIMALTTZ
 70
     0
  9
$DIMUPT
 70
     0
  9
$DIMDEC
 70
     2
  9
$DIMTDEC
 70
     2
  9
$DIMALTU
 70
     2
  9
$DIMALTTD
 70
     3
  9
$DIMTXSTY
  7
Standard
  9
$DIMAUNIT
 70
     0
  9
$DIMADEC
 70
     2
  9
$DIMALTRND
 40
0.0
  9
$DIMAZIN
 70
     0
  9
$DIMDSEP
 70
    44
  9
$DIMATFIT
 70
     3
  9
$DIMFRAC
 70
     0
  9
$DIMLDRBLK
  1

  9
$DIMLUNIT
 70
     2
  9
$DIMLWD
 70
    -2
  9
$DIMLWE
 70
    -2
  9
$DIMTMOVE
 70
     0
  9
$LUNITS
 70
     2
  9
$LUPREC
 70
     2
  9
$SKETCHINC
 40
1.0
  9
$FILLETRAD
 40
10.0
  9
$AUNITS
 70
     0
  9
$AUPREC
 70
     2
  9
$MENU
  1
.
  9
$ELEVATION
 40
0.0
  9
$PELEVATION
 40
0.0
  9
$THICKNESS
 40
0.0
  9
$LIMCHECK
 70
     0
  9
$CHAMFERA
 40
0.0
  9
$CHAMFERB
 40
0.0
  9
$CHAMFERC
 40
0.0
  9
$CHAMFERD
 40
0.0
  9
$SKPOLY
 70
     0
  9
$TDCREATE
 40
2458054.753896204
  9
$TDUCREATE
 40
2458054.712229537
  9
$TDUPDATE
 40
2458054.753896366
  9
$TDUUPDATE
 40
2458054.712229699
  9
$TDINDWG
 40
0.0000000116
  9
$TDUSRTIMER
 40
0.0000000116
  9
$USRTIMER
 70
     1
  9
$ANGBASE
 50
0.0
  9
$ANGDIR
 70
     0
  9
$PDMODE
 70
     0
  9
$PDSIZE
 40
-1.0
  9
$PLINEWID
 40
0.0
  9
$SPLFRAME
 70
     0
  9
$SPLINETYPE
 70
     6
  9
$SPLINESEGS
 70
     8
  9
$HANDSEED
  5
217
  9
$SURFTAB1
 70
     6
  9
$SURFTAB2
 70
     6
  9
$SURFTYPE
 70
     6
  9
$SURFU
 70
     6
  9
$SURFV
 70
     6
  9
$UCSBASE
  2

  9
$UCSNAME
  2

  9
$UCSORG
 10
0.0
 20
0.0
 30
0.0
  9
$UCSXDIR
 10
1.0
 20
0.0
 30
0.0
  9
$UCSYDIR
 10
0.0
 20
1.0
 30
0.0
  9
$UCSORTHOREF
  2

  9
$UCSORTHOVIEW
 70
     0
  9
$UCSORGTOP
 10
0.0
 20
0.0
 30
0.0
  9
$UCSORGBOTTOM
 10
0.0
 20
0.0
 30
0.0
  9
$UCSORGLEFT
 10
0.0
 20
0.0
 30
0.0
  9
$UCSORGRIGHT
 10
0.0
 20
0.0
 30
0.0
  9
$UCSORGFRONT
 10
0.0
 20
0.0
 30
0.0
  9
$UCSORGBACK
 10
0.0
 20
0.0
 30
0.0
  9
$PUCSBASE
  2

  9
$PUCSNAME
  2

  9
$PUCSORG
 10
0.0
 20
0.0
 30
0.0
  9
$PUCSXDIR
 10
1.0
 20
0.0
 30
0.0
  9
$PUCSYDIR
 10
0.0
 20
1.0
 30
0.0
  9
$PUCSORTHOREF
  2

  9
$PUCSORTHOVIEW
 70
     0
  9
$PUCSORGTOP
 10
0.0
 20
0.0
 30
0.0
  9
$PUCSORGBOTTOM
 10
0.0
 20
0.0
 30
0.0
  9
$PUCSORGLEFT
 10
0.0
 20
0.0
 30
0.0
  9
$PUCSORGRIGHT
 10
0.0
 20
0.0
 30
0.0
  9
$PUCSORGFRONT
 10
0.0
 20
0.0
 30
0.0
  9
$PUCSORGBACK
 10
0.0
 20
0.0
 30
0.0
  9
$USERI1
 70
     0
  9
$USERI2
 70
     0
  9
$USERI3
 70
     0
  9
$USERI4
 70
     0
  9
$USERI5
 70
     0
  9
$USERR1
 40
0.0
  9
$USERR2
 40
0.0
  9
$USERR3
 40
0.0
  9
$USERR4
 40
0.0
  9
$USERR5
 40
0.0
  9
$WORLDVIEW
 70
     1
  9
$SHADEDGE
 70
     3
  9
$SHADEDIF
 70
    70
  9
$TILEMODE
 70
     1
  9
$MAXACTVP
 70
    64
  9
$PINSBASE
 10
0.0
 20
0.0
 30
0.0
  9
$PLIMCHECK
 70
     0
  9
$PEXTMIN
 10
1.0000000000E+20
 20
1.0000000000E+20
 30
1.0000000000E+20
  9
$PEXTMAX
 10
-1.0000000000E+20
 20
-1.0000000000E+20
 30
-1.0000000000E+20
  9
$PLIMMIN
 10
0.0
 20
0.0
  9
$PLIMMAX
 10
420.0
 20
297.0
  9
$UNITMODE
 70
     0
  9
$VISRETAIN
 70
     1
  9
$PLINEGEN
 70
     0
  9
$PSLTSCALE
 70
     1
  9
$TREEDEPTH
 70
  3020
  9
$CMLSTYLE
  2
Standard
  9
$CMLJUST
 70
     0
  9
$CMLSCALE
 40
20.0
  9
$PROXYGRAPHICS
 70
     1
  9
$MEASUREMENT
 70
     1
  9
$CELWEIGHT
370
    -1
  9
$ENDCAPS
280
     0
  9
$JOINSTYLE
280
     0
  9
$LWDISPLAY
290
     1
  9
$INSUNITS
 70
     4
  9
$HYPERLINKBASE
  1

  9
$STYLESHEET
  1

  9
$XEDIT
290
     1
  9
$CEPSNTYPE
380
     0
  9
$PSTYLEMODE
290
     1
  9
$FINGERPRINTGUID
  2
{C9E48F9F-1AEC-4EB0-B0F7-83A438C02EB3}
  9
$VERSIONGUID
  2
{FAEB1C32-E019-11D5-929B-00C0DF256EC4}
  9
$EXTNAMES
290
     1
  9
$PSVPSCALE
 40
0.0
  9
$OLESTARTUP
290
     0
  0
ENDSEC
  0
SECTION
  2
CLASSES
  0
CLASS
  1
ACDBDICTIONARYWDFLT
  2
AcDbDictionaryWithDefault
  3
ObjectDBX Classes
 90
        0
280
     0
281
     0
  0
CLASS
  1
VISUALSTYLE
  2
AcDbVisualStyle
  3
ObjectDBX Classes
 90
     4095
280
     0
281
     0
  0
CLASS
  1
MATERIAL
  2
AcDbMaterial
  3
ObjectDBX Classes
 90
     1153
280
     0
281
     0
  0
CLASS
  1
SCALE
  2
AcDbScale
  3
ObjectDBX Classes
 90
     1153
280
     0
281
     0
  0
CLASS
  1
TABLESTYLE
  2
AcDbTableStyle
  3
ObjectDBX Classes
 90
     4095
280
     0
281
     0
  0
CLASS
  1
MLEADERSTYLE
  2
AcDbMLeaderStyle
  3
ACDB_MLEADERSTYLE_CLASS
 90
     4095
280
     0
281
     0
  0
CLASS
  1
SUN
  2
AcDbSun
  3
SCENEOE
 90
     1153
280
     0
281
     0
  0
CLASS
  1
ACDBPLACEHOLDER
  2
AcDbPlaceHolder
  3
ObjectDBX Classes
 90
        0
280
     0
281
     0
  0
CLASS
  1
LAYOUT
  2
AcDbLayout
  3
ObjectDBX Classes
 90
        0
280
     0
281
     0
  0
ENDSEC
  0
SECTION
  2
TABLES
  0
TABLE
  2
VPORT
  5
8
330
0
100
AcDbSymbolTable
 70
     1
  0
VPORT
  5
29
330
8
100
AcDbSymbolTableRecord
100
AcDbViewportTableRecord
  2
*Active
 70
     0
 10
0.0
 20
0.0
 11
1.0
 21
1.0
 12
594.5
 22
420.5
 13
0.0
 23
0.0
 14
10.0
 24
10.0
 15
10.0
 25
10.0
 16
0.0
 26
0.0
 36
1.0
 17
0.0
 27
0.0
 37
0.0
 40
841.0
 41
1.4137931034
 42
50.0
 43
0.0
 44
0.0
 50
0.0
 51
0.0
 71
     0
 72
  2000
 73
     1
 74
     3
 75
     0
 76
     0
 77
     0
 78
     0
281
     0
 65
     1
110
0.0
120
0.0
130
0.0
111
1.0
121
0.0
131
0.0
112
0.0
122
1.0
132
0.0
 79
     0
146
0.0
  0
ENDTAB
  0
TABLE
  2
LTYPE
  5
5
330
0
100
AcDbSymbolTable
 70
     6
  0
LTYPE
  5
14
330
5
100
AcDbSymbolTableRecord
100
AcDbLinetypeTableRecord
  2
ByBlock
 70
     0
  3

 72
    65
 73
     0
 40
0.0
  0
LTYPE
  5
15
330
5
100
AcDbSymbolTableRecord
100
AcDbLinetypeTableRecord
  2
ByLayer
 70
     0
  3

 72
    65
 73
     0
 40
0.0
  0
LTYPE
  5
16
330
5
100
AcDbSymbolTableRecord
100
AcDbLinetypeTableRecord
  2
Continuous
 70
     0
  3
Solid line
 72
    65
 73
     0
 40
0.0
  0
LTYPE
  5
6E
330
5
100
AcDbSymbolTableRecord
100
AcDbLinetypeTableRecord
  2
HIDDEN
 70
     0
  3
Hidden __ __ __ __ __ __ __ __ __ __ __ __ __ __
 72
    65
 73
     2
 40
1.905
 49
1.27
 74
     0
 49
-0.635
 74
     0
  0
LTYPE
  5
6F
330
5
100
AcDbSymbolTableRecord
100
AcDbLinetypeTableRecord
  2
PHANTOM
 70
     0
  3
Phantom ______  __  __  ______  __  __  ______
 72
    65
 73
     6
 40
12.7
 49
6.35
 74
     0
 49
-1.27
 74
     0
 49
1.27
 74
     0
 49
-1.27
 74
     0
 49
1.27
 74
     0
 49
-1.27
 74
     0
  0
LTYPE
  5
70
330
5
100
AcDbSymbolTableRecord
100
AcDbLinetypeTableRecord
  2
CENTER
 70
     0
  3
Center ____ _ ____ _ ____ _ ____ _ ____ _ ____
 72
    65
 73
     4
 40
10.16
 49
6.35
 74
     0
 49
-1.27
 74
     0
 49
1.27
 74
     0
 49
-1.27
 74
     0
  0
LTYPE
  5
71
330
5
100
AcDbSymbolTableRecord
100
AcDbLinetypeTableRecord
  2
CENTERX2
 70
     0
  3
Center (2x) ________  __  ________  __  _____
 72
    65
 73
     4
 40
20.32
 49
12.7
 74
     0
 49
-2.54
 74
     0
 49
2.54
 74
     0
 49
-2.54
 74
     0
  0
LTYPE
  5
72
330
5
100
AcDbSymbolTableRecord
100
AcDbLinetypeTableRecord
  2
DOT2
 70
     0
  3
Dot (.5x) ........................................
 72
    65
 73
     2
 40
0.635
 49
0.0
 74
     0
 49
-0.635
 74
     0
  0
ENDTAB
  0
TABLE
  2
LAYER
  5
2
330
0
100
AcDbSymbolTable
 70
     2
  0
LAYER
  5
10
330
2
100
AcDbSymbolTableRecord
100
AcDbLayerTableRecord
  2
0
 70
     0
 62
     7
  6
Continuous
370
    -3
390
F
  0
LAYER
  5
73
330
2
100
AcDbSymbolTableRecord
100
AcDbLayerTableRecord
  2
FORMAT
 70
     0
 62
     7
  6
Continuous
370
    -3
390
F
  0
ENDTAB
  0
TABLE
  2
STYLE
  5
3
330
0
100
AcDbSymbolTable
 70
     1
  0
STYLE
  5
11
330
3
100
AcDbSymbolTableRecord
100
AcDbTextStyleTableRecord
  2
Standard
 70
     0
 40
0.0
 41
1.0
 50
0.0
 71
     0
 42
3.5
  3
txt
  4

  0
ENDTAB
  0
TABLE
  2
VIEW
  5
6
330
0
100
AcDbSymbolTable
 70
     0
  0
ENDTAB
  0
TABLE
  2
UCS
  5
7
330
0
100
AcDbSymbolTable
 70
     0
  0
ENDTAB
  0
TABLE
  2
APPID
  5
9
330
0
100
AcDbSymbolTable
 70
     1
  0
APPID
  5
12
330
9
100
AcDbSymbolTableRecord
100
AcDbRegAppTableRecord
  2
ACAD
 70
     0
  0
ENDTAB
  0
TABLE
  2
DIMSTYLE
  5
A
330
0
100
AcDbSymbolTable
 70
     1
100
AcDbDimStyleTable
  0
DIMSTYLE
105
27
330
A
100
AcDbSymbolTableRecord
100
AcDbDimStyleTableRecord
  2
ISO-25
 70
     0
 41
2.5
 42
0.625
 43
3.75
 44
1.25
 73
     0
 74
     0
 77
     1
 78
     8
140
2.5
141
2.5
143
0.0393700787
147
0.625
171
     3
172
     1
178
     0
271
     2
272
     2
274
     3
278
    44
283
     0
284
     8
340
11
  0
ENDTAB
  0
TABLE
  2
BLOCK_RECORD
  5
1
330
0
100
AcDbSymbolTable
 70
     5
  0
BLOCK_RECORD
  5
1F
330
1
100
AcDbSymbolTableRecord
100
AcDbBlockTableRecord
  2
*Model_Space
340
22
  0
BLOCK_RECORD
  5
1B
330
1
100
AcDbSymbolTableRecord
100
AcDbBlockTableRecord
  2
*Paper_Space
340
1E
  0
BLOCK_RECORD
  5
23
330
1
100
AcDbSymbolTableRecord
100
AcDbBlockTableRecord
  2
*Paper_Space0
340
26
  0
BLOCK_RECORD
  5
134
330
1
100
AcDbSymbolTableRecord
100
AcDbBlockTableRecord
  2
SW_CENTERMARKSYMBOL_0
340
0
102
{BLKREFS
331
13F
102
}
  0
BLOCK_RECORD
  5
140
330
1
100
AcDbSymbolTableRecord
100
AcDbBlockTableRecord
  2
SW_CENTERMARKSYMBOL_1
340
0
102
{BLKREFS
331
14B
102
}
  0
BLOCK_RECORD
  5
14C
330
1
100
AcDbSymbolTableRecord
100
AcDbBlockTableRecord
  2
SW_CENTERMARKSYMBOL_2
340
0
102
{BLKREFS
331
157
102
}
  0
BLOCK_RECORD
  5
158
330
1
100
AcDbSymbolTableRecord
100
AcDbBlockTableRecord
  2
SW_CENTERMARKSYMBOL_3
340
0
102
{BLKREFS
331
163
102
}
  0
ENDTAB
  0
ENDSEC
  0
SECTION
  2
BLOCKS
  0
BLOCK
  5
20
330
1F
100
AcDbEntity
  8
0
100
AcDbBlockBegin
  2
*Model_Space
 70
     0
 10
0.0
 20
0.0
 30
0.0
  3
*Model_Space
  1

  0
ENDBLK
  5
21
330
1F
100
AcDbEntity
  8
0
100
AcDbBlockEnd
  0
BLOCK
  5
1C
330
1B
100
AcDbEntity
 67
     1
  8
0
100
AcDbBlockBegin
  2
*Paper_Space
 70
     0
 10
0.0
 20
0.0
 30
0.0
  3
*Paper_Space
  1

  0
ENDBLK
  5
1D
330
1B
100
AcDbEntity
 67
     1
  8
0
100
AcDbBlockEnd
  0
BLOCK
  5
24
330
23
100
AcDbEntity
  8
0
100
AcDbBlockBegin
  2
*Paper_Space0
 70
     0
 10
0.0
 20
0.0
 30
0.0
  3
*Paper_Space0
  1

  0
ENDBLK
  5
25
330
23
100
AcDbEntity
  8
0
100
AcDbBlockEnd
  0
BLOCK
  5
135
330
134
100
AcDbEntity
  8
0
100
AcDbBlockBegin
  2
SW_CENTERMARKSYMBOL_0
 70
     0
 10
0.0
 20
0.0
 30
0.0
  3
SW_CENTERMARKSYMBOL_0
  1

  0
LINE
  5
137
330
134
100
AcDbEntity
  8
0
  6
Continuous
 62
     0
370
     0
100
AcDbLine
 10
0.0
 20
0.0
 30
0.0
 11
0.0
 21
0.5
 31
0.0
  0
LINE
  5
138
330
134
100
AcDbEntity
  8
0
  6
Continuous
 62
     0
370
     0
100
AcDbLine
 10
0.0
 20
0.0
 30
0.0
 11
-0.5
 21
0.0
 31
0.0
  0
LINE
  5
139
330
134
100
AcDbEntity
  8
0
  6
Continuous
 62
     0
370
     0
100
AcDbLine
 10
0.0
 20
0.0
 30
0.0
 11
0.0
 21
-0.5
 31
0.0
  0
LINE
  5
13A
330
134
100
AcDbEntity
  8
0
  6
Continuous
 62
     0
370
     0
100
AcDbLine
 10
0.0
 20
0.0
 30
0.0
 11
0.5
 21
0.0
 31
0.0
  0
LINE
  5
13B
330
134
100
AcDbEntity
  8
0
  6
Continuous
 62
     0
370
     0
100
AcDbLine
 10
0.0
 20
1.0
 30
0.0
 11
0.0
 21
1.3
 31
0.0
  0
LINE
  5
13C
330
134
100
AcDbEntity
  8
0
  6
Continuous
 62
     0
370
     0
100
AcDbLine
 10
-1.0
 20
0.0
 30
0.0
 11
-1.3
 21
0.0
 31
0.0
  0
LINE
  5
13D
330
134
100
AcDbEntity
  8
0
  6
Continuous
 62
     0
370
     0
100
AcDbLine
 10
0.0
 20
-1.0
 30
0.0
 11
0.0
 21
-1.3
 31
0.0
  0
LINE
  5
13E
330
134
100
AcDbEntity
  8
0
  6
Continuous
 62
     0
370
     0
100
AcDbLine
 10
1.0
 20
0.0
 30
0.0
 11
1.3
 21
0.0
 31
0.0
  0
ENDBLK
  5
136
330
134
100
AcDbEntity
  8
0
100
AcDbBlockEnd
  0
BLOCK
  5
141
330
140
100
AcDbEntity
  8
0
100
AcDbBlockBegin
  2
SW_CENTERMARKSYMBOL_1
 70
     0
 10
0.0
 20
0.0
 30
0.0
  3
SW_CENTERMARKSYMBOL_1
  1

  0
LINE
  5
143
330
140
100
AcDbEntity
  8
0
  6
Continuous
 62
     0
370
     0
100
AcDbLine
 10
0.0
 20
0.0
 30
0.0
 11
0.0
 21
0.5
 31
0.0
  0
LINE
  5
144
330
140
100
AcDbEntity
  8
0
  6
Continuous
 62
     0
370
     0
100
AcDbLine
 10
0.0
 20
0.0
 30
0.0
 11
-0.5
 21
0.0
 31
0.0
  0
LINE
  5
145
330
140
100
AcDbEntity
  8
0
  6
Continuous
 62
     0
370
     0
100
AcDbLine
 10
0.0
 20
0.0
 30
0.0
 11
0.0
 21
-0.5
 31
0.0
  0
LINE
  5
146
330
140
100
AcDbEntity
  8
0
  6
Continuous
 62
     0
370
     0
100
AcDbLine
 10
0.0
 20
0.0
 30
0.0
 11
0.5
 21
0.0
 31
0.0
  0
LINE
  5
147
330
140
100
AcDbEntity
  8
0
  6
Continuous
 62
     0
370
     0
100
AcDbLine
 10
0.0
 20
1.0
 30
0.0
 11
0.0
 21
1.3
 31
0.0
  0
LINE
  5
148
330
140
100
AcDbEntity
  8
0
  6
Continuous
 62
     0
370
     0
100
AcDbLine
 10
-1.0
 20
0.0
 30
0.0
 11
-1.3
 21
0.0
 31
0.0
  0
LINE
  5
149
330
140
100
AcDbEntity
  8
0
  6
Continuous
 62
     0
370
     0
100
AcDbLine
 10
0.0
 20
-1.0
 30
0.0
 11
0.0
 21
-1.3
 31
0.0
  0
LINE
  5
14A
330
140
100
AcDbEntity
  8
0
  6
Continuous
 62
     0
370
     0
100
AcDbLine
 10
1.0
 20
0.0
 30
0.0
 11
1.3
 21
0.0
 31
0.0
  0
ENDBLK
  5
142
330
140
100
AcDbEntity
  8
0
100
AcDbBlockEnd
  0
BLOCK
  5
14D
330
14C
100
AcDbEntity
  8
0
100
AcDbBlockBegin
  2
SW_CENTERMARKSYMBOL_2
 70
     0
 10
0.0
 20
0.0
 30
0.0
  3
SW_CENTERMARKSYMBOL_2
  1

  0
LINE
  5
14F
330
14C
100
AcDbEntity
  8
0
  6
Continuous
 62
     0
370
     0
100
AcDbLine
 10
0.0
 20
0.0
 30
0.0
 11
0.0
 21
0.5
 31
0.0
  0
LINE
  5
150
330
14C
100
AcDbEntity
  8
0
  6
Continuous
 62
     0
370
     0
100
AcDbLine
 10
0.0
 20
0.0
 30
0.0
 11
-0.5
 21
0.0
 31
0.0
  0
LINE
  5
151
330
14C
100
AcDbEntity
  8
0
  6
Continuous
 62
     0
370
     0
100
AcDbLine
 10
0.0
 20
0.0
 30
0.0
 11
0.0
 21
-0.5
 31
0.0
  0
LINE
  5
152
330
14C
100
AcDbEntity
  8
0
  6
Continuous
 62
     0
370
     0
100
AcDbLine
 10
0.0
 20
0.0
 30
0.0
 11
0.5
 21
0.0
 31
0.0
  0
LINE
  5
153
330
14C
100
AcDbEntity
  8
0
  6
Continuous
 62
     0
370
     0
100
AcDbLine
 10
0.0
 20
1.0
 30
0.0
 11
0.0
 21
1.3
 31
0.0
  0
LINE
  5
154
330
14C
100
AcDbEntity
  8
0
  6
Continuous
 62
     0
370
     0
100
AcDbLine
 10
-1.0
 20
0.0
 30
0.0
 11
-1.3
 21
0.0
 31
0.0
  0
LINE
  5
155
330
14C
100
AcDbEntity
  8
0
  6
Continuous
 62
     0
370
     0
100
AcDbLine
 10
0.0
 20
-1.0
 30
0.0
 11
0.0
 21
-1.3
 31
0.0
  0
LINE
  5
156
330
14C
100
AcDbEntity
  8
0
  6
Continuous
 62
     0
370
     0
100
AcDbLine
 10
1.0
 20
0.0
 30
0.0
 11
1.3
 21
0.0
 31
0.0
  0
ENDBLK
  5
14E
330
14C
100
AcDbEntity
  8
0
100
AcDbBlockEnd
  0
BLOCK
  5
159
330
158
100
AcDbEntity
  8
0
100
AcDbBlockBegin
  2
SW_CENTERMARKSYMBOL_3
 70
     0
 10
0.0
 20
0.0
 30
0.0
  3
SW_CENTERMARKSYMBOL_3
  1

  0
LINE
  5
15B
330
158
100
AcDbEntity
  8
0
  6
Continuous
 62
     0
370
     0
100
AcDbLine
 10
0.0
 20
0.0
 30
0.0
 11
0.0
 21
0.5
 31
0.0
  0
LINE
  5
15C
330
158
100
AcDbEntity
  8
0
  6
Continuous
 62
     0
370
     0
100
AcDbLine
 10
0.0
 20
0.0
 30
0.0
 11
-0.5
 21
0.0
 31
0.0
  0
LINE
  5
15D
330
158
100
AcDbEntity
  8
0
  6
Continuous
 62
     0
370
     0
100
AcDbLine
 10
0.0
 20
0.0
 30
0.0
 11
0.0
 21
-0.5
 31
0.0
  0
LINE
  5
15E
330
158
100
AcDbEntity
  8
0
  6
Continuous
 62
     0
370
     0
100
AcDbLine
 10
0.0
 20
0.0
 30
0.0
 11
0.5
 21
0.0
 31
0.0
  0
LINE
  5
15F
330
158
100
AcDbEntity
  8
0
  6
Continuous
 62
     0
370
     0
100
AcDbLine
 10
0.0
 20
1.0
 30
0.0
 11
0.0
 21
1.3
 31
0.0
  0
LINE
  5
160
330
158
100
AcDbEntity
  8
0
  6
Continuous
 62
     0
370
     0
100
AcDbLine
 10
-1.0
 20
0.0
 30
0.0
 11
-1.3
 21
0.0
 31
0.0
  0
LINE
  5
161
330
158
100
AcDbEntity
  8
0
  6
Continuous
 62
     0
370
     0
100
AcDbLine
 10
0.0
 20
-1.0
 30
0.0
 11
0.0
 21
-1.3
 31
0.0
  0
LINE
  5
162
330
158
100
AcDbEntity
  8
0
  6
Continuous
 62
     0
370
     0
100
AcDbLine
 10
1.0
 20
0.0
 30
0.0
 11
1.3
 21
0.0
 31
0.0
  0
ENDBLK
  5
15A
330
158
100
AcDbEntity
  8
0
100
AcDbBlockEnd
  0
ENDSEC
  0
SECTION
  2
ENTITIES
  0
LWPOLYLINE
  5
74
330
1F
100
AcDbEntity
  8
0
  6
Continuous
 62
     7
370
    15
100
AcDbPolyline
 90
       17
 70
   128
 43
0.0
 10
312.6111792662
 20
200.4441729373
 10
312.400375519
 20
199.9254575557
 10
312.2010754683
 20
199.4350484199
 10
312.0116042235
 20
198.9688268489
 10
311.8411766627
 20
198.5494604892
 10
311.6485344507
 20
198.0754187888
 10
311.4969240763
 20
197.7023413963
 10
311.3776492216
 20
197.4088540859
 10
311.2768160441
 20
197.1607199497
 10
311.1650334932
 20
196.8855312652
 10
311.0488461592
 20
196.5991667098
 10
310.9361397364
 20
196.3206938094
 10
310.8368026354
 20
196.0740497894
 10
310.7621835806
 20
195.8866587467
 10
310.7303070166
 20
195.8045771903
 10
310.7148515322
 20
195.7617810554
 10
310.7160078623
 20
195.7617154903
  0
LWPOLYLINE
  5
75
330
1F
100
AcDbEntity
  8
0
  6
Continuous
 62
     7
370
    15
100
AcDbPolyline
 90
       16
 70
   128
 43
0.0
 10
313.5434137919
 20
194.2607036418
 10
313.5638760664
 20
194.3050196952
 10
313.6007474997
 20
194.3909993953
 10
313.6520969011
 20
194.513713438
 10
313.7515651323
 20
194.7547009773
 10
313.8698922732
 20
195.0436523742
 10
314.0382336714
 20
195.4565337486
 10
314.2002212145
 20
195.8547523803
 10
314.3412398436
 20
196.2017467803
 10
314.4605743029
 20
196.4953831023
 10
314.6112846472
 20
196.8662432021
 10
314.8032235243
 20
197.3385325259
 10
314.9739014246
 20
197.7585247344
 10
315.1648389437
 20
198.2283702678
 10
315.3625475504
 20
198.7148752994
 10
315.5765461065
 20
199.2414763755
  0
LWPOLYLINE
  5
76
330
1F
100
AcDbEntity
  8
0
  6
Continuous
 62
     7
370
    15
100
AcDbPolyline
 90
       16
 70
   128
 43
0.0
 10
476.6841935255
 20
199.2414763755
 10
476.8981920817
 20
198.7148752994
 10
477.0959006884
 20
198.2283702678
 10
477.2868382074
 20
197.7585247344
 10
477.4575161078
 20
197.3385325259
 10
477.6494549849
 20
196.8662432021
 10
477.8001653292
 20
196.4953831023
 10
477.9194997885
 20
196.2017467803
 10
478.0605184176
 20
195.8547523803
 10
478.2225059607
 20
195.4565337486
 10
478.3908473589
 20
195.0436523742
 10
478.5091744997
 20
194.7547009773
 10
478.6086427309
 20
194.513713438
 10
478.6599921324
 20
194.3909993953
 10
478.6968635657
 20
194.3050196952
 10
478.7173258402
 20
194.2607036418
  0
LWPOLYLINE
  5
77
330
1F
100
AcDbEntity
  8
0
  6
Continuous
 62
     7
370
    15
100
AcDbPolyline
 90
       16
 70
   128
 43
0.0
 10
481.5423893072
 20
195.7673183269
 10
481.5403150656
 20
195.7780292815
 10
481.4985560515
 20
195.8866587467
 10
481.4239369967
 20
196.0740497894
 10
481.3245998957
 20
196.3206938094
 10
481.2118934729
 20
196.5991667098
 10
481.0957061388
 20
196.8855312652
 10
480.983923588
 20
197.1607199497
 10
480.8830904104
 20
197.4088540859
 10
480.7638155558
 20
197.7023413963
 10
480.6122051813
 20
198.0754187888
 10
480.4195629694
 20
198.5494604892
 10
480.2491354086
 20
198.9688268489
 10
480.0596641638
 20
199.4350484199
 10
479.8603641131
 20
199.9254575557
 10
479.6495603659
 20
200.4441729373
  0
LINE
  5
78
330
1F
100
AcDbEntity
  8
0
  6
Continuous
 62
     7
370
    15
100
AcDbLine
 10
330.5653022864
 20
244.6238352544
 30
0.0
 11
312.6115905382
 21
200.4452040977
 31
0.0
  0
LINE
  5
79
330
1F
100
AcDbEntity
  8
0
  6
Continuous
 62
     7
370
    15
100
AcDbLine
 10
315.576140795
 20
199.2404452152
 30
0.0
 11
333.5298525431
 21
243.4190748817
 31
0.0
  0
LINE
  5
7A
330
1F
100
AcDbEntity
  8
0
  6
Continuous
 62
     7
370
    15
100
AcDbLine
 10
458.730887089
 20
243.4190748817
 30
0.0
 11
476.6845988371
 21
199.2404452152
 31
0.0
  0
LINE
  5
7B
330
1F
100
AcDbEntity
  8
0
  6
Continuous
 62
     7
370
    15
100
AcDbLine
 10
479.6491490938
 20
200.4452040977
 30
0.0
 11
461.6954373457
 21
244.6238352544
 31
0.0
  0
LWPOLYLINE
  5
7C
330
1F
100
AcDbEntity
  8
0
  6
Continuous
 62
     7
370
    15
100
AcDbPolyline
 90
        7
 70
   128
 43
0.0
 10
331.5354930498
 20
247.0111782289
 10
331.4375447371
 20
246.7701478488
 10
331.2953101732
 20
246.4201575703
 10
331.133769665
 20
246.022650469
 10
330.9559690096
 20
245.5851441807
 10
330.76528183
 20
245.1159140653
 10
330.5653022864
 20
244.6238352544
  0
LWPOLYLINE
  5
7D
330
1F
100
AcDbEntity
  8
0
  6
Continuous
 62
     7
370
    15
100
AcDbPolyline
 90
       11
 70
   128
 43
0.0
 10
333.5298525431
 20
243.4190748817
 10
333.7298261263
 20
243.9111536927
 10
333.9205192663
 20
244.3803838081
 10
334.0983139612
 20
244.8178900964
 10
334.25986043
 20
245.2153971977
 10
334.4020890333
 20
245.5653874761
 10
334.5223235228
 20
245.8612403459
 10
334.6182810404
 20
246.0973604209
 10
334.688149605
 20
246.2692818231
 10
334.730600033
 20
246.3737531192
 10
334.7448455431
 20
246.4087976701
  0
LWPOLYLINE
  5
7E
330
1F
100
AcDbEntity
  8
0
  6
Continuous
 62
     7
370
    15
100
AcDbPolyline
 90
        7
 70
   128
 43
0.0
 10
461.6954373457
 20
244.6238352544
 10
461.495457802
 20
245.1159140653
 10
461.3047706225
 20
245.5851441807
 10
461.1269699671
 20
246.022650469
 10
460.9654294588
 20
246.4201575703
 10
460.823194895
 20
246.7701478488
 10
460.7252465822
 20
247.0111782289
  0
LWPOLYLINE
  5
7F
330
1F
100
AcDbEntity
  8
0
  6
Continuous
 62
     7
370
    15
100
AcDbPolyline
 90
       11
 70
   128
 43
0.0
 10
457.515894089
 20
246.4087976701
 10
457.5301395991
 20
246.3737531192
 10
457.5725900271
 20
246.2692818231
 10
457.6424585917
 20
246.0973604209
 10
457.7384161093
 20
245.8612403459
 10
457.8586505987
 20
245.5653874761
 10
458.0008792021
 20
245.2153971977
 10
458.1624256708
 20
244.8178900964
 10
458.3402203657
 20
244.3803838081
 10
458.5309135058
 20
243.9111536927
 10
458.730887089
 20
243.4190748817
  0
LINE
  5
80
330
1F
100
AcDbEntity
  8
0
  6
Continuous
 62
     7
370
    15
100
AcDbLine
 10
457.19817153
 20
245.4111783392
 30
0.0
 11
457.9213189222
 21
245.4111783392
 31
0.0
  0
LINE
  5
81
330
1F
100
AcDbEntity
  8
0
  6
Continuous
 62
     7
370
    15
100
AcDbLine
 10
343.0625723936
 20
245.4111783392
 30
0.0
 11
449.1981672384
 21
245.4111783392
 31
0.0
  0
LINE
  5
82
330
1F
100
AcDbEntity
  8
0
  6
Continuous
 62
     7
370
    15
100
AcDbLine
 10
334.3394207098
 20
245.4111783392
 30
0.0
 11
335.0625681021
 21
245.4111783392
 31
0.0
  0
LINE
  5
83
330
1F
100
AcDbEntity
  8
0
  6
Continuous
 62
     7
370
    15
100
AcDbLine
 10
477.7531074621
 20
196.6111770458
 30
0.0
 11
314.5076321699
 21
196.6111770458
 31
0.0
  0
LINE
  5
84
330
1F
100
AcDbEntity
  8
0
  6
Continuous
 62
     7
370
    15
100
AcDbLine
 10
312.1303366758
 20
193.4111765212
 30
0.0
 11
480.1304029562
 21
193.4111765212
 31
0.0
  0
ARC
  5
85
330
1F
100
AcDbEntity
  8
0
  6
Continuous
 62
     7
370
    15
100
AcDbCircle
 10
396.1396883832
 20
311.8420095119
 30
0.0
 40
3.375145773724676
100
AcDbArc
 50
44.8437006953
 51
90.1581902788
  0
ARC
  5
86
330
1F
100
AcDbEntity
  8
0
  6
Continuous
 62
     7
370
    15
100
AcDbCircle
 10
396.0865893968
 20
311.9676005545
 30
0.0
 40
3.24983677612328
100
AcDbArc
 50
89.228112271
 51
130.5887693293
  0
LINE
  5
87
330
1F
100
AcDbEntity
  8
0
  6
Continuous
 62
     7
370
    15
100
AcDbLine
 10
461.8158446886
 20
329.1240325755
 30
0.0
 11
461.445884619
 21
326.9042721576
 31
0.0
  0
LINE
  5
88
330
1F
100
AcDbEntity
  8
0
  6
Continuous
 62
     7
370
    15
100
AcDbLine
 10
330.8148550131
 20
326.9042721576
 30
0.0
 11
330.4448949434
 21
329.1240325755
 31
0.0
  0
LWPOLYLINE
  5
89
330
1F
100
AcDbEntity
  8
0
  6
Continuous
 62
     7
370
    15
100
AcDbPolyline
 90
        3
 70
   128
 43
0.0
 10
449.9682234862
 20
259.9080129153
 10
449.9447869398
 20
259.8792976326
 10
449.7076021769
 20
259.6316254324
  0
ARC
  5
8A
330
1F
100
AcDbEntity
  8
0
  6
Continuous
 62
     7
370
    15
100
AcDbCircle
 10
448.0972648039
 20
261.4111780948
 30
0.0
 40
2.399999999999996
100
AcDbArc
 50
274.5836433123
 51
290.4005592013
  0
LWPOLYLINE
  5
8B
330
1F
100
AcDbEntity
  8
0
  6
Continuous
 62
     7
370
    15
100
AcDbPolyline
 90
        3
 70
   128
 43
0.0
 10
344.1634761431
 20
259.0111779607
 10
343.7439488508
 20
259.0481298602
 10
343.3897124865
 20
259.1393312997
  0
LWPOLYLINE
  5
8C
330
1F
100
AcDbEntity
  8
0
  6
Continuous
 62
     7
370
    15
100
AcDbPolyline
 90
        3
 70
   128
 43
0.0
 10
342.6202701666
 20
259.5731041021
 10
342.6121758558
 20
259.579930324
 10
342.378495846
 20
259.8068548924
  0
LINE
  5
8D
330
1F
100
AcDbEntity
  8
0
  6
Continuous
 62
     7
370
    15
100
AcDbLine
 10
448.7965153792
 20
350.7794311828
 30
0.0
 11
461.0182272532
 21
332.6600006408
 31
0.0
  0
LINE
  5
8E
330
1F
100
AcDbEntity
  8
0
  6
Continuous
 62
     7
370
    15
100
AcDbLine
 10
331.2425123789
 20
332.6600006408
 30
0.0
 11
343.4642242529
 21
350.7794311828
 31
0.0
  0
ARC
  5
8F
330
1F
100
AcDbEntity
  8
0
  6
Continuous
 62
     7
370
    15
100
AcDbCircle
 10
440.8377548679
 20
345.4111780948
 30
0.0
 40
9.599999999999975
100
AcDbArc
 50
34.0
 51
90.0
  0
ARC
  5
90
330
1F
100
AcDbEntity
  8
0
  6
Continuous
 62
     7
370
    15
100
AcDbCircle
 10
351.4229847642
 20
345.4111780948
 30
0.0
 40
9.600000000000007
100
AcDbArc
 50
90.0
 51
146.0
  0
LINE
  5
91
330
1F
100
AcDbEntity
  8
0
  6
Continuous
 62
     7
370
    15
100
AcDbLine
 10
351.4229851105
 20
355.0111761874
 30
0.0
 11
440.8377545216
 21
355.0111761874
 31
0.0
  0
ARC
  5
92
330
1F
100
AcDbEntity
  8
0
  6
Continuous
 62
     7
370
    15
100
AcDbCircle
 10
457.0811546844
 20
329.9131474507
 30
0.0
 40
4.799999999999975
100
AcDbArc
 50
350.537677792
 51
34.0
  0
LWPOLYLINE
  5
93
330
1F
100
AcDbEntity
  8
0
  6
Continuous
 62
     7
370
    15
100
AcDbPolyline
 90
        4
 70
   128
 43
0.0
 10
461.0182272532
 20
332.6600006408
 10
461.0416936018
 20
332.6252094096
 10
461.0558199026
 20
332.6042643375
 10
461.06053463
 20
332.5972727126
  0
ARC
  5
94
330
1F
100
AcDbEntity
  8
0
  6
Continuous
 62
     7
370
    15
100
AcDbCircle
 10
335.1795849476
 20
329.9131474507
 30
0.0
 40
4.799999999999975
100
AcDbArc
 50
146.0
 51
189.462322208
  0
LWPOLYLINE
  5
95
330
1F
100
AcDbEntity
  8
0
  6
Continuous
 62
     7
370
    15
100
AcDbPolyline
 90
        4
 70
   128
 43
0.0
 10
331.200205002
 20
332.5972727126
 10
331.2049197294
 20
332.6042643375
 10
331.2190460302
 20
332.6252094096
 10
331.2425123789
 20
332.6600006408
  0
LINE
  5
96
330
1F
100
AcDbEntity
  8
0
  6
Continuous
 62
     7
370
    15
100
AcDbLine
 10
450.4646109678
 20
261.0166205651
 30
0.0
 11
461.445884619
 21
326.9042721576
 31
0.0
  0
ARC
  5
97
330
1F
100
AcDbEntity
  8
0
  6
Continuous
 62
     7
370
    15
100
AcDbCircle
 10
468.5479214671
 20
325.7205977831
 30
0.0
 40
7.199999999999981
100
AcDbArc
 50
107.4940867794
 51
170.537677792
  0
ARC
  5
98
330
1F
100
AcDbEntity
  8
0
  6
Continuous
 62
     7
370
    15
100
AcDbCircle
 10
354.6201709111
 20
317.2111780948
 30
0.0
 40
144.1721789727073
100
AcDbArc
 50
357.2381352736
 51
3.6127116356
  0
ARC
  5
99
330
1F
100
AcDbEntity
  8
0
  6
Continuous
 62
     7
370
    15
100
AcDbCircle
 10
448.0972648039
 20
261.4111780948
 30
0.0
 40
2.400000000000008
100
AcDbArc
 50
321.2209447534
 51
350.537677792
  0
ARC
  5
9A
330
1F
100
AcDbEntity
  8
0
  6
Continuous
 62
     7
370
    15
100
AcDbCircle
 10
457.0462373584
 20
249.4111780948
 30
0.0
 40
2.400000000000062
100
AcDbArc
 50
270.0
 51
350.537677792
  0
ARC
  5
9B
330
1F
100
AcDbEntity
  8
0
  6
Continuous
 62
     7
370
    15
100
AcDbCircle
 10
491.3201550945
 20
325.8420608298
 30
0.0
 40
7.200000000000043
100
AcDbArc
 50
3.6127116356
 51
73.1171184332
  0
LINE
  5
9C
330
1F
100
AcDbEntity
  8
0
  6
Continuous
 62
     7
370
    15
100
AcDbLine
 10
340.0744425394
 20
247.0111782289
 30
0.0
 11
335.2145003416
 21
247.0111782289
 31
0.0
  0
ARC
  5
9D
330
1F
100
AcDbEntity
  8
0
  6
Continuous
 62
     7
370
    15
100
AcDbCircle
 10
335.2145022736
 20
249.4111780948
 30
0.0
 40
2.400000000000006
100
AcDbArc
 50
189.462322208
 51
270.0
  0
ARC
  5
9E
330
1F
100
AcDbEntity
  8
0
  6
Continuous
 62
     7
370
    15
100
AcDbCircle
 10
301.8683897483
 20
305.8111780948
 30
0.0
 40
2.400000000000034
100
AcDbArc
 50
270.0
 51
0.0
  0
ARC
  5
9F
330
1F
100
AcDbEntity
  8
0
  6
Continuous
 62
     7
370
    15
100
AcDbCircle
 10
480.130369816
 20
288.9725408755
 30
0.0
 40
45.73015437598777
100
AcDbArc
 50
73.1171184332
 51
107.4940867794
  0
ARC
  5
A0
330
1F
100
AcDbEntity
  8
0
  6
Continuous
 62
     7
370
    15
100
AcDbCircle
 10
300.8274925457
 20
310.6111780948
 30
0.0
 40
7.200000000000032
100
AcDbArc
 50
182.7618647264
 51
270.0
  0
LINE
  5
A1
330
1F
100
AcDbEntity
  8
0
  6
Continuous
 62
     7
370
    15
100
AcDbLine
 10
330.8148550131
 20
326.9042721576
 30
0.0
 11
341.7961286642
 21
261.0166205651
 31
0.0
  0
ARC
  5
A2
330
1F
100
AcDbEntity
  8
0
  6
Continuous
 62
     7
370
    15
100
AcDbCircle
 10
344.1634748282
 20
261.4111780948
 30
0.0
 40
2.400000000000027
100
AcDbArc
 50
189.462322208
 51
211.5830314713
  0
LINE
  5
A3
330
1F
100
AcDbEntity
  8
0
  6
Continuous
 62
     7
370
    15
100
AcDbLine
 10
301.8683897593
 20
303.4111789054
 30
0.0
 11
300.8274900057
 21
303.4111789054
 31
0.0
  0
ARC
  5
A4
330
1F
100
AcDbEntity
  8
0
  6
Continuous
 62
     7
370
    15
100
AcDbCircle
 10
490.3923498838
 20
305.8111780948
 30
0.0
 40
2.400000000000034
100
AcDbArc
 50
180.0
 51
270.0
  0
LINE
  5
A5
330
1F
100
AcDbEntity
  8
0
  6
Continuous
 62
     7
370
    15
100
AcDbLine
 10
491.4332496264
 20
303.4111789054
 30
0.0
 11
490.3923498728
 21
303.4111789054
 31
0.0
  0
LINE
  5
A6
330
1F
100
AcDbEntity
  8
0
  6
Continuous
 62
     7
370
    15
100
AcDbLine
 10
457.0462392904
 20
247.0111782289
 30
0.0
 11
451.8391834833
 21
247.0111782289
 31
0.0
  0
ARC
  5
A7
330
1F
100
AcDbEntity
  8
0
  6
Continuous
 62
     7
370
    15
100
AcDbCircle
 10
323.712818165
 20
325.7205977831
 30
0.0
 40
7.200000000000037
100
AcDbArc
 50
9.462322208
 51
72.5059132206
  0
ARC
  5
A8
330
1F
100
AcDbEntity
  8
0
  6
Continuous
 62
     7
370
    15
100
AcDbCircle
 10
491.4332470863
 20
310.6111780948
 30
0.0
 40
7.200000000000092
100
AcDbArc
 50
270.0
 51
357.2381352736
  0
ARC
  5
A9
330
1F
100
AcDbEntity
  8
0
  6
Continuous
 62
     7
370
    15
100
AcDbCircle
 10
312.130369816
 20
288.9725408755
 30
0.0
 40
45.73015437598784
100
AcDbArc
 50
72.5059132206
 51
106.8828815668
  0
ARC
  5
AA
330
1F
100
AcDbEntity
  8
0
  6
Continuous
 62
     7
370
    15
100
AcDbCircle
 10
437.640568721
 20
317.2111780948
 30
0.0
 40
144.1721789727073
100
AcDbArc
 50
176.3872883644
 51
182.7618647264
  0
ARC
  5
AB
330
1F
100
AcDbEntity
  8
0
  6
Continuous
 62
     7
370
    15
100
AcDbCircle
 10
300.9405845376
 20
325.8420608298
 30
0.0
 40
7.19999999999999
100
AcDbArc
 50
106.8828815668
 51
176.3872883644
  0
LINE
  5
AC
330
1F
100
AcDbEntity
  8
0
  6
Continuous
 62
     7
370
    15
100
AcDbLine
 10
449.2287265398
 20
247.0111782289
 30
0.0
 11
342.7622126677
 21
247.0111782289
 31
0.0
  0
LINE
  5
AD
330
1F
100
AcDbEntity
  8
0
  6
Continuous
 62
     7
370
    15
100
AcDbLine
 10
344.1634761431
 20
259.0111779607
 30
0.0
 11
448.097263489
 21
259.0111779607
 31
0.0
  0
ARC
  5
AE
330
1F
100
AcDbEntity
  8
0
  6
Continuous
 62
     7
370
    15
100
AcDbCircle
 10
448.0972706624
 20
261.4111655477
 30
0.0
 40
2.399985896821712
100
AcDbArc
 50
283.6340601495
 51
321.2210624522
  0
LINE
  5
AF
330
1F
100
AcDbEntity
  8
0
  6
Continuous
 62
     7
370
    15
100
AcDbLine
 10
340.5935155489
 20
247.0111782289
 30
0.0
 11
340.0744425394
 21
247.0111782289
 31
0.0
  0
ARC
  5
B0
330
1F
100
AcDbEntity
  8
0
  6
Continuous
 62
     7
370
    15
100
AcDbCircle
 10
344.1634748282
 20
261.4111780948
 30
0.0
 40
2.400000000000027
100
AcDbArc
 50
211.5830314713
 51
221.9489340863
  0
ARC
  5
B1
330
1F
100
AcDbEntity
  8
0
  6
Continuous
 62
     7
370
    15
100
AcDbCircle
 10
344.1634680413
 20
261.411172264
 30
0.0
 40
2.399991659728469
100
AcDbArc
 50
221.9489260158
 51
253.0266846939
  0
LINE
  5
B2
330
1F
100
AcDbEntity
  8
0
  6
Continuous
 62
     7
370
    15
100
AcDbLine
 10
451.8391834833
 20
247.0111782289
 30
0.0
 11
449.2287265398
 21
247.0111782289
 31
0.0
  0
LINE
  5
B3
330
1F
100
AcDbEntity
  8
0
  6
Continuous
 62
     7
370
    15
100
AcDbLine
 10
343.4628473856
 20
259.1157222724
 30
0.0
 11
344.1634761431
 21
259.0111779607
 31
0.0
  0
LINE
  5
B4
330
1F
100
AcDbEntity
  8
0
  6
Continuous
 62
     7
370
    15
100
AcDbLine
 10
342.7622126677
 20
247.0111782289
 30
0.0
 11
340.5935155489
 21
247.0111782289
 31
0.0
  0
LINE
  5
B5
330
1F
100
AcDbEntity
  8
0
  6
Continuous
 62
     7
370
    15
100
AcDbLine
 10
448.097263489
 20
259.0111779607
 30
0.0
 11
448.6629950144
 21
259.0788087434
 31
0.0
  0
LINE
  5
B6
330
1F
100
AcDbEntity
  8
0
  6
Continuous
 62
     7
370
    15
100
AcDbLine
 10
301.8683897593
 20
303.4111789054
 30
0.0
 11
305.4683910944
 21
303.4111789054
 31
0.0
  0
LINE
  5
B7
330
1F
100
AcDbEntity
  8
0
  6
Continuous
 62
     7
370
    15
100
AcDbLine
 10
334.8284887411
 20
247.0111782289
 30
0.0
 11
335.2145003416
 21
247.0111782289
 31
0.0
  0
LINE
  5
B8
330
1F
100
AcDbEntity
  8
0
  6
Continuous
 62
     7
370
    15
100
AcDbLine
 10
486.7923485377
 20
303.4111789054
 30
0.0
 11
490.3923498728
 21
303.4111789054
 31
0.0
  0
LINE
  5
B9
330
1F
100
AcDbEntity
  8
0
  6
Continuous
 62
     7
370
    15
100
AcDbLine
 10
457.0462392904
 20
247.0111782289
 30
0.0
 11
457.4322508909
 21
247.0111782289
 31
0.0
  0
LINE
  5
BA
330
1F
100
AcDbEntity
  8
0
  6
Continuous
 62
     7
370
    15
100
AcDbLine
 10
318.3330403902
 20
323.9026954955
 30
0.0
 11
306.6683875658
 21
323.9026954955
 31
0.0
  0
ARC
  5
BB
330
1F
100
AcDbEntity
  8
0
  6
Continuous
 62
     7
370
    15
100
AcDbCircle
 10
318.3330393899
 20
321.5026952515
 30
0.0
 40
2.400000000000062
100
AcDbArc
 50
9.462322208
 51
90.0
  0
ARC
  5
BC
330
1F
100
AcDbEntity
  8
0
  6
Continuous
 62
     7
370
    15
100
AcDbCircle
 10
332.8980867603
 20
247.2511780948
 30
0.0
 40
0.2399999999999807
100
AcDbArc
 50
270.0
 51
9.462322208
  0
LINE
  5
BD
330
1F
100
AcDbEntity
  8
0
  6
Continuous
 62
     7
370
    15
100
AcDbLine
 10
331.310706053
 20
247.0111782289
 30
0.0
 11
332.8980850317
 21
247.0111782289
 31
0.0
  0
ARC
  5
BE
330
1F
100
AcDbEntity
  8
0
  6
Continuous
 62
     7
370
    15
100
AcDbCircle
 10
331.3107071574
 20
249.4111780948
 30
0.0
 40
2.400000000000046
100
AcDbArc
 50
197.4702648921
 51
270.0
  0
LINE
  5
BF
330
1F
100
AcDbEntity
  8
0
  6
Continuous
 62
     7
370
    15
100
AcDbLine
 10
312.063609276
 20
302.5714299268
 30
0.0
 11
329.0214108565
 21
248.6906720883
 31
0.0
  0
ARC
  5
C0
330
1F
100
AcDbEntity
  8
0
  6
Continuous
 62
     7
370
    15
100
AcDbCircle
 10
310.9189644058
 20
302.2111780948
 30
0.0
 40
1.199999999999989
100
AcDbArc
 50
17.4702648921
 51
90.0
  0
LINE
  5
C1
330
1F
100
AcDbEntity
  8
0
  6
Continuous
 62
     7
370
    15
100
AcDbLine
 10
305.4683910944
 20
303.4111789054
 30
0.0
 11
310.9189616778
 21
303.4111789054
 31
0.0
  0
ARC
  5
C2
330
1F
100
AcDbEntity
  8
0
  6
Continuous
 62
     7
370
    15
100
AcDbCircle
 10
305.4683897483
 20
304.6111780948
 30
0.0
 40
1.199999999999989
100
AcDbArc
 50
180.0
 51
270.0
  0
LINE
  5
C3
330
1F
100
AcDbEntity
  8
0
  6
Continuous
 62
     7
370
    15
100
AcDbLine
 10
304.2683886625
 20
321.5026965923
 30
0.0
 11
304.2683886625
 21
304.6111753768
 31
0.0
  0
LINE
  5
C4
330
1F
100
AcDbEntity
  8
0
  6
Continuous
 62
     7
370
    15
100
AcDbLine
 10
333.1348227598
 20
247.2906338609
 30
0.0
 11
320.7003819086
 21
321.8972554988
 31
0.0
  0
ARC
  5
C5
330
1F
100
AcDbEntity
  8
0
  6
Continuous
 62
     7
370
    15
100
AcDbCircle
 10
306.6683897483
 20
321.5026952515
 30
0.0
 40
2.399999999999977
100
AcDbArc
 50
90.0
 51
180.0
  0
ARC
  5
C6
330
1F
100
AcDbEntity
  8
0
  6
Continuous
 62
     7
370
    15
100
AcDbCircle
 10
481.3417752263
 20
302.2111780948
 30
0.0
 40
1.199999999999989
100
AcDbArc
 50
90.0
 51
162.5297351079
  0
LINE
  5
C7
330
1F
100
AcDbEntity
  8
0
  6
Continuous
 62
     7
370
    15
100
AcDbLine
 10
463.2393287756
 20
248.6906720883
 30
0.0
 11
480.197130356
 21
302.5714299268
 31
0.0
  0
ARC
  5
C8
330
1F
100
AcDbEntity
  8
0
  6
Continuous
 62
     7
370
    15
100
AcDbCircle
 10
460.9500324747
 20
249.4111780948
 30
0.0
 40
2.399999999999977
100
AcDbArc
 50
270.0
 51
342.5297351079
  0
LINE
  5
C9
330
1F
100
AcDbEntity
  8
0
  6
Continuous
 62
     7
370
    15
100
AcDbLine
 10
471.5603577234
 20
321.8972554988
 30
0.0
 11
459.1259168722
 21
247.2906338609
 31
0.0
  0
ARC
  5
CA
330
1F
100
AcDbEntity
  8
0
  6
Continuous
 62
     7
370
    15
100
AcDbCircle
 10
473.9277002421
 20
321.5026952515
 30
0.0
 40
2.400000000000071
100
AcDbArc
 50
90.0
 51
170.537677792
  0
LINE
  5
CB
330
1F
100
AcDbEntity
  8
0
  6
Continuous
 62
     7
370
    15
100
AcDbLine
 10
485.5923520662
 20
323.9026954955
 30
0.0
 11
473.9276992418
 21
323.9026954955
 31
0.0
  0
ARC
  5
CC
330
1F
100
AcDbEntity
  8
0
  6
Continuous
 62
     7
370
    15
100
AcDbCircle
 10
485.5923498838
 20
321.5026952515
 30
0.0
 40
2.400000000000034
100
AcDbArc
 50
0.0
 51
90.0
  0
LINE
  5
CD
330
1F
100
AcDbEntity
  8
0
  6
Continuous
 62
     7
370
    15
100
AcDbLine
 10
487.9923509695
 20
304.6111753768
 30
0.0
 11
487.9923509695
 21
321.5026965923
 31
0.0
  0
ARC
  5
CE
330
1F
100
AcDbEntity
  8
0
  6
Continuous
 62
     7
370
    15
100
AcDbCircle
 10
486.7923498838
 20
304.6111780948
 30
0.0
 40
1.200000000000045
100
AcDbArc
 50
270.0
 51
0.0
  0
LINE
  5
CF
330
1F
100
AcDbEntity
  8
0
  6
Continuous
 62
     7
370
    15
100
AcDbLine
 10
481.3417779543
 20
303.4111789054
 30
0.0
 11
486.7923485377
 21
303.4111789054
 31
0.0
  0
ARC
  5
D0
330
1F
100
AcDbEntity
  8
0
  6
Continuous
 62
     7
370
    15
100
AcDbCircle
 10
459.3626528718
 20
247.2511780948
 30
0.0
 40
0.2400000000000128
100
AcDbArc
 50
170.537677792
 51
270.0
  0
LINE
  5
D1
330
1F
100
AcDbEntity
  8
0
  6
Continuous
 62
     7
370
    15
100
AcDbLine
 10
459.3626546003
 20
247.0111782289
 30
0.0
 11
460.9500335791
 21
247.0111782289
 31
0.0
  0
ARC
  5
D2
330
1F
100
AcDbEntity
  8
0
  6
Continuous
 62
     7
370
    15
100
AcDbCircle
 10
342.3800273342
 20
279.4111780948
 30
0.0
 40
3.600000000000018
100
AcDbArc
 50
90.0
 51
189.462322208
  0
ARC
  5
D3
330
1F
100
AcDbEntity
  8
0
  6
Continuous
 62
     7
370
    15
100
AcDbCircle
 10
449.8807122979
 20
279.4111780948
 30
0.0
 40
3.600000000000028
100
AcDbArc
 50
350.537677792
 51
90.0
  0
ARC
  5
D4
330
1F
100
AcDbEntity
  8
0
  6
Continuous
 62
     7
370
    15
100
AcDbCircle
 10
345.1800273342
 20
262.6111780948
 30
0.0
 40
3.600000000000018
100
AcDbArc
 50
189.462322208
 51
270.0
  0
LINE
  5
D5
330
1F
100
AcDbEntity
  8
0
  6
Continuous
 62
     7
370
    15
100
AcDbLine
 10
342.3800276854
 20
283.0111792869
 30
0.0
 11
449.8807119467
 21
283.0111792869
 31
0.0
  0
ARC
  5
D6
330
1F
100
AcDbEntity
  8
0
  6
Continuous
 62
     7
370
    15
100
AcDbCircle
 10
447.0807122979
 20
262.6111780948
 30
0.0
 40
3.599999999999966
100
AcDbArc
 50
270.0
 51
350.537677792
  0
ARC
  5
D7
330
1F
100
AcDbEntity
  8
0
  6
Continuous
 62
     7
370
    15
100
AcDbCircle
 10
312.1303349165
 20
195.0111780948
 30
0.0
 40
1.600000000000025
100
AcDbArc
 50
152.054173459
 51
332.0361769922
  0
ARC
  5
D8
330
1F
100
AcDbEntity
  8
0
  6
Continuous
 62
     7
370
    15
100
AcDbCircle
 10
480.1304047155
 20
195.0111780948
 30
0.0
 40
1.600000000000048
100
AcDbArc
 50
207.9648662144
 51
27.945826541
  0
ARC
  5
D9
330
1F
100
AcDbEntity
  8
0
  6
Continuous
 62
     7
370
    15
100
AcDbCircle
 10
333.262569816
 20
247.0111780948
 30
0.0
 40
1.599999999999978
100
AcDbArc
 50
337.8837095434
 51
0.9301991184
  0
ARC
  5
DA
330
1F
100
AcDbEntity
  8
0
  6
Continuous
 62
     7
370
    15
100
AcDbCircle
 10
458.998169816
 20
247.0111780948
 30
0.0
 40
1.60000000000003
100
AcDbArc
 50
179.0698008829
 51
202.1162904566
  0
LINE
  5
DB
330
1F
100
AcDbEntity
  8
0
  6
Continuous
 62
     7
370
    15
100
AcDbLine
 10
343.0625723936
 20
245.4111783392
 30
0.0
 11
335.0625681021
 21
245.4111783392
 31
0.0
  0
LINE
  5
DC
330
1F
100
AcDbEntity
  8
0
  6
Continuous
 62
     7
370
    15
100
AcDbLine
 10
457.19817153
 20
245.4111783392
 30
0.0
 11
449.1981672384
 21
245.4111783392
 31
0.0
  0
LWPOLYLINE
  5
DD
330
1F
100
AcDbEntity
  8
0
  6
Continuous
 62
     7
370
    15
100
AcDbPolyline
 90
       17
 70
   128
 43
0.0
 10
396.130369816
 20
308.8788023776
 10
396.6118134354
 20
308.912556488
 10
397.0829959289
 20
309.0130916423
 10
397.5338748918
 20
309.1782620734
 10
397.9548404255
 20
309.4045570678
 10
398.3369207271
 20
309.6871486491
 10
398.671972219
 20
310.0200107879
 10
398.9528537058
 20
310.3960505313
 10
399.1735790186
 20
310.8072629756
 10
399.3294434883
 20
311.2448683566
 10
399.4171252736
 20
311.6995504684
 10
399.4347555824
 20
312.1616175956
 10
399.3819585331
 20
312.6212111301
 10
399.2598599084
 20
313.0685499496
 10
399.0710612648
 20
313.494097311
 10
398.8195870333
 20
313.8887754268
 10
398.5330924653
 20
314.2218044586
  0
LWPOLYLINE
  5
DE
330
1F
100
AcDbEntity
  8
0
  6
Continuous
 62
     7
370
    15
100
AcDbPolyline
 90
       18
 70
   128
 43
0.0
 10
393.963763889
 20
314.4384733028
 10
393.7499428429
 20
314.2441740817
 10
393.4411525988
 20
313.8887754268
 10
393.1896783673
 20
313.494097311
 10
393.0008797236
 20
313.0685499496
 10
392.8787810989
 20
312.6212111301
 10
392.8259840496
 20
312.1616175956
 10
392.8436143585
 20
311.6995504684
 10
392.9312961437
 20
311.2448683566
 10
393.0871606134
 20
310.8072629756
 10
393.3078859263
 20
310.3960505313
 10
393.5887674131
 20
310.0200107879
 10
393.923818905
 20
309.6871486491
 10
394.3058992066
 20
309.4045570678
 10
394.7268647403
 20
309.1782620734
 10
395.1777437032
 20
309.0130916423
 10
395.6489261967
 20
308.912556488
 10
396.130369816
 20
308.8788023776
  0
LINE
  5
DF
330
1F
100
AcDbEntity
  8
0
  6
Continuous
 62
     7
370
    15
100
AcDbLine
 10
440.8377545216
 20
693.0141816572
 30
0.0
 11
351.4229851105
 21
693.0141816572
 31
0.0
  0
ARC
  5
E0
330
1F
100
AcDbEntity
  8
0
  6
Continuous
 62
     7
370
    15
100
AcDbCircle
 10
441.287565852
 20
631.1050198624
 30
0.0
 40
61.91079586289046
100
AcDbArc
 50
85.784259869
 51
90.4162847077
  0
ARC
  5
E1
330
1F
100
AcDbEntity
  8
0
  6
Continuous
 62
     7
370
    15
100
AcDbCircle
 10
350.9732987421
 20
631.1012523891
 30
0.0
 40
61.91456232900817
100
AcDbArc
 50
89.5838562597
 51
94.2155991636
  0
LINE
  5
E2
330
1F
100
AcDbEntity
  8
0
  6
Continuous
 62
     7
370
    15
100
AcDbLine
 10
346.4219765999
 20
692.8483049111
 30
0.0
 11
334.1579603293
 21
691.745019211
 31
0.0
  0
LINE
  5
E3
330
1F
100
AcDbEntity
  8
0
  6
Continuous
 62
     7
370
    15
100
AcDbLine
 10
458.1027793028
 20
691.745019211
 30
0.0
 11
445.8387630322
 21
692.8483049111
 31
0.0
  0
LINE
  5
E4
330
1F
100
AcDbEntity
  8
0
  6
Continuous
 62
     7
370
    15
100
AcDbLine
 10
385.383074198
 20
670.8555216626
 30
0.0
 11
388.6612134316
 21
670.7915658788
 31
0.0
  0
LINE
  5
E5
330
1F
100
AcDbEntity
  8
0
  6
Continuous
 62
     7
370
    15
100
AcDbLine
 10
403.5995262005
 20
670.7915658788
 30
0.0
 11
406.5533818938
 21
670.8463395671
 31
0.0
  0
LINE
  5
E6
330
1F
100
AcDbEntity
  8
0
  6
Continuous
 62
     7
370
    15
100
AcDbLine
 10
396.7383260634
 20
670.5244536237
 30
0.0
 11
403.885328237
 21
670.7659835653
 31
0.0
  0
LINE
  5
E7
330
1F
100
AcDbEntity
  8
0
  6
Continuous
 62
     7
370
    15
100
AcDbLine
 10
388.375411395
 20
670.7659835653
 30
0.0
 11
395.5224135686
 21
670.5244536237
 31
0.0
  0
ARC
  5
E8
330
1F
100
AcDbEntity
  8
0
  6
Continuous
 62
     7
370
    15
100
AcDbCircle
 10
396.130369816
 20
688.514183906
 30
0.0
 40
18.00000000000007
100
AcDbArc
 50
268.063818648
 51
271.9363059981
  0
ARC
  5
E9
330
1F
100
AcDbEntity
  8
0
  6
Continuous
 62
     7
370
    15
100
AcDbCircle
 10
337.147373767
 20
676.4888590697
 30
0.0
 40
6.749619439480099
100
AcDbArc
 50
189.7238495616
 51
209.7850016172
  0
ARC
  5
EA
330
1F
100
AcDbEntity
  8
0
  6
Continuous
 62
     7
370
    15
100
AcDbCircle
 10
454.8580881668
 20
676.5646938972
 30
0.0
 40
7.014109417281042
100
AcDbArc
 50
330.6800969002
 51
350.0177833712
  0
ARC
  5
EB
330
1F
100
AcDbEntity
  8
0
  6
Continuous
 62
     7
370
    15
100
AcDbCircle
 10
338.0746951804
 20
676.6750581011
 30
0.0
 40
7.695114228406468
100
AcDbArc
 50
179.9335053072
 51
189.924137838
  0
ARC
  5
EC
330
1F
100
AcDbEntity
  8
0
  6
Continuous
 62
     7
370
    15
100
AcDbCircle
 10
454.1886935028
 20
676.6748296549
 30
0.0
 40
7.692465447698482
100
AcDbArc
 50
350.0741377289
 51
0.0682191259
  0
ARC
  5
ED
330
1F
100
AcDbEntity
  8
0
  6
Continuous
 62
     7
370
    15
100
AcDbCircle
 10
457.8494129531
 20
687.7278473047
 30
0.0
 40
4.025153988605515
100
AcDbArc
 50
0.0965720707
 51
86.3910881352
  0
LINE
  5
EE
330
1F
100
AcDbEntity
  8
0
  6
Continuous
 62
     7
370
    15
100
AcDbLine
 10
330.3795861342
 20
687.7339626388
 30
0.0
 11
330.3795861342
 21
676.6839886741
 31
0.0
  0
ARC
  5
EF
330
1F
100
AcDbEntity
  8
0
  6
Continuous
 62
     7
370
    15
100
AcDbCircle
 10
334.4126718139
 20
687.723935196
 30
0.0
 40
4.029143159041877
100
AcDbArc
 50
93.6245004404
 51
179.8771129339
  0
LINE
  5
F0
330
1F
100
AcDbEntity
  8
0
  6
Continuous
 62
     7
370
    15
100
AcDbLine
 10
461.8811534979
 20
676.6839886741
 30
0.0
 11
461.8811534979
 21
687.7339626388
 31
0.0
  0
LINE
  5
F1
330
1F
100
AcDbEntity
  8
0
  6
Continuous
 62
     7
370
    15
100
AcDbLine
 10
331.2819170096
 20
673.1353069381
 30
0.0
 11
342.0650350191
 21
653.7256921367
 31
0.0
  0
LINE
  5
F2
330
1F
100
AcDbEntity
  8
0
  6
Continuous
 62
     7
370
    15
100
AcDbLine
 10
450.1957046129
 20
653.7256921367
 30
0.0
 11
460.9788226225
 21
673.1353069381
 31
0.0
  0
LWPOLYLINE
  5
F3
330
1F
100
AcDbEntity
  8
0
  6
Continuous
 62
     7
370
    15
100
AcDbPolyline
 90
       18
 70
   128
 43
0.0
 10
492.8671466448
 20
691.792204483
 10
492.0258092024
 20
691.8071428971
 10
490.4138671496
 20
691.8327117995
 10
488.7872683146
 20
691.8545449809
 10
487.1484028437
 20
691.8726118938
 10
485.4995893576
 20
691.8868886964
 10
483.8431703188
 20
691.897355272
 10
482.1814941504
 20
691.9039967195
 10
480.5169152357
 20
691.9068063335
 10
478.8517998793
 20
691.9057781533
 10
477.1885203459
 20
691.9009151594
 10
475.5294369795
 20
691.8922233121
 10
473.8769041636
 20
691.8797145323
 10
472.2332703211
 20
691.8634067015
 10
470.6008719542
 20
691.8433214263
 10
468.9820098021
 20
691.819487019
 10
467.3789905646
 20
691.791935517
 10
466.9465171435
 20
691.783812894
  0
LWPOLYLINE
  5
F4
330
1F
100
AcDbEntity
  8
0
  6
Continuous
 62
     7
370
    15
100
AcDbPolyline
 90
       18
 70
   128
 43
0.0
 10
325.3142224886
 20
691.783812894
 10
324.475525532
 20
691.7992959456
 10
322.8680895903
 20
691.8259079293
 10
321.2453471758
 20
691.8487938778
 10
319.6096943953
 20
691.8679210083
 10
317.9634379484
 20
691.8832639889
 10
316.3089202978
 20
691.894801958
 10
314.6484779455
 20
691.9025185243
 10
312.9844771959
 20
691.9064047472
 10
311.319278393
 20
691.906453921
 10
309.6552418806
 20
691.9026675359
 10
307.9947399237
 20
691.8950493173
 10
306.3401328661
 20
691.8836111859
 10
304.6937631704
 20
691.8683680431
 10
303.0579732992
 20
691.8493414954
 10
301.4350818731
 20
691.8265568749
 10
299.8273777105
 20
691.8000447289
 10
299.3935929873
 20
691.792204483
  0
LWPOLYLINE
  5
F5
330
1F
100
AcDbEntity
  8
0
  6
Continuous
 62
     7
370
    15
100
AcDbPolyline
 90
       16
 70
   128
 43
0.0
 10
497.8956925013
 20
690.9524935023
 10
497.6606237032
 20
691.1471727029
 10
497.4664198496
 20
691.269994779
 10
497.2808229067
 20
691.3626062409
 10
497.1068846323
 20
691.431364669
 10
496.9390856363
 20
691.4840261177
 10
496.7600332834
 20
691.5283809141
 10
496.5336667635
 20
691.5715972618
 10
496.1360918619
 20
691.6260922984
 10
495.7733737566
 20
691.6622961597
 10
495.3867243864
 20
691.6925671236
 10
494.9343072512
 20
691.7207124368
 10
494.4529639818
 20
691.7444574372
 10
493.9430045225
 20
691.7642767266
 10
493.4074389078
 20
691.7802939848
 10
492.8671466448
 20
691.792204483
  0
LWPOLYLINE
  5
F6
330
1F
100
AcDbEntity
  8
0
  6
Continuous
 62
     7
370
    15
100
AcDbPolyline
 90
       16
 70
   128
 43
0.0
 10
299.3935929873
 20
691.792204483
 10
299.1005407908
 20
691.7862402932
 10
298.5578405001
 20
691.7720148997
 10
298.040621195
 20
691.7541156248
 10
297.5534843542
 20
691.7326020734
 10
297.1001969912
 20
691.707458599
 10
296.682916794
 20
691.6784661547
 10
296.3007198908
 20
691.6448416845
 10
295.9452616312
 20
691.6040214435
 10
295.580505047
 20
691.5450046496
 10
295.3420626261
 20
691.4896438555
 10
295.1687680819
 20
691.436548783
 10
294.9794875719
 20
691.362414761
 10
294.7741257288
 20
691.2585499422
 10
294.5666061976
 20
691.1228346364
 10
294.3650471308
 20
690.9524935023
  0
LWPOLYLINE
  5
F7
330
1F
100
AcDbEntity
  8
0
  6
Continuous
 62
     7
370
    15
100
AcDbPolyline
 90
       12
 70
   128
 43
0.0
 10
466.9465171435
 20
691.783812894
 10
466.6544424631
 20
691.7776572243
 10
466.1139475443
 20
691.7630719678
 10
465.5994462111
 20
691.7448210255
 10
465.1154386141
 20
691.7229587869
 10
464.6655725577
 20
691.6974584297
 10
464.2517971136
 20
691.6680658893
 10
463.8727413752
 20
691.6339064674
 10
463.518803034
 20
691.5920811431
 10
463.1477164366
 20
691.5294873254
 10
462.9595624544
 20
691.4850118295
 10
462.7344535925
 20
691.4144324795
  0
LWPOLYLINE
  5
F8
330
1F
100
AcDbEntity
  8
0
  6
Continuous
 62
     7
370
    15
100
AcDbPolyline
 90
       12
 70
   128
 43
0.0
 10
329.5262860396
 20
691.4144324795
 10
329.3008195498
 20
691.4851064519
 10
329.1269051172
 20
691.526570423
 10
328.8858222105
 20
691.570817186
 10
328.509371195
 20
691.6209126548
 10
328.1454431154
 20
691.6567223803
 10
327.7572559454
 20
691.686734064
 10
327.3035036661
 20
691.7146327631
 10
326.8206881621
 20
691.7381743626
 10
326.3093518355
 20
691.757800682
 10
325.7726120093
 20
691.7736272053
 10
325.3142224886
 20
691.783812894
  0
LINE
  5
F9
330
1F
100
AcDbEntity
  8
0
  6
Continuous
 62
     7
370
    15
100
AcDbLine
 10
462.7344535925
 20
691.4144324795
 30
0.0
 11
460.6195556261
 21
690.6444462673
 31
0.0
  0
LINE
  5
FA
330
1F
100
AcDbEntity
  8
0
  6
Continuous
 62
     7
370
    15
100
AcDbLine
 10
331.6416131594
 20
690.64428906
 30
0.0
 11
329.5262860396
 21
691.4144324795
 31
0.0
  0
LINE
  5
FB
330
1F
100
AcDbEntity
  8
0
  6
Continuous
 62
     7
370
    15
100
AcDbLine
 10
293.4683906176
 20
688.9668906764
 30
0.0
 11
293.4683906176
 21
558.9780087308
 31
0.0
  0
ARC
  5
FC
330
1F
100
AcDbEntity
  8
0
  6
Continuous
 62
     7
370
    15
100
AcDbCircle
 10
296.0060550734
 20
689.0037925194
 30
0.0
 40
2.536516712721134
100
AcDbArc
 50
132.9194839246
 51
180.9080280447
  0
LINE
  5
FD
330
1F
100
AcDbEntity
  8
0
  6
Continuous
 62
     7
370
    15
100
AcDbLine
 10
498.7923490145
 20
558.9780087308
 30
0.0
 11
498.7923490145
 21
688.9668906764
 31
0.0
  0
ARC
  5
FE
330
1F
100
AcDbEntity
  8
0
  6
Continuous
 62
     7
370
    15
100
AcDbCircle
 10
496.0622574733
 20
688.9377097006
 30
0.0
 40
2.724121467415403
100
AcDbArc
 50
0.5919063242
 51
47.6980892427
  0
ARC
  5
FF
330
1F
100
AcDbEntity
  8
0
  6
Continuous
 62
     7
370
    15
100
AcDbCircle
 10
295.8683897483
 20
558.9780095891
 30
0.0
 40
2.400000000000034
100
AcDbArc
 50
180.0
 51
270.0
  0
ARC
  5
100
330
1F
100
AcDbEntity
  8
0
  6
Continuous
 62
     7
370
    15
100
AcDbCircle
 10
496.3923498838
 20
558.9780095891
 30
0.0
 40
2.400000000000034
100
AcDbArc
 50
270.0
 51
0.0
  0
ARC
  5
101
330
1F
100
AcDbEntity
  8
0
  6
Continuous
 62
     7
370
    15
100
AcDbCircle
 10
449.8807122979
 20
650.1394992459
 30
0.0
 40
3.600000000000023
100
AcDbArc
 50
0.0
 51
90.0
  0
ARC
  5
102
330
1F
100
AcDbEntity
  8
0
  6
Continuous
 62
     7
370
    15
100
AcDbCircle
 10
342.3800273342
 20
650.1394992459
 30
0.0
 40
3.600000000000023
100
AcDbArc
 50
90.0
 51
180.0
  0
LINE
  5
103
330
1F
100
AcDbEntity
  8
0
  6
Continuous
 62
     7
370
    15
100
AcDbLine
 10
449.8807119467
 20
653.7394995526
 30
0.0
 11
342.3800276854
 21
653.7394995526
 31
0.0
  0
LINE
  5
104
330
1F
100
AcDbEntity
  8
0
  6
Continuous
 62
     7
370
    15
100
AcDbLine
 10
338.7800263502
 20
650.1394982175
 30
0.0
 11
338.7800263502
 21
564.9780149297
 31
0.0
  0
LINE
  5
105
330
1F
100
AcDbEntity
  8
0
  6
Continuous
 62
     7
370
    15
100
AcDbLine
 10
453.4807132818
 20
564.9780149297
 30
0.0
 11
453.4807132818
 21
650.1394982175
 31
0.0
  0
LWPOLYLINE
  5
106
330
1F
100
AcDbEntity
  8
0
  6
Continuous
 62
     7
370
    15
100
AcDbPolyline
 90
       23
 70
   128
 43
0.0
 10
338.7800263502
 20
564.9780149297
 10
338.7816416361
 20
564.6549100713
 10
338.7935923674
 20
564.0436763601
 10
338.817225609
 20
563.439797862
 10
338.8527320959
 20
562.8465766744
 10
338.9006125071
 20
562.2661228017
 10
338.9619754889
 20
561.6987819509
 10
339.0392111876
 20
561.1415262059
 10
339.1378270723
 20
560.5843419866
 10
339.2721640207
 20
560.0004668073
 10
339.4356595614
 20
559.4622607068
 10
339.5883607008
 20
559.0695257024
 10
339.7635268309
 20
558.7050313787
 10
339.9686860182
 20
558.3576316671
 10
340.2113246061
 20
558.0230350331
 10
340.4954957106
 20
557.7051753835
 10
340.8209609129
 20
557.4125404195
 10
341.1845254042
 20
557.1539397077
 10
341.5809320547
 20
556.9370860891
 10
342.0039164164
 20
556.7679161863
 10
342.446612034
 20
556.6507334546
 10
342.950420294
 20
556.5850729779
 10
343.1800293066
 20
556.5780038671
  0
LWPOLYLINE
  5
107
330
1F
100
AcDbEntity
  8
0
  6
Continuous
 62
     7
370
    15
100
AcDbPolyline
 90
       23
 70
   128
 43
0.0
 10
449.0807103254
 20
556.5780038671
 10
449.5569633581
 20
556.6085095243
 10
450.0196682551
 20
556.6979403333
 10
450.4548298456
 20
556.8397278623
 10
450.8583771326
 20
557.027208312
 10
451.2270795443
 20
557.2535748319
 10
451.5586363413
 20
557.5118775205
 10
451.8517719843
 20
557.7949399785
 10
452.1065460779
 20
558.0957884626
 10
452.3250328638
 20
558.4088797406
 10
452.5115536787
 20
558.7321753339
 10
452.6728021242
 20
559.0705032186
 10
452.8171049692
 20
559.4395274953
 10
452.9539393522
 20
559.8733658628
 10
453.0929552653
 20
560.4394907788
 10
453.1993078329
 20
561.0034580068
 10
453.2798754313
 20
561.5494842366
 10
453.3490585425
 20
562.1524209813
 10
453.4012066462
 20
562.7529377774
 10
453.4393476584
 20
563.3576149778
 10
453.4648346045
 20
563.9677042798
 10
453.4782873728
 20
564.581632121
 10
453.4807132818
 20
564.9780149297
  0
LINE
  5
108
330
1F
100
AcDbEntity
  8
0
  6
Continuous
 62
     7
370
    15
100
AcDbLine
 10
313.3523093798
 20
693.436705573
 30
0.0
 11
316.3002180197
 21
691.8948421911
 31
0.0
  0
LINE
  5
109
330
1F
100
AcDbEntity
  8
0
  6
Continuous
 62
     7
370
    15
100
AcDbLine
 10
323.3517634012
 20
691.8179000453
 30
0.0
 11
314.8354159929
 21
696.2722665356
 31
0.0
  0
LINE
  5
10A
330
1F
100
AcDbEntity
  8
0
  6
Continuous
 62
     7
370
    15
100
AcDbLine
 10
477.4253236391
 20
696.2722665356
 30
0.0
 11
468.9096318819
 21
691.818242772
 31
0.0
  0
LINE
  5
10B
330
1F
100
AcDbEntity
  8
0
  6
Continuous
 62
     7
370
    15
100
AcDbLine
 10
475.959824238
 20
691.8944778577
 30
0.0
 11
478.9084302523
 21
693.436705573
 31
0.0
  0
LINE
  5
10C
330
1F
100
AcDbEntity
  8
0
  6
Continuous
 62
     7
370
    15
100
AcDbLine
 10
325.2217637636
 20
556.5780038671
 30
0.0
 11
313.3523093798
 21
550.3698463277
 31
0.0
  0
LINE
  5
10D
330
1F
100
AcDbEntity
  8
0
  6
Continuous
 62
     7
370
    15
100
AcDbLine
 10
314.8354159929
 20
547.5342864827
 30
0.0
 11
332.1262048819
 21
556.5780038671
 31
0.0
  0
LINE
  5
10E
330
1F
100
AcDbEntity
  8
0
  6
Continuous
 62
     7
370
    15
100
AcDbLine
 10
460.1345347502
 20
556.5780038671
 30
0.0
 11
477.4253236391
 21
547.5342864827
 31
0.0
  0
LINE
  5
10F
330
1F
100
AcDbEntity
  8
0
  6
Continuous
 62
     7
370
    15
100
AcDbLine
 10
478.9084302523
 20
550.3698463277
 30
0.0
 11
467.0389758684
 21
556.5780038671
 31
0.0
  0
ARC
  5
110
330
1F
100
AcDbEntity
  8
0
  6
Continuous
 62
     7
370
    15
100
AcDbCircle
 10
473.9103735902
 20
691.504798652
 30
0.0
 40
4.573891591143141
100
AcDbArc
 50
5.0152505919
 51
20.0158725234
  0
LWPOLYLINE
  5
111
330
1F
100
AcDbEntity
  8
0
  6
Continuous
 62
     7
370
    15
100
AcDbPolyline
 90
       17
 70
   128
 43
0.0
 10
481.6868232824
 20
691.9048319296
 10
481.6776978113
 20
692.0284497277
 10
481.6215144732
 20
692.4979726509
 10
481.5545724966
 20
692.9051982896
 10
481.461464081
 20
693.3426665799
 10
481.378989134
 20
693.6590860323
 10
481.3183592894
 20
693.8628191785
 10
481.1861025431
 20
694.2452977137
 10
480.978135977
 20
694.7251978056
 10
480.6657480337
 20
695.2663066522
 10
480.2945303061
 20
695.7291106419
 10
479.9254583456
 20
696.0565197007
 10
479.5756565668
 20
696.2762209312
 10
479.251532469
 20
696.415971844
 10
478.763251219
 20
696.5273934142
 10
478.1267093756
 20
696.5089405612
 10
477.4236129858
 20
696.2713698582
  0
LWPOLYLINE
  5
112
330
1F
100
AcDbEntity
  8
0
  6
Continuous
 62
     7
370
    15
100
AcDbPolyline
 90
       17
 70
   128
 43
0.0
 10
314.8371266462
 20
696.2713698582
 10
314.4654082396
 20
696.4274364249
 10
314.0929030516
 20
696.515475838
 10
313.4265171625
 20
696.5181878493
 10
312.9276620485
 20
696.3861337588
 10
312.5739204027
 20
696.2148240493
 10
312.1949719526
 20
695.945520951
 10
311.9085597136
 20
695.66854897
 10
311.676089678
 20
695.3833668218
 10
311.5096913912
 20
695.1369537697
 10
311.350397978
 20
694.8593484894
 10
311.1994253733
 20
694.5480945245
 10
311.0341178515
 20
694.1348205046
 10
310.8564721682
 20
693.5650164918
 10
310.6916653254
 20
692.8225452737
 10
310.5740772822
 20
691.9301311211
 10
310.5729567148
 20
691.9047559337
  0
ARC
  5
113
330
1F
100
AcDbEntity
  8
0
  6
Continuous
 62
     7
370
    15
100
AcDbCircle
 10
318.2994121056
 20
691.5160862132
 30
0.0
 40
4.522157036318718
100
AcDbArc
 50
159.8975308554
 51
175.072537145
  0
LWPOLYLINE
  5
114
330
1F
100
AcDbEntity
  8
0
  6
Continuous
 62
     7
370
    15
100
AcDbPolyline
 90
       18
 70
   128
 43
0.0
 10
310.5303393938
 20
552.8646583394
 10
310.5445431807
 20
552.300273879
 10
310.5830298998
 20
551.778089507
 10
310.6393026449
 20
551.3081545667
 10
310.7062803843
 20
550.9005541639
 10
310.7992576697
 20
550.4636759595
 10
310.8817445376
 20
550.1477236585
 10
310.9424518683
 20
549.943935378
 10
311.0747443773
 20
549.56103514
 10
311.2824427225
 20
549.0813250379
 10
311.5950750448
 20
548.5402579145
 10
311.9662272074
 20
548.0773801641
 10
312.3350667097
 20
547.7501268224
 10
312.6849936583
 20
547.5304241018
 10
313.0093204119
 20
547.3906273679
 10
313.4976076224
 20
547.2791428403
 10
314.1339170077
 20
547.2975487546
 10
314.8371266462
 20
547.5351805524
  0
ARC
  5
115
330
1F
100
AcDbEntity
  8
0
  6
Continuous
 62
     7
370
    15
100
AcDbCircle
 10
320.0086515877
 20
552.7266009146
 30
0.0
 40
6.27984131622029
100
AcDbArc
 50
178.7402953863
 51
198.4793088524
  0
ARC
  5
116
330
1F
100
AcDbEntity
  8
0
  6
Continuous
 62
     7
370
    15
100
AcDbCircle
 10
472.2520880444
 20
552.7266009146
 30
0.0
 40
6.279841316220317
100
AcDbArc
 50
341.5206911476
 51
1.2597046137
  0
LWPOLYLINE
  5
117
330
1F
100
AcDbEntity
  8
0
  6
Continuous
 62
     7
370
    15
100
AcDbPolyline
 90
       18
 70
   128
 43
0.0
 10
477.4236129858
 20
547.5351805524
 10
477.7953552344
 20
547.3790998296
 10
478.1678783037
 20
547.2910280065
 10
478.5189913847
 20
547.2648734883
 10
478.8339482882
 20
547.2883338765
 10
479.3327914812
 20
547.4203939275
 10
479.6866821386
 20
547.5916619138
 10
480.0656365492
 20
547.8608245687
 10
480.3518878557
 20
548.1376643018
 10
480.584316168
 20
548.4228606061
 10
480.7508217432
 20
548.6693258123
 10
480.9102105238
 20
548.946725829
 10
481.0610281565
 20
549.2574448423
 10
481.2260555365
 20
549.6704215841
 10
481.4039336779
 20
550.2403373555
 10
481.5687345602
 20
550.9820098714
 10
481.6866146662
 20
551.8757815198
 10
481.7304002382
 20
552.8646583394
  0
LINE
  5
118
330
1F
100
AcDbEntity
  8
0
  6
Continuous
 62
     7
370
    15
100
AcDbLine
 10
481.7304061987
 20
552.8646583394
 30
0.0
 11
481.7304061987
 21
556.5780038671
 31
0.0
  0
LINE
  5
119
330
1F
100
AcDbEntity
  8
0
  6
Continuous
 62
     7
370
    15
100
AcDbLine
 10
478.5304056742
 20
556.5780038671
 30
0.0
 11
478.5304056742
 21
552.8646583394
 31
0.0
  0
LINE
  5
11A
330
1F
100
AcDbEntity
  8
0
  6
Continuous
 62
     7
370
    15
100
AcDbLine
 10
313.7303339579
 20
552.8646583394
 30
0.0
 11
313.7303339579
 21
556.5780038671
 31
0.0
  0
LINE
  5
11B
330
1F
100
AcDbEntity
  8
0
  6
Continuous
 62
     7
370
    15
100
AcDbLine
 10
310.5303334334
 20
556.5780038671
 30
0.0
 11
310.5303334334
 21
552.8646583394
 31
0.0
  0
LWPOLYLINE
  5
11C
330
1F
100
AcDbEntity
  8
0
  6
Continuous
 62
     7
370
    15
100
AcDbPolyline
 90
       25
 70
   128
 43
0.0
 10
392.8388992586
 20
668.843948348
 10
392.8682355472
 20
668.7120432691
 10
392.9722724744
 20
668.4849644736
 10
393.1122778245
 20
668.2889545993
 10
393.283525508
 20
668.1198204593
 10
393.4898890816
 20
667.9706359939
 10
393.7483517714
 20
667.8331906633
 10
394.0854111948
 20
667.7038962678
 10
394.481271159
 20
667.5970251397
 10
394.8892057203
 20
667.5209487514
 10
395.3064319939
 20
667.4697364406
 10
395.7316504587
 20
667.44034241
 10
396.1606965516
 20
667.4316073493
 10
396.587919144
 20
667.4431438283
 10
397.0067736954
 20
667.4748892621
 10
397.411522016
 20
667.5271684961
 10
397.7985875942
 20
667.6013464765
 10
398.1678420939
 20
667.7014882402
 10
398.5255560168
 20
667.8392286138
 10
398.8125873991
 20
667.9973388747
 10
399.0266120323
 20
668.1632454232
 10
399.2000598722
 20
668.3528299169
 10
399.333981637
 20
668.5701037482
 10
399.4218586274
 20
668.8118482665
 10
399.4264928885
 20
668.8459868268
  0
ELLIPSE
  5
11D
330
1F
100
AcDbEntity
  8
0
  6
Continuous
 62
     7
370
    15
100
AcDbEllipse
 10
737.9242184967
 20
654.0257398928
 30
0.0
 11
360.1926953504131
 21
-16.89823119310563
 31
0.0
210
0.0
220
0.0
230
1.0
 40
0.0039288291
 41
2.898464088385054
 42
2.935272915803267
  0
ELLIPSE
  5
11E
330
1F
100
AcDbEntity
  8
0
  6
Continuous
 62
     7
370
    15
100
AcDbEllipse
 10
54.3365211353
 20
654.0257398928
 30
0.0
 11
360.1926953504222
 21
16.89823119310597
 31
0.0
210
0.0
220
0.0
230
1.0
 40
0.0039288291
 41
0.2106936750153879
 42
0.238334430612007
  0
LINE
  5
11F
330
1F
100
AcDbEntity
  8
0
  6
Continuous
 62
     7
370
    15
100
AcDbLine
 10
403.843737606
 20
670.7653308944
 30
0.0
 11
403.9198057987
 21
670.7676673965
 31
0.0
  0
LINE
  5
120
330
1F
100
AcDbEntity
  8
0
  6
Continuous
 62
     7
370
    15
100
AcDbLine
 10
388.3409338333
 20
670.7676673965
 30
0.0
 11
388.417002026
 21
670.7653308944
 31
0.0
  0
LINE
  5
121
330
1F
100
AcDbEntity
  8
0
  6
Continuous
 62
     7
370
    15
100
AcDbLine
 10
492.7141534426
 20
556.5780038671
 30
0.0
 11
467.1050058939
 21
556.5780038671
 31
0.0
  0
LINE
  5
122
330
1F
100
AcDbEntity
  8
0
  6
Continuous
 62
     7
370
    15
100
AcDbLine
 10
325.1557337382
 20
556.5780038671
 30
0.0
 11
299.5465861895
 21
556.5780038671
 31
0.0
  0
LINE
  5
123
330
1F
100
AcDbEntity
  8
0
  6
Continuous
 62
     7
370
    15
100
AcDbLine
 10
294.3644391634
 20
690.9519101218
 30
0.0
 11
294.4150792696
 21
690.9989448921
 31
0.0
  0
LINE
  5
124
330
1F
100
AcDbEntity
  8
0
  6
Continuous
 62
     7
370
    15
100
AcDbLine
 10
299.5465861895
 20
556.5780038671
 30
0.0
 11
296.1501227953
 21
556.5780038671
 31
0.0
  0
LINE
  5
125
330
1F
100
AcDbEntity
  8
0
  6
Continuous
 62
     7
370
    15
100
AcDbLine
 10
496.1106168368
 20
556.5780038671
 30
0.0
 11
492.7141534426
 21
556.5780038671
 31
0.0
  0
LINE
  5
126
330
1F
100
AcDbEntity
  8
0
  6
Continuous
 62
     7
370
    15
100
AcDbLine
 10
467.1050058939
 20
556.5780038671
 30
0.0
 11
463.8132320978
 21
556.5780038671
 31
0.0
  0
LINE
  5
127
330
1F
100
AcDbEntity
  8
0
  6
Continuous
 62
     7
370
    15
100
AcDbLine
 10
328.4475075342
 20
556.5780038671
 30
0.0
 11
325.1557337382
 21
556.5780038671
 31
0.0
  0
LINE
  5
128
330
1F
100
AcDbEntity
  8
0
  6
Continuous
 62
     7
370
    15
100
AcDbLine
 10
463.8132320978
 20
556.5780038671
 30
0.0
 11
452.8319584467
 21
556.5780038671
 31
0.0
  0
LINE
  5
129
330
1F
100
AcDbEntity
  8
0
  6
Continuous
 62
     7
370
    15
100
AcDbLine
 10
339.4287811854
 20
556.5780038671
 30
0.0
 11
328.4475075342
 21
556.5780038671
 31
0.0
  0
LINE
  5
12A
330
1F
100
AcDbEntity
  8
0
  6
Continuous
 62
     7
370
    15
100
AcDbLine
 10
296.1501227953
 20
556.5780038671
 30
0.0
 11
295.8683954813
 21
556.5780038671
 31
0.0
  0
LINE
  5
12B
330
1F
100
AcDbEntity
  8
0
  6
Continuous
 62
     7
370
    15
100
AcDbLine
 10
496.3923441507
 20
556.5780038671
 30
0.0
 11
496.1106168368
 21
556.5780038671
 31
0.0
  0
LINE
  5
12C
330
1F
100
AcDbEntity
  8
0
  6
Continuous
 62
     7
370
    15
100
AcDbLine
 10
452.8319584467
 20
556.5780038671
 30
0.0
 11
451.8391834833
 21
556.5780038671
 31
0.0
  0
LINE
  5
12D
330
1F
100
AcDbEntity
  8
0
  6
Continuous
 62
     7
370
    15
100
AcDbLine
 10
340.0744425394
 20
556.5780038671
 30
0.0
 11
339.4287811854
 21
556.5780038671
 31
0.0
  0
ARC
  5
12E
330
1F
100
AcDbEntity
  8
0
  6
Continuous
 62
     7
370
    15
100
AcDbCircle
 10
340.0744408503
 20
558.9780095891
 30
0.0
 40
2.39999999999998
100
AcDbArc
 50
270.0
 51
295.1900127133
  0
LWPOLYLINE
  5
12F
330
1F
100
AcDbEntity
  8
0
  6
Continuous
 62
     7
370
    15
100
AcDbPolyline
 90
        4
 70
   128
 43
0.0
 10
341.473667536
 20
556.983911498
 10
341.4281176664
 20
556.9624895887
 10
341.2548767664
 20
556.8810100393
 10
341.0959350207
 20
556.8062419728
  0
ARC
  5
130
330
1F
100
AcDbEntity
  8
0
  6
Continuous
 62
     7
370
    15
100
AcDbCircle
 10
451.8391862645
 20
558.9780095891
 30
0.0
 40
2.399999999999979
100
AcDbArc
 50
238.8160370848
 51
270.0
  0
LINE
  5
131
330
1F
100
AcDbEntity
  8
0
  6
Continuous
 62
     7
370
    15
100
AcDbLine
 10
449.0807103254
 20
556.5780038671
 30
0.0
 11
343.1800293066
 21
556.5780038671
 31
0.0
  0
LWPOLYLINE
  5
132
330
1F
100
AcDbEntity
  8
0
  6
Continuous
 62
     7
370
    15
100
AcDbPolyline
 90
        9
 70
   128
 43
0.0
 10
399.4304562249
 20
668.8490236835
 10
399.4347555824
 20
668.9432943896
 10
399.3819585331
 20
669.0811748342
 10
399.2598599084
 20
669.2153746919
 10
399.0710612648
 20
669.3430389003
 10
398.8195870333
 20
669.4614405469
 10
398.5107967891
 20
669.5680613355
 10
398.1512718164
 20
669.6606273488
 10
398.0902038776
 20
669.6738565997
  0
LWPOLYLINE
  5
133
330
1F
100
AcDbEntity
  8
0
  6
Continuous
 62
     7
370
    15
100
AcDbPolyline
 90
        9
 70
   128
 43
0.0
 10
394.1705357545
 20
669.6738565997
 10
394.1094678157
 20
669.6606273488
 10
393.7499428429
 20
669.5680613355
 10
393.4411525988
 20
669.4614405469
 10
393.1896783673
 20
669.3430389003
 10
393.0008797236
 20
669.2153746919
 10
392.8787810989
 20
669.0811748342
 10
392.8259840496
 20
668.9432943896
 10
392.8304704168
 20
668.848171337
  0
INSERT
  5
13F
330
1F
100
AcDbEntity
  8
0
  6
Continuous
 62
     7
370
     0
100
AcDbBlockReference
  2
SW_CENTERMARKSYMBOL_0
 10
339.062569816
 20
593.5032762943
 30
0.0
  0
INSERT
  5
14B
330
1F
100
AcDbEntity
  8
0
  6
Continuous
 62
     7
370
     0
100
AcDbBlockReference
  2
SW_CENTERMARKSYMBOL_1
 10
339.062569816
 20
650.3032762943
 30
0.0
  0
INSERT
  5
157
330
1F
100
AcDbEntity
  8
0
  6
Continuous
 62
     7
370
     0
100
AcDbBlockReference
  2
SW_CENTERMARKSYMBOL_2
 10
453.198169816
 20
650.3032762943
 30
0.0
  0
INSERT
  5
163
330
1F
100
AcDbEntity
  8
0
  6
Continuous
 62
     7
370
     0
100
AcDbBlockReference
  2
SW_CENTERMARKSYMBOL_3
 10
453.198169816
 20
593.5032762943
 30
0.0
  0
LINE
  5
164
330
1F
100
AcDbEntity
  8
0
  6
Continuous
 62
     7
370
    15
100
AcDbLine
 10
838.6975561364
 20
660.965461559
 30
0.0
 11
830.8057257596
 21
681.2685240956
 31
0.0
  0
ARC
  5
165
330
1F
100
AcDbEntity
  8
0
  6
Continuous
 62
     7
370
    15
100
AcDbCircle
 10
819.7236553607
 20
677.1916029402
 30
0.0
 40
11.80819928839137
100
AcDbArc
 50
20.1977830712
 51
58.4602542856
  0
LINE
  5
166
330
1F
100
AcDbEntity
  8
0
  6
Continuous
 62
     7
370
    15
100
AcDbLine
 10
838.7974331038
 20
657.4310670824
 30
0.0
 11
838.9497454923
 21
658.1637231624
 31
0.0
  0
LINE
  5
167
330
1F
100
AcDbEntity
  8
0
  6
Continuous
 62
     7
370
    15
100
AcDbLine
 10
825.9004052632
 20
687.2554655722
 30
0.0
 11
762.6746154744
 21
723.7549371042
 31
0.0
  0
ARC
  5
168
330
1F
100
AcDbEntity
  8
0
  6
Continuous
 62
     7
370
    15
100
AcDbCircle
 10
834.076995073
 20
659.137337605
 30
0.0
 40
4.969066484972754
100
AcDbArc
 50
348.7006464265
 51
21.5862175004
  0
ARC
  5
169
330
1F
100
AcDbEntity
  8
0
  6
Continuous
 62
     7
370
    15
100
AcDbCircle
 10
754.9056958151
 20
713.7365916622
 30
0.0
 40
8.428972966064931
100
AcDbArc
 50
119.7822841589
 51
134.0695347824
  0
LINE
  5
16A
330
1F
100
AcDbEntity
  8
0
  6
Continuous
 62
     7
370
    15
100
AcDbLine
 10
749.0430850218
 20
719.792776926
 30
0.0
 11
736.5843364637
 21
707.7935683402
 31
0.0
  0
LINE
  5
16B
330
1F
100
AcDbEntity
  8
0
  6
Continuous
 62
     7
370
    15
100
AcDbLine
 10
734.9481831605
 20
704.3957817833
 30
0.0
 11
730.0364758361
 21
651.9327351311
 31
0.0
  0
LINE
  5
16C
330
1F
100
AcDbEntity
  8
0
  6
Continuous
 62
     7
370
    15
100
AcDbLine
 10
755.8048066614
 20
723.991559102
 30
0.0
 11
750.7203652199
 21
721.056373535
 31
0.0
  0
LWPOLYLINE
  5
16D
330
1F
100
AcDbEntity
  8
0
  6
Continuous
 62
     7
370
    15
100
AcDbPolyline
 90
       13
 70
   128
 43
0.0
 10
762.6746154744
 20
723.7549371042
 10
762.2686032923
 20
723.9753923037
 10
761.594757371
 20
724.2818647367
 10
760.9054830689
 20
724.5219995099
 10
760.2843607478
 20
724.676977166
 10
759.5973492046
 20
724.7816547441
 10
758.9187517529
 20
724.8160244882
 10
758.2556559122
 20
724.7817621904
 10
757.612901721
 20
724.6814821615
 10
756.9948139729
 20
724.5182433522
 10
756.4053112711
 20
724.2953349354
 10
755.847911297
 20
724.0162136668
 10
755.7992664581
 20
723.9852990358
  0
ARC
  5
16E
330
1F
100
AcDbEntity
  8
0
  6
Continuous
 62
     7
370
    15
100
AcDbCircle
 10
740.2732570279
 20
703.9139181328
 30
0.0
 40
5.34682342113963
100
AcDbArc
 50
133.5364006143
 51
174.8979436893
  0
LWPOLYLINE
  5
16F
330
1F
100
AcDbEntity
  8
0
  6
Continuous
 62
     7
370
    15
100
AcDbPolyline
 90
       15
 70
   128
 43
0.0
 10
762.3974836136
 20
590.1869628178
 10
762.4981513612
 20
590.1252971137
 10
762.7037394736
 20
589.9787109608
 10
762.9296212935
 20
589.787599015
 10
763.1676582645
 20
589.5522213302
 10
763.4085738653
 20
589.27598175
 10
763.6433613143
 20
588.9645909947
 10
763.8636966089
 20
588.6256870901
 10
764.0622714857
 20
588.2685020178
 10
764.2330463012
 20
587.9036378573
 10
764.3715282013
 20
587.5429354009
 10
764.475445471
 20
587.1981163278
 10
764.5446969578
 20
586.8808269914
 10
764.5816766027
 20
586.6020957643
 10
764.5915010331
 20
586.3867109969
  0
LINE
  5
170
330
1F
100
AcDbEntity
  8
0
  6
Continuous
 62
     7
370
    15
100
AcDbLine
 10
764.5915010331
 20
586.3867109969
 30
0.0
 11
764.5915010331
 21
573.5739455096
 31
0.0
  0
LINE
  5
171
330
1F
100
AcDbEntity
  8
0
  6
Continuous
 62
     7
370
    15
100
AcDbLine
 10
754.1493285013
 20
594.9485214115
 30
0.0
 11
762.3974836136
 21
590.1869628178
 31
0.0
  0
LWPOLYLINE
  5
172
330
1F
100
AcDbEntity
  8
0
  6
Continuous
 62
     7
370
    15
100
AcDbPolyline
 90
       11
 70
   128
 43
0.0
 10
766.5276218865
 20
571.0705251504
 10
766.845653576
 20
570.8980625169
 10
767.4177591124
 20
570.6426119635
 10
768.0030228949
 20
570.4524054346
 10
768.5237303495
 20
570.3431270235
 10
769.0358103442
 20
570.291399404
 10
769.5362704528
 20
570.2960787775
 10
770.0740684545
 20
570.3656744325
 10
770.584787106
 20
570.499609557
 10
771.0627239388
 20
570.6931075766
 10
771.3191453651
 20
570.8372476225
  0
LINE
  5
173
330
1F
100
AcDbEntity
  8
0
  6
Continuous
 62
     7
370
    15
100
AcDbLine
 10
771.3272291306
 20
570.8328921395
 30
0.0
 11
862.802283416
 21
623.6403169408
 31
0.0
  0
ARC
  5
174
330
1F
100
AcDbEntity
  8
0
  6
Continuous
 62
     7
370
    15
100
AcDbCircle
 10
753.5667056612
 20
594.0398392003
 30
0.0
 40
1.079422407967856
100
AcDbArc
 50
57.3330883593
 51
76.4558835974
  0
ARC
  5
175
330
1F
100
AcDbEntity
  8
0
  6
Continuous
 62
     7
370
    15
100
AcDbCircle
 10
750.2636237795
 20
601.1514839036
 30
0.0
 40
4.470738172090948
100
AcDbArc
 50
121.2161141394
 51
172.9768654958
  0
LINE
  5
176
330
1F
100
AcDbEntity
  8
0
  6
Continuous
 62
     7
370
    15
100
AcDbLine
 10
765.7915946123
 20
571.4954246516
 30
0.0
 11
766.5276218865
 21
571.0705251504
 31
0.0
  0
LINE
  5
177
330
1F
100
AcDbEntity
  8
0
  6
Continuous
 62
     7
370
    15
100
AcDbLine
 10
840.3843599417
 20
658.3471807834
 30
0.0
 11
747.9454472704
 21
604.9833323797
 31
0.0
  0
ARC
  5
178
330
1F
100
AcDbEntity
  8
0
  6
Continuous
 62
     7
370
    15
100
AcDbCircle
 10
766.9914991453
 20
573.573943656
 30
0.0
 40
2.399999999999997
100
AcDbArc
 50
180.0
 51
240.0026882664
  0
LINE
  5
179
330
1F
100
AcDbEntity
  8
0
  6
Continuous
 62
     7
370
    15
100
AcDbLine
 10
745.8264301678
 20
601.6981214939
 30
0.0
 11
738.061497103
 21
552.3807678462
 31
0.0
  0
LWPOLYLINE
  5
17A
330
1F
100
AcDbEntity
  8
0
  6
Continuous
 62
     7
370
    15
100
AcDbPolyline
 90
        4
 70
   128
 43
0.0
 10
738.061497103
 20
552.3807678462
 10
738.0507833741
 20
552.3239645207
 10
738.0354377066
 20
552.2688641249
 10
738.0363101463
 20
552.2700499802
  0
ARC
  5
17B
330
1F
100
AcDbEntity
  8
0
  6
Continuous
 62
     7
370
    15
100
AcDbCircle
 10
739.7302957139
 20
550.6022977226
 30
0.0
 40
2.399999999999918
100
AcDbArc
 50
135.2072683446
 51
142.2926964756
  0
ARC
  5
17C
330
1F
100
AcDbEntity
  8
0
  6
Continuous
 62
     7
370
    15
100
AcDbCircle
 10
743.4122368524
 20
541.1330602474
 30
0.0
 40
2.400000000000054
100
AcDbArc
 50
240.0026882663
 51
276.3890490968
  0
LINE
  5
17D
330
1F
100
AcDbEntity
  8
0
  6
Continuous
 62
     7
370
    15
100
AcDbLine
 10
749.0695964432
 20
538.4406906047
 30
0.0
 11
836.3673290587
 21
588.8365989366
 31
0.0
  0
LINE
  5
17E
330
1F
100
AcDbEntity
  8
0
  6
Continuous
 62
     7
370
    15
100
AcDbLine
 10
738.5303892221
 20
541.180082414
 30
0.0
 11
742.2123336933
 21
539.0545411141
 31
0.0
  0
ARC
  5
17F
330
1F
100
AcDbEntity
  8
0
  6
Continuous
 62
     7
370
    15
100
AcDbCircle
 10
739.7302957139
 20
543.2585996233
 30
0.0
 40
2.399999999999997
100
AcDbArc
 50
203.0736517594
 51
240.0026882664
  0
LWPOLYLINE
  5
180
330
1F
100
AcDbEntity
  8
0
  6
Continuous
 62
     7
370
    15
100
AcDbPolyline
 90
        6
 70
   128
 43
0.0
 10
737.220389306
 20
542.5019157685
 10
737.3153840879
 20
542.4466778966
 10
737.4480202201
 20
542.3555002044
 10
737.5254903424
 20
542.2888266328
 10
737.5534632057
 20
542.2585795593
 10
737.55166775
 20
542.2614869667
  0
LWPOLYLINE
  5
181
330
1F
100
AcDbEntity
  8
0
  6
Continuous
 62
     7
370
    15
100
AcDbPolyline
 90
       11
 70
   128
 43
0.0
 10
661.8481222281
 20
586.0191972334
 10
665.9703221421
 20
583.5188025268
 10
673.8364771856
 20
578.7878597041
 10
681.7480707465
 20
574.0823134398
 10
689.70484889
 20
569.4023094148
 10
697.7065704571
 20
564.7479962753
 10
705.7529790106
 20
560.1195111104
 10
713.8438252256
 20
555.5169975481
 10
721.9788687332
 20
550.9406034742
 10
730.1578440084
 20
546.3904614918
 10
737.220389306
 20
542.5019157685
  0
ARC
  5
182
330
1F
100
AcDbEntity
  8
0
  6
Continuous
 62
     7
370
    15
100
AcDbCircle
 10
855.7266538952
 20
640.722385941
 30
0.0
 40
9.894521829542699
100
AcDbArc
 50
1.5396880465
 51
46.0214970371
  0
LWPOLYLINE
  5
183
330
1F
100
AcDbEntity
  8
0
  6
Continuous
 62
     7
370
    15
100
AcDbPolyline
 90
       18
 70
   128
 43
0.0
 10
862.5972953694
 20
647.8424876234
 10
861.9935296473
 20
648.4113367548
 10
860.8393835087
 20
649.4532454656
 10
859.670114554
 20
650.4498174064
 10
858.4872611432
 20
651.3995707526
 10
857.2923458312
 20
652.3011118927
 10
856.0869138268
 20
653.1530943673
 10
854.872535627
 20
653.9542203896
 10
853.6508054363
 20
654.7032496674
 10
852.4233580256
 20
655.3989848025
 10
851.191891386
 20
656.0402746395
 10
849.9581082503
 20
656.6260437656
 10
848.7237561322
 20
657.1552961641
 10
847.4906083602
 20
657.6271091282
 10
846.2605093859
 20
658.0406302226
 10
845.0353178852
 20
658.3951320304
 10
843.8169499594
 20
658.6899689617
 10
843.323142204
 20
658.7928351985
  0
ARC
  5
184
330
1F
100
AcDbEntity
  8
0
  6
Continuous
 62
     7
370
    15
100
AcDbCircle
 10
723.6671709614
 20
640.538382081
 30
0.0
 40
141.9511452162443
100
AcDbArc
 50
354.7093312454
 51
0.1815788889
  0
LWPOLYLINE
  5
185
330
1F
100
AcDbEntity
  8
0
  6
Continuous
 62
     7
370
    15
100
AcDbPolyline
 90
       10
 70
   128
 43
0.0
 10
862.7975993206
 20
623.644158188
 10
863.1210668999
 20
623.8452828132
 10
863.5070703925
 20
624.1581077765
 10
863.8535886101
 20
624.5169072346
 10
864.1593092051
 20
624.9191083236
 10
864.4228987567
 20
625.362865679
 10
864.6427978315
 20
625.8466802834
 10
864.8170218397
 20
626.368851325
 10
864.943296432
 20
626.926639412
 10
865.0135657652
 20
627.4492910439
  0
ARC
  5
186
330
1F
100
AcDbEntity
  8
0
  6
Continuous
 62
     7
370
    15
100
AcDbCircle
 10
842.4105745113
 20
654.9276072603
 30
0.0
 40
3.971494279057557
100
AcDbArc
 50
76.7159137641
 51
120.7799371356
  0
LINE
  5
187
330
1F
100
AcDbEntity
  8
0
  6
Continuous
 62
     7
370
    15
100
AcDbLine
 10
646.2961416471
 20
655.0166931349
 30
0.0
 11
654.885209973
 21
590.5483166274
 31
0.0
  0
LINE
  5
188
330
1F
100
AcDbEntity
  8
0
  6
Continuous
 62
     7
370
    15
100
AcDbLine
 10
837.3184706868
 20
589.9673860309
 30
0.0
 11
846.3131666047
 21
614.1213457713
 31
0.0
  0
ARC
  5
189
330
1F
100
AcDbEntity
  8
0
  6
Continuous
 62
     7
370
    15
100
AcDbCircle
 10
641.2564605429
 20
654.2505686525
 30
0.0
 40
5.097581029695242
100
AcDbArc
 50
8.6438355061
 51
55.7243527566
  0
LINE
  5
18A
330
1F
100
AcDbEntity
  8
0
  6
Continuous
 62
     7
370
    15
100
AcDbLine
 10
635.8791349985
 20
663.2244508266
 30
0.0
 11
644.1272901109
 21
658.4628922329
 31
0.0
  0
LWPOLYLINE
  5
18B
330
1F
100
AcDbEntity
  8
0
  6
Continuous
 62
     7
370
    15
100
AcDbPolyline
 90
        6
 70
   128
 43
0.0
 10
635.5460821722
 20
663.3660458175
 10
635.5437303781
 20
663.3661122036
 10
635.5811146327
 20
663.3578682409
 10
635.6729863331
 20
663.3264368302
 10
635.8109203242
 20
663.2621069733
 10
635.8791349985
 20
663.2244508266
  0
LWPOLYLINE
  5
18C
330
1F
100
AcDbEntity
  8
0
  6
Continuous
 62
     7
370
    15
100
AcDbPolyline
 90
       11
 70
   128
 43
0.0
 10
629.436382289
 20
673.4954571654
 10
629.2307983914
 20
673.3781545893
 10
628.8303021781
 20
673.0773708442
 10
628.4719022371
 20
672.7317015828
 10
628.1568123976
 20
672.3449231836
 10
627.8859261729
 20
671.9198192612
 10
627.6600274942
 20
671.4582342212
 10
627.4802206091
 20
670.9612533575
 10
627.3480565215
 20
670.4297820279
 10
627.2655919977
 20
669.8655676951
 10
627.2453193636
 20
669.6026877705
  0
LINE
  5
18D
330
1F
100
AcDbEntity
  8
0
  6
Continuous
 62
     7
370
    15
100
AcDbLine
 10
721.8732914045
 20
726.8673609873
 30
0.0
 11
629.4291667486
 21
673.5005037689
 31
0.0
  0
ARC
  5
18E
330
1F
100
AcDbEntity
  8
0
  6
Continuous
 62
     7
370
    15
100
AcDbCircle
 10
761.4273724148
 20
662.2042022071
 30
0.0
 40
134.3858658849677
100
AcDbArc
 50
176.844039923
 51
182.4135685241
  0
ARC
  5
18F
330
1F
100
AcDbEntity
  8
0
  6
Continuous
 62
     7
370
    15
100
AcDbCircle
 10
636.906245705
 20
657.169201683
 30
0.0
 40
9.76549889917085
100
AcDbArc
 50
183.6653229736
 51
238.1222158587
  0
ARC
  5
190
330
1F
100
AcDbEntity
  8
0
  6
Continuous
 62
     7
370
    15
100
AcDbCircle
 10
633.6849285174
 20
650.5301888198
 30
0.0
 40
2.400000000000084
100
AcDbArc
 50
240.0026882663
 51
278.1301023542
  0
LINE
  5
191
330
1F
100
AcDbEntity
  8
0
  6
Continuous
 62
     7
370
    15
100
AcDbLine
 10
631.7489967256
 20
648.8765693076
 30
0.0
 11
632.4850239998
 21
648.4516698064
 31
0.0
  0
ARC
  5
192
330
1F
100
AcDbEntity
  8
0
  6
Continuous
 62
     7
370
    15
100
AcDbCircle
 10
660.1249509654
 20
583.0008971284
 30
0.0
 40
3.475550995761713
100
AcDbArc
 50
60.2776142942
 51
79.6103087109
  0
LINE
  5
193
330
1F
100
AcDbEntity
  8
0
  6
Continuous
 62
     7
370
    15
100
AcDbLine
 10
660.2120574332
 20
586.5316864092
 30
0.0
 11
660.751739399
 21
586.4194627609
 31
0.0
  0
ARC
  5
194
330
1F
100
AcDbEntity
  8
0
  6
Continuous
 62
     7
370
    15
100
AcDbCircle
 10
660.7006863339
 20
588.8814220093
 30
0.0
 40
2.399999999999997
100
AcDbArc
 50
240.0026882664
 51
258.2527600938
  0
LINE
  5
195
330
1F
100
AcDbEntity
  8
0
  6
Continuous
 62
     7
370
    15
100
AcDbLine
 10
656.0642849188
 20
588.7867510918
 30
0.0
 11
659.5007830031
 21
586.8029029751
 31
0.0
  0
ARC
  5
196
330
1F
100
AcDbEntity
  8
0
  6
Continuous
 62
     7
370
    15
100
AcDbCircle
 10
657.2641908102
 20
590.8652686477
 30
0.0
 40
2.399999999999997
100
AcDbArc
 50
187.5887769316
 51
240.0026882664
  0
ARC
  5
197
330
1F
100
AcDbEntity
  8
0
  6
Continuous
 62
     7
370
    15
100
AcDbCircle
 10
835.3621031472
 20
590.662104031
 30
0.0
 40
2.076055646989456
100
AcDbArc
 50
298.8036766137
 51
340.4497403682
  0
LWPOLYLINE
  5
198
330
1F
100
AcDbEntity
  8
0
  6
Continuous
 62
     7
370
    15
100
AcDbPolyline
 90
        3
 70
   128
 43
0.0
 10
744.6438054036
 20
715.5557631143
 10
744.5396036427
 20
715.6800326123
 10
744.1236732535
 20
716.1121722317
  0
LWPOLYLINE
  5
199
330
1F
100
AcDbEntity
  8
0
  6
Continuous
 62
     7
370
    15
100
AcDbPolyline
 90
       18
 70
   128
 43
0.0
 10
744.1236732535
 20
716.1121722317
 10
743.5224763818
 20
716.687473878
 10
742.3728578684
 20
717.7419255881
 10
741.2076924362
 20
718.7514526533
 10
740.0285205526
 20
719.7145695988
 10
738.8368558163
 20
720.6298581734
 10
737.6342339531
 20
721.4959615737
 10
736.4222222988
 20
722.3115753206
 10
735.2024034677
 20
723.0754329604
 10
733.9763958987
 20
723.7863373976
 10
732.745894422
 20
724.4431064495
 10
731.5125885993
 20
725.0446522305
 10
730.2782169882
 20
725.5899540841
 10
729.0445465954
 20
726.0780710522
 10
727.813396584
 20
726.5081312301
 10
726.5866298449
 20
726.8793609661
 10
725.3661382447
 20
727.1911006767
 10
724.8761711209
 20
727.2998494441
  0
ARC
  5
19A
330
1F
100
AcDbEntity
  8
0
  6
Continuous
 62
     7
370
    15
100
AcDbCircle
 10
723.9094378973
 20
723.4230436913
 30
0.0
 40
3.995521989810988
100
AcDbArc
 50
75.9980939454
 51
120.7095333121
  0
LINE
  5
19B
330
1F
100
AcDbEntity
  8
0
  6
Continuous
 62
     7
370
    15
100
AcDbLine
 10
635.6548842617
 20
663.3326315096
 30
0.0
 11
634.5214964996
 21
662.6783406816
 31
0.0
  0
LINE
  5
19C
330
1F
100
AcDbEntity
  8
0
  6
Continuous
 62
     7
370
    15
100
AcDbLine
 10
654.3885852276
 20
589.055507927
 30
0.0
 11
655.2535312821
 21
589.5548306559
 31
0.0
  0
LINE
  5
19D
330
1F
100
AcDbEntity
  8
0
  6
Continuous
 62
     7
370
    15
100
AcDbLine
 10
753.9249597532
 20
595.0566339681
 30
0.0
 11
752.7916900023
 21
594.4024112665
 31
0.0
  0
LINE
  5
19E
330
1F
100
AcDbEntity
  8
0
  6
Continuous
 62
     7
370
    15
100
AcDbLine
 10
763.6882224198
 20
572.2406175944
 30
0.0
 11
764.7096260054
 21
572.8302613334
 31
0.0
  0
LINE
  5
19F
330
1F
100
AcDbEntity
  8
0
  6
Continuous
 62
     7
370
    15
100
AcDbLine
 10
746.0148940156
 20
536.6772484292
 30
0.0
 11
749.0695964432
 21
538.4406906047
 31
0.0
  0
ARC
  5
1A0
330
1F
100
AcDbEntity
  8
0
  6
Continuous
 62
     7
370
    15
100
AcDbCircle
 10
737.2140746414
 20
556.4692115804
 30
0.0
 40
3.600000000000017
100
AcDbArc
 50
240.0026882664
 51
285.2047129839
  0
LINE
  5
1A1
330
1F
100
AcDbEntity
  8
0
  6
Continuous
 62
     7
370
    15
100
AcDbLine
 10
663.3595587919
 20
594.9477105706
 30
0.0
 11
735.4142240452
 21
553.3514377214
 31
0.0
  0
LINE
  5
1A2
330
1F
100
AcDbEntity
  8
0
  6
Continuous
 62
     7
370
    15
100
AcDbLine
 10
779.654742544
 20
623.2887199843
 30
0.0
 11
728.591742982
 21
652.7667621737
 31
0.0
  0
LWPOLYLINE
  5
1A3
330
1F
100
AcDbEntity
  8
0
  6
Continuous
 62
     7
370
    15
100
AcDbPolyline
 90
       18
 70
   128
 43
0.0
 10
664.7737710056
 20
618.0035005047
 10
664.3909933274
 20
617.7671008256
 10
663.8436153471
 20
617.3720543024
 10
663.3218795093
 20
616.9256701186
 10
662.8270207169
 20
616.4290941057
 10
662.3637046259
 20
615.8868811153
 10
661.9359689044
 20
615.3041140894
 10
661.5473117409
 20
614.6862921366
 10
661.2002956637
 20
614.0383523408
 10
660.897044874
 20
613.3649009153
 10
660.6394981268
 20
612.670281325
 10
660.4296026065
 20
611.9589344209
 10
660.2692338479
 20
611.2349896344
 10
660.1603811823
 20
610.5025934784
 10
660.1051772401
 20
609.7661322007
 10
660.1058220869
 20
609.0304495786
 10
660.1584171391
 20
608.3519801103
 10
660.1767299448
 20
608.2049584682
  0
LINE
  5
1A4
330
1F
100
AcDbEntity
  8
0
  6
Continuous
 62
     7
370
    15
100
AcDbLine
 10
660.1767299448
 20
608.2049584682
 30
0.0
 11
661.5909421585
 21
597.5900610029
 31
0.0
  0
LINE
  5
1A5
330
1F
100
AcDbEntity
  8
0
  6
Continuous
 62
     7
370
    15
100
AcDbLine
 10
724.9920333343
 20
652.7667633902
 30
0.0
 11
664.7737710056
 21
618.0035005047
 31
0.0
  0
ARC
  5
1A6
330
1F
100
AcDbEntity
  8
0
  6
Continuous
 62
     7
370
    15
100
AcDbCircle
 10
665.1594092961
 20
598.0654844827
 30
0.0
 40
3.599999999999953
100
AcDbArc
 50
187.5887769316
 51
240.0026882664
  0
ARC
  5
1A7
330
1F
100
AcDbEntity
  8
0
  6
Continuous
 62
     7
370
    15
100
AcDbCircle
 10
726.7918896907
 20
649.6489864327
 30
0.0
 40
3.600000000000003
100
AcDbArc
 50
60.0026882663
 51
119.9973117337
  0
LINE
  5
1A8
330
1F
100
AcDbEntity
  8
0
  6
Continuous
 62
     7
370
    15
100
AcDbLine
 10
743.6152168341
 20
534.9765310228
 30
0.0
 11
749.6703618366
 21
487.7408775254
 31
0.0
  0
LINE
  5
1A9
330
1F
100
AcDbEntity
  8
0
  6
Continuous
 62
     7
370
    15
100
AcDbLine
 10
752.8443819923
 20
488.1477530186
 30
0.0
 11
746.7892496339
 21
535.3834113826
 31
0.0
  0
ARC
  5
1AA
330
1F
100
AcDbEntity
  8
0
  6
Continuous
 62
     7
370
    15
100
AcDbCircle
 10
750.277895368
 20
535.846895449
 30
0.0
 40
3.519299154325908
100
AcDbArc
 50
155.9064249773
 51
187.5677145213
  0
ARC
  5
1AB
330
1F
100
AcDbEntity
  8
0
  6
Continuous
 62
     7
370
    15
100
AcDbCircle
 10
750.0376203887
 20
535.8407625704
 30
0.0
 40
6.480290393650657
100
AcDbArc
 50
165.9801831454
 51
187.6639759257
  0
LWPOLYLINE
  5
1AC
330
1F
100
AcDbEntity
  8
0
  6
Continuous
 62
     7
370
    15
100
AcDbPolyline
 90
       16
 70
   128
 43
0.0
 10
754.6121556888
 20
486.1801825074
 10
754.5172999915
 20
486.1293012374
 10
754.4681230487
 20
486.1119195111
 10
754.4108918431
 20
486.0961515898
 10
754.3449488839
 20
486.0801432446
 10
754.1377128298
 20
486.0783985309
 10
753.9716163145
 20
486.1297001749
 10
753.8318531502
 20
486.2039416797
 10
753.7568359745
 20
486.2555285931
 10
753.6302984912
 20
486.363792968
 10
753.4388000703
 20
486.5792459369
 10
753.2679198877
 20
486.8302670801
 10
753.0977857043
 20
487.1749368882
 10
752.9935228305
 20
487.466603381
 10
752.9090984782
 20
487.7723262075
 10
752.8446517322
 20
488.145315724
  0
LWPOLYLINE
  5
1AD
330
1F
100
AcDbEntity
  8
0
  6
Continuous
 62
     7
370
    15
100
AcDbPolyline
 90
       18
 70
   128
 43
0.0
 10
749.6700920967
 20
487.7433148201
 10
749.8186976699
 20
486.9438643273
 10
750.0306963179
 20
486.2395564476
 10
750.2759994056
 20
485.6538531887
 10
750.5239535301
 20
485.1895524521
 10
750.7432604416
 20
484.8470358565
 10
750.917086689
 20
484.6096797664
 10
751.4975120132
 20
483.9783245208
 10
752.2548824516
 20
483.4181854822
 10
753.1584350193
 20
483.026855292
 10
753.6294766277
 20
482.918717694
 10
754.0919202789
 20
482.8722370716
 10
754.35315909
 20
482.8712852009
 10
754.568714932
 20
482.8838329425
 10
754.7635345246
 20
482.9055843364
 10
755.1008736854
 20
482.9676967951
 10
755.5997195697
 20
483.1198079858
 10
756.2126780463
 20
483.4092034804
  0
LINE
  5
1AE
330
1F
100
AcDbEntity
  8
0
  6
Continuous
 62
     7
370
    15
100
AcDbLine
 10
756.2123493009
 20
483.4090185049
 30
0.0
 11
853.8477002343
 21
539.7727068639
 31
0.0
  0
LINE
  5
1AF
330
1F
100
AcDbEntity
  8
0
  6
Continuous
 62
     7
370
    15
100
AcDbLine
 10
802.6302203553
 20
513.9004261253
 30
0.0
 11
754.6124802195
 21
486.1803747829
 31
0.0
  0
LINE
  5
1B0
330
1F
100
AcDbEntity
  8
0
  6
Continuous
 62
     7
370
    15
100
AcDbLine
 10
852.2478311529
 20
542.5440631419
 30
0.0
 11
804.2300894367
 21
514.824010887
 31
0.0
  0
LINE
  5
1B1
330
1F
100
AcDbEntity
  8
0
  6
Continuous
 62
     7
370
    15
100
AcDbLine
 10
804.2300894367
 20
514.824010887
 30
0.0
 11
756.194982692
 21
542.5540877594
 31
0.0
  0
LINE
  5
1B2
330
1F
100
AcDbEntity
  8
0
  6
Continuous
 62
     7
370
    15
100
AcDbLine
 10
752.9947240157
 20
540.7066167292
 30
0.0
 11
801.0298328677
 21
512.9765386402
 31
0.0
  0
LINE
  5
1B3
330
1F
100
AcDbEntity
  8
0
  6
Continuous
 62
     7
370
    15
100
AcDbLine
 10
855.8635141928
 20
548.2047260719
 30
0.0
 11
836.5282667997
 21
587.7739378196
 31
0.0
  0
LINE
  5
1B4
330
1F
100
AcDbEntity
  8
0
  6
Continuous
 62
     7
370
    15
100
AcDbLine
 10
833.6531584156
 20
586.3690337868
 30
0.0
 11
852.9884060722
 21
546.7998258413
 31
0.0
  0
LINE
  5
1B5
330
1F
100
AcDbEntity
  8
0
  6
Continuous
 62
     7
370
    15
100
AcDbLine
 10
653.1995636255
 20
588.3142941362
 30
0.0
 11
633.8643175495
 21
555.7362026302
 31
0.0
  0
LINE
  5
1B6
330
1F
100
AcDbEntity
  8
0
  6
Continuous
 62
     7
370
    15
100
AcDbLine
 10
636.6161442944
 20
554.1029725533
 30
0.0
 11
655.9513945851
 21
586.6810713586
 31
0.0
  0
ARC
  5
1B7
330
1F
100
AcDbEntity
  8
0
  6
Continuous
 62
     7
370
    15
100
AcDbCircle
 10
832.133709584
 20
585.6753625404
 30
0.0
 40
1.670300736421559
100
AcDbArc
 50
24.5380350077
 51
51.8287510976
  0
ARC
  5
1B8
330
1F
100
AcDbEntity
  8
0
  6
Continuous
 62
     7
370
    15
100
AcDbCircle
 10
832.7086943207
 20
586.0044237048
 30
0.0
 40
4.20955034719105
100
AcDbArc
 50
24.8571308336
 51
38.5168698621
  0
ARC
  5
1B9
330
1F
100
AcDbEntity
  8
0
  6
Continuous
 62
     7
370
    15
100
AcDbCircle
 10
660.9631602042
 20
583.6760277924
 30
0.0
 40
9.043613576056918
100
AcDbArc
 50
141.5959720623
 51
149.1443075156
  0
ARC
  5
1BA
330
1F
100
AcDbEntity
  8
0
  6
Continuous
 62
     7
370
    15
100
AcDbCircle
 10
662.6180288655
 20
582.5536278127
 30
0.0
 40
7.840905741886259
100
AcDbArc
 50
134.3039669353
 51
148.2375409193
  0
LWPOLYLINE
  5
1BB
330
1F
100
AcDbEntity
  8
0
  6
Continuous
 62
     7
370
    15
100
AcDbPolyline
 90
       16
 70
   128
 43
0.0
 10
852.9872180579
 20
546.8022882456
 10
853.0837638437
 20
546.5893033307
 10
853.1473418379
 20
546.4131034647
 10
853.2023245091
 20
546.2256493007
 10
853.3241410185
 20
545.6135546299
 10
853.3496751599
 20
545.0567150698
 10
853.3073001915
 20
544.5071757777
 10
853.2016048517
 20
544.0017452278
 10
853.1229446078
 20
543.7581006209
 10
853.0111874974
 20
543.482342539
 10
852.8659773798
 20
543.1990956974
 10
852.6790171208
 20
542.932128435
 10
852.5710516463
 20
542.8100813288
 10
852.4717552517
 20
542.7087346034
 10
852.3849891152
 20
542.6320303826
 10
852.2475066222
 20
542.5438708664
  0
LWPOLYLINE
  5
1BC
330
1F
100
AcDbEntity
  8
0
  6
Continuous
 62
     7
370
    15
100
AcDbPolyline
 90
       16
 70
   128
 43
0.0
 10
853.8480289797
 20
539.7728918394
 10
854.5380724617
 20
540.266398344
 10
855.0822146178
 20
540.8161724921
 10
855.4816139594
 20
541.3530165095
 10
855.7576036406
 20
541.8201286664
 10
855.9326463514
 20
542.1758767373
 10
856.0719211391
 20
542.507155059
 10
856.2006031067
 20
542.8690423341
 10
856.3155649581
 20
543.2633492049
 10
856.4397198273
 20
543.8360093498
 10
856.5229880388
 20
544.4785894582
 10
856.5485161216
 20
545.2718371526
 10
856.5034276864
 20
545.9607003312
 10
856.3824578018
 20
546.6982203989
 10
856.1702905664
 20
547.4582008616
 10
855.8647064218
 20
548.2022612346
  0
ARC
  5
1BD
330
1F
100
AcDbEntity
  8
0
  6
Continuous
 62
     7
370
    15
100
AcDbCircle
 10
634.7457246915
 20
554.9727938638
 30
0.0
 40
2.062309627218012
100
AcDbArc
 50
320.1280711325
 51
334.9314073711
  0
LWPOLYLINE
  5
1BE
330
1F
100
AcDbEntity
  8
0
  6
Continuous
 62
     7
370
    15
100
AcDbPolyline
 90
       20
 70
   128
 43
0.0
 10
633.8666988465
 20
555.7401807144
 10
633.5449540196
 20
555.1386543451
 10
633.3208718701
 20
554.594855144
 10
633.186710022
 20
554.1191990174
 10
633.1254537923
 20
553.7052862695
 10
633.1217659431
 20
553.313585034
 10
633.1755453218
 20
552.9402070857
 10
633.2872597585
 20
552.5887761847
 10
633.4570820552
 20
552.2626167883
 10
633.6817163284
 20
551.9720992508
 10
633.9525688356
 20
551.7288968698
 10
634.2641520573
 20
551.5371393638
 10
634.6089722837
 20
551.4012839966
 10
634.8611916693
 20
551.3416974826
 10
635.1918084077
 20
551.3070128906
 10
635.6189372146
 20
551.3260564131
 10
636.0045092288
 20
551.3964973012
 10
636.440219134
 20
551.5274992189
 10
636.9145186937
 20
551.723585449
 10
637.4195559501
 20
551.988020608
  0
LINE
  5
1BF
330
1F
100
AcDbEntity
  8
0
  6
Continuous
 62
     7
370
    15
100
AcDbLine
 10
637.4183631943
 20
551.987326954
 30
0.0
 11
678.7652687351
 21
575.8563874554
 31
0.0
  0
LINE
  5
1C0
330
1F
100
AcDbEntity
  8
0
  6
Continuous
 62
     7
370
    15
100
AcDbLine
 10
675.6127350427
 20
577.7314095324
 30
0.0
 11
637.6238880863
 21
555.8009149882
 31
0.0
  0
LWPOLYLINE
  5
1C1
330
1F
100
AcDbEntity
  8
0
  6
Continuous
 62
     7
370
    15
100
AcDbPolyline
 90
       21
 70
   128
 43
0.0
 10
776.8407996421
 20
665.0376762759
 10
776.7352584017
 20
664.9802427593
 10
776.4391533467
 20
664.7506770883
 10
776.1767577363
 20
664.4727292354
 10
775.9514986361
 20
664.1497084442
 10
775.7671933651
 20
663.7856088483
 10
775.6278166347
 20
663.3859957964
 10
775.5368284376
 20
662.9583378663
 10
775.4965155039
 20
662.5114915191
 10
775.5077554098
 20
662.0548419909
 10
775.5702188832
 20
661.5975075637
 10
775.6828248574
 20
661.1478237788
 10
775.84402707
 20
660.7138276901
 10
776.0518384286
 20
660.3034798352
 10
776.3039243271
 20
659.9246030623
 10
776.5972658659
 20
659.5852497298
 10
776.9272133256
 20
659.294111894
 10
777.2870888591
 20
659.0595316077
 10
777.6678059597
 20
658.8884699298
 10
778.0586651644
 20
658.7851180881
 10
778.2757090536
 20
658.7657084606
  0
LINE
  5
1C2
330
1F
100
AcDbEntity
  8
0
  6
Continuous
 62
     7
370
    15
100
AcDbLine
 10
749.4884728971
 20
538.996384022
 30
0.0
 11
760.705085341
 21
573.6758152362
 31
0.0
  0
ARC
  5
1C3
330
1F
100
AcDbEntity
  8
0
  6
Continuous
 62
     7
370
    15
100
AcDbCircle
 10
748.5842584649
 20
539.2422530604
 30
0.0
 40
0.937046062644081
100
AcDbArc
 50
301.1944822061
 51
344.7882333451
  0
LWPOLYLINE
  5
1C4
330
1F
100
AcDbEntity
  8
0
  6
Continuous
 62
     7
370
    15
100
AcDbPolyline
 90
       10
 70
   128
 43
0.0
 10
635.7213962033
 20
662.5595217427
 10
635.4267054385
 20
662.6998718904
 10
635.140970879
 20
662.7764096997
 10
634.872870561
 20
662.7868168771
 10
634.6305514701
 20
662.7307705342
 10
634.421376661
 20
662.6099772321
 10
634.2517018782
 20
662.428107257
 10
634.1266858962
 20
662.1906850955
 10
634.0501219312
 20
661.9049288087
 10
634.024340704
 20
661.5795139762
  0
LINE
  5
1C5
330
1F
100
AcDbEntity
  8
0
  6
Continuous
 62
     7
370
    15
100
AcDbLine
 10
643.9695513156
 20
657.7979631489
 30
0.0
 11
635.7213962033
 21
662.5595217427
 31
0.0
  0
ARC
  5
1C6
330
1F
100
AcDbEntity
  8
0
  6
Continuous
 62
     7
370
    15
100
AcDbCircle
 10
641.9317345896
 20
654.6478943342
 30
0.0
 40
3.751750331054378
100
AcDbArc
 50
8.370975022
 51
57.1006947475
  0
LINE
  5
1C7
330
1F
100
AcDbEntity
  8
0
  6
Continuous
 62
     7
370
    15
100
AcDbLine
 10
654.4359920028
 20
589.1989405435
 30
0.0
 11
645.6435145567
 21
655.1940811363
 31
0.0
  0
LWPOLYLINE
  5
1C8
330
1F
100
AcDbEntity
  8
0
  6
Continuous
 62
     7
370
    15
100
AcDbPolyline
 90
        9
 70
   128
 43
0.0
 10
654.2685931499
 20
589.0673909157
 10
654.3051302529
 20
589.0508941245
 10
654.3399519791
 20
589.0443631906
 10
654.3714314603
 20
589.0481012339
 10
654.3980851273
 20
589.0619365549
 10
654.4186612187
 20
589.0852214259
 10
654.4322030011
 20
589.1168588654
 10
654.4380740571
 20
589.1553659111
 10
654.4359920028
 20
589.1989405435
  0
LINE
  5
1C9
330
1F
100
AcDbEntity
  8
0
  6
Continuous
 62
     7
370
    15
100
AcDbLine
 10
653.1461467097
 20
589.7153654531
 30
0.0
 11
654.2685931499
 21
589.0673909157
 31
0.0
  0
ARC
  5
1CA
330
1F
100
AcDbEntity
  8
0
  6
Continuous
 62
     7
370
    15
100
AcDbCircle
 10
655.1891041894
 20
592.8707137945
 30
0.0
 40
3.758975714158545
100
AcDbArc
 50
193.0608275925
 51
237.0786136651
  0
LINE
  5
1CB
330
1F
100
AcDbEntity
  8
0
  6
Continuous
 62
     7
370
    15
100
AcDbLine
 10
639.5363940606
 20
642.939321452
 30
0.0
 11
651.5273705521
 21
592.021240317
 31
0.0
  0
ARC
  5
1CC
330
1F
100
AcDbEntity
  8
0
  6
Continuous
 62
     7
370
    15
100
AcDbCircle
 10
637.7055469716
 20
642.5146008532
 30
0.0
 40
1.879464990401484
100
AcDbArc
 50
13.0604842118
 51
57.0788788495
  0
LINE
  5
1CD
330
1F
100
AcDbEntity
  8
0
  6
Continuous
 62
     7
370
    15
100
AcDbLine
 10
634.872870561
 20
646.3172055761
 30
0.0
 11
638.7270059818
 21
644.0922605569
 31
0.0
  0
ARC
  5
1CE
330
1F
100
AcDbEntity
  8
0
  6
Continuous
 62
     7
370
    15
100
AcDbCircle
 10
635.8665936076
 20
647.8707300051
 30
0.0
 40
1.844159332879167
100
AcDbArc
 50
182.6054705892
 51
237.3946938742
  0
LINE
  5
1CF
330
1F
100
AcDbEntity
  8
0
  6
Continuous
 62
     7
370
    15
100
AcDbLine
 10
634.024340704
 20
661.5795139762
 30
0.0
 11
634.024340704
 21
647.7868975289
 31
0.0
  0
ARC
  5
1D0
330
1F
100
AcDbEntity
  8
0
  6
Continuous
 62
     7
370
    15
100
AcDbCircle
 10
760.2678587789
 20
586.4239738989
 30
0.0
 40
3.672371072400959
100
AcDbArc
 50
2.4763708616
 51
57.5236292841
  0
LWPOLYLINE
  5
1D1
330
1F
100
AcDbEntity
  8
0
  6
Continuous
 62
     7
370
    15
100
AcDbPolyline
 90
        9
 70
   128
 43
0.0
 10
758.424746961
 20
574.3065362124
 10
758.4749986485
 20
574.4211311264
 10
758.5442164178
 20
574.5138386561
 10
758.6306764629
 20
574.5823395322
 10
758.7322124356
 20
574.6249228142
 10
758.8462913105
 20
574.6405296999
 10
758.9700597458
 20
574.6287632642
 10
759.1004241629
 20
574.5899249685
 10
759.2341350398
 20
574.524975733
  0
LINE
  5
1D2
330
1F
100
AcDbEntity
  8
0
  6
Continuous
 62
     7
370
    15
100
AcDbLine
 10
746.4337704695
 20
537.2329418465
 30
0.0
 11
758.424746961
 21
574.3065362124
 31
0.0
  0
LWPOLYLINE
  5
1D3
330
1F
100
AcDbEntity
  8
0
  6
Continuous
 62
     7
370
    15
100
AcDbPolyline
 90
        9
 70
   128
 43
0.0
 10
744.8149943119
 20
536.7960661513
 10
745.0824076363
 20
536.6661743716
 10
745.3431406853
 20
536.5884929137
 10
745.590677556
 20
536.5649630842
 10
745.8188353057
 20
536.5961716844
 10
746.0219072512
 20
536.6813428111
 10
746.1948231266
 20
536.8183454755
 10
746.3332670945
 20
537.0037544521
 10
746.4337704695
 20
537.2329418465
  0
LINE
  5
1D4
330
1F
100
AcDbEntity
  8
0
  6
Continuous
 62
     7
370
    15
100
AcDbLine
 10
743.6925478717
 20
537.4440406887
 30
0.0
 11
744.8149943119
 21
536.7960661513
 31
0.0
  0
ARC
  5
1D5
330
1F
100
AcDbEntity
  8
0
  6
Continuous
 62
     7
370
    15
100
AcDbCircle
 10
743.8814350292
 20
537.7469308754
 30
0.0
 40
0.3569605348463332
100
AcDbArc
 50
176.4771448413
 51
238.0516763322
  0
LINE
  5
1D6
330
1F
100
AcDbEntity
  8
0
  6
Continuous
 62
     7
370
    15
100
AcDbLine
 10
752.317626465
 20
593.612427134
 30
0.0
 11
743.5251490188
 21
537.7688649181
 31
0.0
  0
LWPOLYLINE
  5
1D7
330
1F
100
AcDbEntity
  8
0
  6
Continuous
 62
     7
370
    15
100
AcDbPolyline
 90
        9
 70
   128
 43
0.0
 10
753.991589706
 20
594.2835923276
 10
753.6949391128
 20
594.4246699023
 10
753.4074217416
 20
594.5010639689
 10
753.1378968601
 20
594.5104100148
 10
752.8946547532
 20
594.4524289677
 10
752.6851933455
 20
594.3289052728
 10
752.5159611047
 20
594.1436357659
 10
752.3921673812
 20
593.9023347499
 10
752.317626465
 20
593.612427134
  0
LINE
  5
1D8
330
1F
100
AcDbEntity
  8
0
  6
Continuous
 62
     7
370
    15
100
AcDbLine
 10
762.2397448183
 20
589.5220337338
 30
0.0
 11
753.991589706
 21
594.2835923276
 31
0.0
  0
LINE
  5
1D9
330
1F
100
AcDbEntity
  8
0
  6
Continuous
 62
     7
370
    15
100
AcDbLine
 10
763.9368003177
 20
572.7900309471
 30
0.0
 11
763.9368003177
 21
586.5826473943
 31
0.0
  0
ARC
  5
1DA
330
1F
100
AcDbEntity
  8
0
  6
Continuous
 62
     7
370
    15
100
AcDbCircle
 10
763.4195118198
 20
572.7061190722
 30
0.0
 40
0.5240501815504167
100
AcDbArc
 50
230.7962910271
 51
9.2139678276
  0
LINE
  5
1DB
330
1F
100
AcDbEntity
  8
0
  6
Continuous
 62
     7
370
    15
100
AcDbLine
 10
759.2341350398
 20
574.524975733
 30
0.0
 11
763.0882704607
 21
572.3000307139
 31
0.0
  0
ELLIPSE
  5
1DC
330
1F
100
AcDbEntity
  8
0
  6
Continuous
 62
     7
370
    15
100
AcDbEllipse
 10
804.2300909239
 20
512.9765384267
 30
0.0
 11
2.262741699796948
 21
0.0
 31
0.0
210
0.0
220
0.0
230
1.0
 40
0.5773815452
 41
1.570796326798464
 42
2.356113226131182
  0
LINE
  5
1DD
330
1F
100
AcDbEntity
  8
0
  6
Continuous
 62
     7
370
    15
100
AcDbLine
 10
804.2300894367
 20
514.824010887
 30
0.0
 11
804.2300894367
 21
514.2830034469
 31
0.0
  0
LWPOLYLINE
  5
1DE
330
1F
100
AcDbEntity
  8
0
  6
Continuous
 62
     7
370
    15
100
AcDbPolyline
 90
       27
 70
   128
 43
0.0
 10
778.2822009853
 20
658.7569300231
 10
778.4549759322
 20
658.7514416635
 10
778.8006466688
 20
658.7920925541
 10
779.1307658111
 20
658.90148038
 10
779.4382937156
 20
659.0772692257
 10
779.7166782599
 20
659.3157150754
 10
779.9599838504
 20
659.6117422103
 10
780.163027215
 20
659.9590302854
 10
780.3214806628
 20
660.3501858937
 10
780.431965992
 20
660.7768708566
 10
780.4921290377
 20
661.2299830608
 10
780.5006859016
 20
661.6998755437
 10
780.4574573279
 20
662.1765337514
 10
780.3633608008
 20
662.6497893741
 10
780.2204054078
 20
663.1095593488
 10
780.0316369173
 20
663.546047904
 10
779.8010765338
 20
663.9499522521
 10
779.5336410822
 20
664.312657102
 10
779.2350306276
 20
664.6264406734
 10
778.9116048659
 20
664.8846093221
 10
778.5702622155
 20
665.0816622398
 10
778.2182777492
 20
665.2133996163
 10
777.8631483707
 20
665.2770120175
 10
777.5124476053
 20
665.27114961
 10
777.1736499001
 20
665.1959286903
 10
776.8539732982
 20
665.0529592393
 10
776.8411162703
 20
665.0455401977
  0
ARC
  5
1DF
330
1F
100
AcDbEntity
  8
0
  6
Continuous
 62
     7
370
    15
100
AcDbCircle
 10
705.3582156989
 20
332.7026952515
 30
0.0
 40
2.000000000000031
100
AcDbArc
 50
89.9777781582
 51
183.4724264183
  0
ARC
  5
1E0
330
1F
100
AcDbEntity
  8
0
  6
Continuous
 62
     7
370
    15
100
AcDbCircle
 10
836.2871155759
 20
332.3026952515
 30
0.0
 40
2.400000000000034
100
AcDbArc
 50
0.0
 51
90.0
  0
LINE
  5
1E1
330
1F
100
AcDbEntity
  8
0
  6
Continuous
 62
     7
370
    15
100
AcDbLine
 10
836.2871164342
 20
334.7026935405
 30
0.0
 11
705.3582155963
 21
334.7026935405
 31
0.0
  0
ARC
  5
1E2
330
1F
100
AcDbEntity
  8
0
  6
Continuous
 62
     7
370
    15
100
AcDbCircle
 10
842.3989138862
 20
199.0124528016
 30
0.0
 40
5.601258614204646
100
AcDbArc
 50
270.0158851573
 51
11.9792337928
  0
ARC
  5
1E3
330
1F
100
AcDbEntity
  8
0
  6
Continuous
 62
     7
370
    15
100
AcDbCircle
 10
842.4015873475
 20
199.0102590733
 30
0.0
 40
2.399094210145182
100
AcDbArc
 50
269.9732394082
 51
12.0380029809
  0
ARC
  5
1E4
330
1F
100
AcDbEntity
  8
0
  6
Continuous
 62
     7
370
    15
100
AcDbCircle
 10
704.3256020621
 20
199.0131124577
 30
0.0
 40
5.601918557564831
100
AcDbArc
 50
168.0290953276
 51
269.9757323614
  0
ARC
  5
1E5
330
1F
100
AcDbEntity
  8
0
  6
Continuous
 62
     7
370
    15
100
AcDbCircle
 10
704.3240980011
 20
199.0118713461
 30
0.0
 40
2.400706378424557
100
AcDbArc
 50
168.0095419463
 51
269.9792690254
  0
LINE
  5
1E6
330
1F
100
AcDbEntity
  8
0
  6
Continuous
 62
     7
370
    15
100
AcDbLine
 10
773.3618492146
 20
196.6111770458
 30
0.0
 11
704.3232293685
 21
196.6111770458
 31
0.0
  0
LINE
  5
1E7
330
1F
100
AcDbEntity
  8
0
  6
Continuous
 62
     7
370
    15
100
AcDbLine
 10
842.4004668256
 20
196.6111770458
 30
0.0
 11
773.3618492146
 21
196.6111770458
 31
0.0
  0
LINE
  5
1E8
330
1F
100
AcDbEntity
  8
0
  6
Continuous
 62
     7
370
    15
100
AcDbLine
 10
773.3618492146
 20
193.4111765212
 30
0.0
 11
842.4004668256
 21
193.4111765212
 31
0.0
  0
LINE
  5
1E9
330
1F
100
AcDbEntity
  8
0
  6
Continuous
 62
     7
370
    15
100
AcDbLine
 10
704.3232293685
 20
193.4111765212
 30
0.0
 11
773.3618492146
 21
193.4111765212
 31
0.0
  0
LINE
  5
1EA
330
1F
100
AcDbEntity
  8
0
  6
Continuous
 62
     7
370
    15
100
AcDbLine
 10
835.357570078
 20
243.6887963301
 30
0.0
 11
844.7480196019
 21
199.5101681537
 31
0.0
  0
LINE
  5
1EB
330
1F
100
AcDbEntity
  8
0
  6
Continuous
 62
     7
370
    15
100
AcDbLine
 10
847.8780979176
 20
200.1754811591
 30
0.0
 11
838.4876364728
 21
244.3541138059
 31
0.0
  0
LINE
  5
1EC
330
1F
100
AcDbEntity
  8
0
  6
Continuous
 62
     7
370
    15
100
AcDbLine
 10
701.9756751021
 20
199.5101681537
 30
0.0
 11
711.3661328216
 21
243.6887963301
 31
0.0
  0
LINE
  5
1ED
330
1F
100
AcDbEntity
  8
0
  6
Continuous
 62
     7
370
    15
100
AcDbLine
 10
708.2360604664
 20
244.3541138059
 30
0.0
 11
698.8456031193
 21
200.1754811591
 31
0.0
  0
ARC
  5
1EE
330
1F
100
AcDbEntity
  8
0
  6
Continuous
 62
     7
370
    15
100
AcDbCircle
 10
713.6255804984
 20
243.0709094902
 30
0.0
 40
2.342410713571968
100
AcDbArc
 50
87.5496099976
 51
164.7053815928
  0
ARC
  5
1EF
330
1F
100
AcDbEntity
  8
0
  6
Continuous
 62
     7
370
    15
100
AcDbCircle
 10
713.2576395532
 20
243.2857106234
 30
0.0
 40
5.133979147432258
100
AcDbArc
 50
131.6322566462
 51
167.9887170036
  0
ARC
  5
1F0
330
1F
100
AcDbEntity
  8
0
  6
Continuous
 62
     7
370
    15
100
AcDbCircle
 10
833.1007079593
 20
243.0744521369
 30
0.0
 40
2.338983841397207
100
AcDbArc
 50
15.2276181437
 51
92.5175970346
  0
ARC
  5
1F1
330
1F
100
AcDbEntity
  8
0
  6
Continuous
 62
     7
370
    15
100
AcDbCircle
 10
833.4718366409
 20
243.2902644131
 30
0.0
 40
5.127379787360494
100
AcDbArc
 50
11.9749502594
 51
46.5266934231
  0
LINE
  5
1F2
330
1F
100
AcDbEntity
  8
0
  6
Continuous
 62
     7
370
    15
100
AcDbLine
 10
821.7618459721
 20
245.4111783392
 30
0.0
 11
832.9979652425
 21
245.4111783392
 31
0.0
  0
LINE
  5
1F3
330
1F
100
AcDbEntity
  8
0
  6
Continuous
 62
     7
370
    15
100
AcDbLine
 10
724.9618494769
 20
245.4111783392
 30
0.0
 11
821.7618459721
 21
245.4111783392
 31
0.0
  0
LINE
  5
1F4
330
1F
100
AcDbEntity
  8
0
  6
Continuous
 62
     7
370
    15
100
AcDbLine
 10
713.7257287164
 20
245.4111783392
 30
0.0
 11
724.9618494769
 21
245.4111783392
 31
0.0
  0
LINE
  5
1F5
330
1F
100
AcDbEntity
  8
0
  6
Continuous
 62
     7
370
    15
100
AcDbLine
 10
703.3618876596
 20
332.5815609283
 30
0.0
 11
702.4080755075
 21
348.3003845996
 31
0.0
  0
LINE
  5
1F6
330
1F
100
AcDbEntity
  8
0
  6
Continuous
 62
     7
370
    15
100
AcDbLine
 10
720.5438250561
 20
348.8221457786
 30
0.0
 11
724.7796589394
 21
334.7026935405
 31
0.0
  0
ARC
  5
1F7
330
1F
100
AcDbEntity
  8
0
  6
Continuous
 62
     7
370
    15
100
AcDbCircle
 10
706.2509432006
 20
351.0111780948
 30
0.0
 40
4.0
100
AcDbArc
 50
90.0
 51
183.4724264183
  0
LWPOLYLINE
  5
1F8
330
1F
100
AcDbEntity
  8
0
  6
Continuous
 62
     7
370
    15
100
AcDbPolyline
 90
        9
 70
   128
 43
0.0
 10
702.4080755075
 20
348.3003845996
 10
702.3751603325
 20
348.8428345508
 10
702.3455681165
 20
349.3305137939
 10
702.3197399338
 20
349.7561565227
 10
702.2980617245
 20
350.1134148425
 10
702.2808568438
 20
350.3969541377
 10
702.2683808466
 20
350.6025603599
 10
702.2608199974
 20
350.7271638698
 10
702.2582868
 20
350.7689050025
  0
LINE
  5
1F9
330
1F
100
AcDbEntity
  8
0
  6
Continuous
 62
     7
370
    15
100
AcDbLine
 10
706.2509434183
 20
355.0111761874
 30
0.0
 11
713.3300954362
 21
355.0111761874
 31
0.0
  0
ARC
  5
1FA
330
1F
100
AcDbEntity
  8
0
  6
Continuous
 62
     7
370
    15
100
AcDbCircle
 10
713.3300948894
 20
347.8111780948
 30
0.0
 40
7.199999999999989
100
AcDbArc
 50
16.699244234
 51
90.0
  0
LWPOLYLINE
  5
1FB
330
1F
100
AcDbEntity
  8
0
  6
Continuous
 62
     7
370
    15
100
AcDbPolyline
 90
        6
 70
   128
 43
0.0
 10
720.2264452239
 20
349.8800805396
 10
720.2401572724
 20
349.834375698
 10
720.2807718774
 20
349.6989956683
 10
720.3467422982
 20
349.4790962524
 10
720.4355532189
 20
349.1830519027
 10
720.5438250561
 20
348.8221457786
  0
LWPOLYLINE
  5
1FC
330
1F
100
AcDbEntity
  8
0
  6
Continuous
 62
     7
370
    15
100
AcDbPolyline
 90
        5
 70
   128
 43
0.0
 10
704.717595305
 20
310.2394810504
 10
704.477791663
 20
314.1914537734
 10
704.2378516753
 20
318.1456676311
 10
703.9979608615
 20
322.0990649051
 10
703.758305486
 20
326.0485878772
  0
LINE
  5
1FD
330
1F
100
AcDbEntity
  8
0
  6
Continuous
 62
     7
370
    15
100
AcDbLine
 10
838.6871212979
 20
326.1445155925
 30
0.0
 11
838.6871212979
 21
310.3798917121
 31
0.0
  0
LINE
  5
1FE
330
1F
100
AcDbEntity
  8
0
  6
Continuous
 62
     7
370
    15
100
AcDbLine
 10
838.6871212979
 20
310.3798917121
 30
0.0
 11
838.6871212979
 21
305.8111778087
 31
0.0
  0
ARC
  5
1FF
330
1F
100
AcDbEntity
  8
0
  6
Continuous
 62
     7
370
    15
100
AcDbCircle
 10
836.2871155759
 20
305.8111780948
 30
0.0
 40
2.400000000000034
100
AcDbArc
 50
270.0
 51
0.0
  0
LINE
  5
200
330
1F
100
AcDbEntity
  8
0
  6
Continuous
 62
     7
370
    15
100
AcDbLine
 10
836.2871164342
 20
303.4111789054
 30
0.0
 11
707.0142539104
 21
303.4111789054
 31
0.0
  0
ARC
  5
201
330
1F
100
AcDbEntity
  8
0
  6
Continuous
 62
     7
370
    15
100
AcDbCircle
 10
707.0142536136
 20
305.4111780948
 30
0.0
 40
2.0
100
AcDbArc
 50
183.4724264183
 51
270.0
  0
LWPOLYLINE
  5
202
330
1F
100
AcDbEntity
  8
0
  6
Continuous
 62
     7
370
    15
100
AcDbPolyline
 90
       14
 70
   128
 43
0.0
 10
705.0179252287
 20
305.2900424785
 10
705.0157638152
 20
305.3256681747
 10
705.0093078871
 20
305.4320565051
 10
704.9986475964
 20
305.6077471561
 10
704.9839267393
 20
305.8503380603
 10
704.9653494616
 20
306.1564973182
 10
704.9431683381
 20
306.5220406837
 10
704.9176880975
 20
306.9419494457
 10
704.8892581721
 20
307.4104777164
 10
704.8582682272
 20
307.9212001151
 10
704.8251414557
 20
308.4671190566
 10
704.7903338333
 20
309.0407601184
 10
704.7543199619
 20
309.6342554874
 10
704.717595305
 20
310.2394810504
  0
LWPOLYLINE
  5
203
330
1F
100
AcDbEntity
  8
0
  6
Continuous
 62
     7
370
    15
100
AcDbPolyline
 90
       11
 70
   128
 43
0.0
 10
703.758305486
 20
326.0485878772
 10
703.7203447779
 20
326.6741863078
 10
703.6832334359
 20
327.2857716865
 10
703.6475183328
 20
327.8743556327
 10
703.6137239893
 20
328.431295473
 10
703.5823466142
 20
328.9483955688
 10
703.5538473983
 20
329.4180622882
 10
703.5286458095
 20
329.833387453
 10
703.5071113964
 20
330.1882675475
 10
703.4895615538
 20
330.4774931258
 10
703.4762533267
 20
330.6968084163
  0
LINE
  5
204
330
1F
100
AcDbEntity
  8
0
  6
Continuous
 62
     7
370
    15
100
AcDbLine
 10
838.6871212979
 20
330.4351797885
 30
0.0
 11
838.6871212979
 21
326.1445155925
 31
0.0
  0
LWPOLYLINE
  5
205
330
1F
100
AcDbEntity
  8
0
  6
Continuous
 62
     7
370
    15
100
AcDbPolyline
 90
        9
 70
   128
 43
0.0
 10
703.4762533267
 20
330.6968084163
 10
703.4474680086
 20
331.1711898631
 10
703.4227909406
 20
331.5778723544
 10
703.4022608658
 20
331.9162061996
 10
703.3859113117
 20
332.1856489963
 10
703.3737683554
 20
332.3857656307
 10
703.3658513685
 20
332.5162342376
 10
703.3621730169
 20
332.5768581218
 10
703.3618876596
 20
332.5815609283
  0
LINE
  5
206
330
1F
100
AcDbEntity
  8
0
  6
Continuous
 62
     7
370
    15
100
AcDbLine
 10
838.6871212979
 20
332.3026946372
 30
0.0
 11
838.6871212979
 21
330.4351797885
 31
0.0
  0
LWPOLYLINE
  5
207
330
1F
100
AcDbEntity
  8
0
  6
Continuous
 62
     7
370
    15
100
AcDbPolyline
 90
        9
 70
   128
 43
0.0
 10
705.1538066824
 20
303.0507138557
 10
705.1253491898
 20
303.5196951217
 10
705.0990590711
 20
303.9529553241
 10
705.0755934675
 20
304.3396702594
 10
705.0555387397
 20
304.6701720542
 10
705.0393955668
 20
304.9362114257
 10
705.0275685151
 20
305.1311305351
 10
705.0203511377
 20
305.2500656432
 10
705.0179252287
 20
305.2900424785
  0
LINE
  5
208
330
1F
100
AcDbEntity
  8
0
  6
Continuous
 62
     7
370
    15
100
AcDbLine
 10
833.8871115704
 20
303.4111789054
 30
0.0
 11
833.8871115704
 21
302.5714299268
 31
0.0
  0
LINE
  5
209
330
1F
100
AcDbEntity
  8
0
  6
Continuous
 62
     7
370
    15
100
AcDbLine
 10
833.8871115704
 20
302.5714299268
 30
0.0
 11
833.8871115704
 21
248.6906720883
 31
0.0
  0
LINE
  5
20A
330
1F
100
AcDbEntity
  8
0
  6
Continuous
 62
     7
370
    15
100
AcDbLine
 10
708.4232682248
 20
249.1699575073
 30
0.0
 11
705.1538066824
 21
303.0507138557
 31
0.0
  0
LINE
  5
20B
330
1F
100
AcDbEntity
  8
0
  6
Continuous
 62
     7
370
    15
100
AcDbLine
 10
838.6871212979
 20
305.8111778087
 30
0.0
 11
838.6871212979
 21
249.4111782498
 31
0.0
  0
LINE
  5
20C
330
1F
100
AcDbEntity
  8
0
  6
Continuous
 62
     7
370
    15
100
AcDbLine
 10
833.8871115704
 20
247.0111782289
 30
0.0
 11
710.4365819951
 21
247.0111782289
 31
0.0
  0
LINE
  5
20D
330
1F
100
AcDbEntity
  8
0
  6
Continuous
 62
     7
370
    15
100
AcDbLine
 10
833.8871115704
 20
248.6906720883
 30
0.0
 11
833.8871115704
 21
247.0111782289
 31
0.0
  0
ARC
  5
20E
330
1F
100
AcDbEntity
  8
0
  6
Continuous
 62
     7
370
    15
100
AcDbCircle
 10
710.4365821655
 20
249.0111780948
 30
0.0
 40
2.000000000000033
100
AcDbArc
 50
183.4724264183
 51
270.0
  0
LWPOLYLINE
  5
20F
330
1F
100
AcDbEntity
  8
0
  6
Continuous
 62
     7
370
    15
100
AcDbPolyline
 90
        8
 70
   128
 43
0.0
 10
708.4402540584
 20
248.890041802
 10
708.4398576875
 20
248.8965644128
 10
708.438683476
 20
248.9159202761
 10
708.4367686768
 20
248.9474779553
 10
708.4341758748
 20
248.9902077801
 10
708.4309900065
 20
249.0427164919
 10
708.42731389
 20
249.1032915748
 10
708.4232682248
 20
249.1699575073
  0
ARC
  5
210
330
1F
100
AcDbEntity
  8
0
  6
Continuous
 62
     7
370
    15
100
AcDbCircle
 10
836.2871155759
 20
249.4111780948
 30
0.0
 40
2.399999999999977
100
AcDbArc
 50
323.1301023542
 51
0.0
  0
LINE
  5
211
330
1F
100
AcDbEntity
  8
0
  6
Continuous
 62
     7
370
    15
100
AcDbLine
 10
838.2071131726
 20
303.4111789054
 30
0.0
 11
836.2871164342
 21
303.4111789054
 31
0.0
  0
LINE
  5
212
330
1F
100
AcDbEntity
  8
0
  6
Continuous
 62
     7
370
    15
100
AcDbLine
 10
838.2071131726
 20
304.3711772746
 30
0.0
 11
838.2071131726
 21
303.4111789054
 31
0.0
  0
LINE
  5
213
330
1F
100
AcDbEntity
  8
0
  6
Continuous
 62
     7
370
    15
100
AcDbLine
 10
838.2071131726
 20
303.4111789054
 30
0.0
 11
838.2071131726
 21
302.5714299268
 31
0.0
  0
LINE
  5
214
330
1F
100
AcDbEntity
  8
0
  6
Continuous
 62
     7
370
    15
100
AcDbLine
 10
838.2071131726
 20
302.5714299268
 30
0.0
 11
838.2071131726
 21
248.6906720883
 31
0.0
  0
LINE
  5
215
330
1F
100
AcDbEntity
  8
0
  6
Continuous
 62
     7
370
    15
100
AcDbLine
 10
838.2071131726
 20
247.0111782289
 30
0.0
 11
833.8871115704
 21
247.0111782289
 31
0.0
  0
LINE
  5
216
330
1F
100
AcDbEntity
  8
0
  6
Continuous
 62
     7
370
    15
100
AcDbLine
 10
838.2071131726
 20
248.6906720883
 30
0.0
 11
838.2071131726
 21
247.0111782289
 31
0.0
  0
ENDSEC
  0
SECTION
  2
OBJECTS
  0
DICTIONARY
  5
C
330
0
100
AcDbDictionary
281
     1
  3
ACAD_GROUP
350
D
  3
ACAD_LAYOUT
350
1A
  3
ACAD_MLINESTYLE
350
17
  3
ACAD_PLOTSETTINGS
350
19
  3
ACAD_PLOTSTYLENAME
350
E
  3
ACAD_SCALELIST
350
47
  0
DICTIONARY
  5
D
102
{ACAD_REACTORS
330
C
102
}
330
C
100
AcDbDictionary
281
     1
  0
DICTIONARY
  5
1A
102
{ACAD_REACTORS
330
C
102
}
330
C
100
AcDbDictionary
281
     1
  3
Layout1
350
1E
  3
Layout2
350
26
  3
Model
350
22
  0
DICTIONARY
  5
17
102
{ACAD_REACTORS
330
C
102
}
330
C
100
AcDbDictionary
281
     1
  3
Standard
350
18
  0
DICTIONARY
  5
19
102
{ACAD_REACTORS
330
C
102
}
330
C
100
AcDbDictionary
281
     1
  0
ACDBDICTIONARYWDFLT
  5
E
102
{ACAD_REACTORS
330
C
102
}
330
C
100
AcDbDictionary
281
     1
  3
Normal
350
F
100
AcDbDictionaryWithDefault
340
F
  0
DICTIONARY
  5
47
102
{ACAD_REACTORS
330
C
102
}
330
C
100
AcDbDictionary
281
     1
  3
A0
350
48
  3
A1
350
49
  3
A2
350
4A
  3
A3
350
4B
  3
A4
350
4C
  3
A5
350
4D
  3
A6
350
4E
  3
A7
350
4F
  3
A8
350
50
  3
A9
350
51
  3
B0
350
52
  3
B1
350
53
  3
B2
350
54
  3
B3
350
55
  3
B4
350
56
  3
B5
350
57
  3
B6
350
58
  3
B7
350
59
  3
B8
350
5A
  3
B9
350
5B
  3
C0
350
5C
  3
C1
350
5D
  3
C2
350
5E
  3
C3
350
5F
  3
C4
350
60
  3
C5
350
61
  3
C6
350
62
  3
C7
350
63
  3
C8
350
64
  3
C9
350
65
  3
D0
350
66
  3
D1
350
67
  3
D2
350
68
  0
LAYOUT
  5
1E
102
{ACAD_REACTORS
330
1A
102
}
330
1A
100
AcDbPlotSettings
  1

  2
none_device
  4

  6

 40
0.0
 41
0.0
 42
0.0
 43
0.0
 44
0.0
 45
0.0
 46
0.0
 47
0.0
 48
0.0
 49
0.0
140
0.0
141
0.0
142
1.0
143
1.0
 70
   688
 72
     1
 73
     0
 74
     5
  7

 75
    16
147
1.0
148
0.0
149
0.0
100
AcDbLayout
  1
Layout1
 70
     1
 71
     1
 10
0.0
 20
0.0
 11
420.0
 21
297.0
 12
0.0
 22
0.0
 32
0.0
 14
1.0000000000E+20
 24
1.0000000000E+20
 34
1.0000000000E+20
 15
-1.0000000000E+20
 25
-1.0000000000E+20
 35
-1.0000000000E+20
146
0.0
 13
0.0
 23
0.0
 33
0.0
 16
1.0
 26
0.0
 36
0.0
 17
0.0
 27
1.0
 37
0.0
 76
     0
330
1B
  0
LAYOUT
  5
26
102
{ACAD_REACTORS
330
1A
102
}
330
1A
100
AcDbPlotSettings
  1

  2
none_device
  4

  6

 40
0.0
 41
0.0
 42
0.0
 43
0.0
 44
0.0
 45
0.0
 46
0.0
 47
0.0
 48
0.0
 49
0.0
140
0.0
141
0.0
142
1.0
143
1.0
 70
   688
 72
     1
 73
     0
 74
     5
  7

 75
    16
147
1.0
148
0.0
149
0.0
100
AcDbLayout
  1
Layout2
 70
     1
 71
     2
 10
0.0
 20
0.0
 11
0.0
 21
0.0
 12
0.0
 22
0.0
 32
0.0
 14
0.0
 24
0.0
 34
0.0
 15
0.0
 25
0.0
 35
0.0
146
0.0
 13
0.0
 23
0.0
 33
0.0
 16
1.0
 26
0.0
 36
0.0
 17
0.0
 27
1.0
 37
0.0
 76
     0
330
23
  0
LAYOUT
  5
22
102
{ACAD_REACTORS
330
1A
102
}
330
1A
100
AcDbPlotSettings
  1

  2
none_device
  4
Letter_(8.50_x_11.00_Inches)
  6

 40
6.35
 41
6.35
 42
6.35000508
 43
6.35000508
 44
215.9
 45
279.4
 46
0.0
 47
0.0
 48
0.0
 49
0.0
140
0.0
141
0.0
142
1.0
143
1.0
 70
  1712
 72
     1
 73
     0
 74
     0
  7

 75
     0
147
1.0
148
0.0
149
0.0
100
AcDbLayout
  1
Model
 70
     1
 71
     0
 10
0.0
 20
0.0
 11
1189.0
 21
841.0
 12
0.0
 22
0.0
 32
0.0
 14
0.0
 24
0.0
 34
0.0
 15
1189.0
 25
841.0
 35
0.0
146
0.0
 13
0.0
 23
0.0
 33
0.0
 16
1.0
 26
0.0
 36
0.0
 17
0.0
 27
1.0
 37
0.0
 76
     0
330
1F
331
29
  0
MLINESTYLE
  5
18
102
{ACAD_REACTORS
330
17
102
}
330
17
100
AcDbMlineStyle
  2
Standard
 70
     0
  3

 62
   256
 51
90.0
 52
90.0
 71
     2
 49
0.5
 62
   256
  6
BYLAYER
 49
-0.5
 62
   256
  6
BYLAYER
  0
ACDBPLACEHOLDER
  5
F
102
{ACAD_REACTORS
330
E
102
}
330
E
  0
SCALE
  5
48
102
{ACAD_REACTORS
330
47
102
}
330
47
100
AcDbScale
 70
     0
300
1:1
140
1.0
141
1.0
290
     1
  0
SCALE
  5
49
102
{ACAD_REACTORS
330
47
102
}
330
47
100
AcDbScale
 70
     0
300
1:2
140
1.0
141
2.0
290
     0
  0
SCALE
  5
4A
102
{ACAD_REACTORS
330
47
102
}
330
47
100
AcDbScale
 70
     0
300
1:4
140
1.0
141
4.0
290
     0
  0
SCALE
  5
4B
102
{ACAD_REACTORS
330
47
102
}
330
47
100
AcDbScale
 70
     0
300
1:5
140
1.0
141
5.0
290
     0
  0
SCALE
  5
4C
102
{ACAD_REACTORS
330
47
102
}
330
47
100
AcDbScale
 70
     0
300
1:8
140
1.0
141
8.0
290
     0
  0
SCALE
  5
4D
102
{ACAD_REACTORS
330
47
102
}
330
47
100
AcDbScale
 70
     0
300
1:10
140
1.0
141
10.0
290
     0
  0
SCALE
  5
4E
102
{ACAD_REACTORS
330
47
102
}
330
47
100
AcDbScale
 70
     0
300
1:16
140
1.0
141
16.0
290
     0
  0
SCALE
  5
4F
102
{ACAD_REACTORS
330
47
102
}
330
47
100
AcDbScale
 70
     0
300
1:20
140
1.0
141
20.0
290
     0
  0
SCALE
  5
50
102
{ACAD_REACTORS
330
47
102
}
330
47
100
AcDbScale
 70
     0
300
1:30
140
1.0
141
30.0
290
     0
  0
SCALE
  5
51
102
{ACAD_REACTORS
330
47
102
}
330
47
100
AcDbScale
 70
     0
300
1:40
140
1.0
141
40.0
290
     0
  0
SCALE
  5
52
102
{ACAD_REACTORS
330
47
102
}
330
47
100
AcDbScale
 70
     0
300
1:50
140
1.0
141
50.0
290
     0
  0
SCALE
  5
53
102
{ACAD_REACTORS
330
47
102
}
330
47
100
AcDbScale
 70
     0
300
1:100
140
1.0
141
100.0
290
     0
  0
SCALE
  5
54
102
{ACAD_REACTORS
330
47
102
}
330
47
100
AcDbScale
 70
     0
300
2:1
140
2.0
141
1.0
290
     0
  0
SCALE
  5
55
102
{ACAD_REACTORS
330
47
102
}
330
47
100
AcDbScale
 70
     0
300
4:1
140
4.0
141
1.0
290
     0
  0
SCALE
  5
56
102
{ACAD_REACTORS
330
47
102
}
330
47
100
AcDbScale
 70
     0
300
8:1
140
8.0
141
1.0
290
     0
  0
SCALE
  5
57
102
{ACAD_REACTORS
330
47
102
}
330
47
100
AcDbScale
 70
     0
300
10:1
140
10.0
141
1.0
290
     0
  0
SCALE
  5
58
102
{ACAD_REACTORS
330
47
102
}
330
47
100
AcDbScale
 70
     0
300
100:1
140
100.0
141
1.0
290
     0
  0
SCALE
  5
59
102
{ACAD_REACTORS
330
47
102
}
330
47
100
AcDbScale
 70
     0
300
1/128" = 1'-0"
140
0.0078125
141
12.0
290
     0
  0
SCALE
  5
5A
102
{ACAD_REACTORS
330
47
102
}
330
47
100
AcDbScale
 70
     0
300
1/64" = 1'-0"
140
0.015625
141
12.0
290
     0
  0
SCALE
  5
5B
102
{ACAD_REACTORS
330
47
102
}
330
47
100
AcDbScale
 70
     0
300
1/32" = 1'-0"
140
0.03125
141
12.0
290
     0
  0
SCALE
  5
5C
102
{ACAD_REACTORS
330
47
102
}
330
47
100
AcDbScale
 70
     0
300
1/16" = 1'-0"
140
0.0625
141
12.0
290
     0
  0
SCALE
  5
5D
102
{ACAD_REACTORS
330
47
102
}
330
47
100
AcDbScale
 70
     0
300
3/32" = 1'-0"
140
0.09375
141
12.0
290
     0
  0
SCALE
  5
5E
102
{ACAD_REACTORS
330
47
102
}
330
47
100
AcDbScale
 70
     0
300
1/8" = 1'-0"
140
0.125
141
12.0
290
     0
  0
SCALE
  5
5F
102
{ACAD_REACTORS
330
47
102
}
330
47
100
AcDbScale
 70
     0
300
3/16" = 1'-0"
140
0.1875
141
12.0
290
     0
  0
SCALE
  5
60
102
{ACAD_REACTORS
330
47
102
}
330
47
100
AcDbScale
 70
     0
300
1/4" = 1'-0"
140
0.25
141
12.0
290
     0
  0
SCALE
  5
61
102
{ACAD_REACTORS
330
47
102
}
330
47
100
AcDbScale
 70
     0
300
3/8" = 1'-0"
140
0.375
141
12.0
290
     0
  0
SCALE
  5
62
102
{ACAD_REACTORS
330
47
102
}
330
47
100
AcDbScale
 70
     0
300
1/2" = 1'-0"
140
0.5
141
12.0
290
     0
  0
SCALE
  5
63
102
{ACAD_REACTORS
330
47
102
}
330
47
100
AcDbScale
 70
     0
300
3/4" = 1'-0"
140
0.75
141
12.0
290
     0
  0
SCALE
  5
64
102
{ACAD_REACTORS
330
47
102
}
330
47
100
AcDbScale
 70
     0
300
1" = 1'-0"
140
1.0
141
12.0
290
     0
  0
SCALE
  5
65
102
{ACAD_REACTORS
330
47
102
}
330
47
100
AcDbScale
 70
     0
300
1-1/2" = 1'-0"
140
1.5
141
12.0
290
     0
  0
SCALE
  5
66
102
{ACAD_REACTORS
330
47
102
}
330
47
100
AcDbScale
 70
     0
300
3" = 1'-0"
140
3.0
141
12.0
290
     0
  0
SCALE
  5
67
102
{ACAD_REACTORS
330
47
102
}
330
47
100
AcDbScale
 70
     0
300
6" = 1'-0"
140
6.0
141
12.0
290
     0
  0
SCALE
  5
68
102
{ACAD_REACTORS
330
47
102
}
330
47
100
AcDbScale
 70
     0
300
1'-0" = 1'-0"
140
12.0
141
12.0
290
     0
  0
ENDSEC
  0
EOF
