  0
SECTION
  2
HEADER
  9
$ACADVER
  1
AC1015
  9
$ACADMAINTVER
 70
     6
  9
$DWGCODEPAGE
  3
ANSI_1252
  9
$INSBASE
 10
0.0
 20
0.0
 30
0.0
  9
$EXTMIN
 10
0.0
 20
0.0
 30
0.0
  9
$EXTMAX
 10
4000.0
 20
4000.0
 30
0.0
  9
$LIMMIN
 10
0.0
 20
0.0
  9
$LIMMAX
 10
4000.0
 20
4000.0
  9
$ORTHOMODE
 70
     0
  9
$REGENMODE
 70
     1
  9
$FILLMODE
 70
     1
  9
$QTEXTMODE
 70
     0
  9
$MIRRTEXT
 70
     1
  9
$LTSCALE
 40
1.0
  9
$ATTMODE
 70
     1
  9
$TEXTSIZE
 40
3.5
  9
$TRACEWID
 40
1.0
  9
$TEXTSTYLE
  7
Standard
  9
$CLAYER
  8
0
  9
$CELTYPE
  6
ByLayer
  9
$CECOLOR
 62
   256
  9
$CELTSCALE
 40
1.0
  9
$DISPSILH
 70
     0
  9
$DIMSCALE
 40
1.0
  9
$DIMASZ
 40
3.302
  9
$DIMEXO
 40
1.0
  9
$DIMDLI
 40
3.75
  9
$DIMRND
 40
0.0
  9
$DIMDLE
 40
0.0
  9
$DIMEXE
 40
1.0
  9
$DIMTP
 40
0.0
  9
$DIMTM
 40
0.0
  9
$DIMTXT
 40
3.5
  9
$DIMCEN
 40
2.5
  9
$DIMTSZ
 40
0.0
  9
$DIMTOL
 70
     0
  9
$DIMLIM
 70
     0
  9
$DIMTIH
 70
     1
  9
$DIMTOH
 70
     1
  9
$DIMSE1
 70
     0
  9
$DIMSE2
 70
     0
  9
$DIMTAD
 70
     1
  9
$DIMZIN
 70
     0
  9
$DIMBLK
  1

  9
$DIMASO
 70
     1
  9
$DIMSHO
 70
     1
  9
$DIMPOST
  1

  9
$DIMAPOST
  1

  9
$DIMALT
 70
     0
  9
$DIMALTD
 70
     3
  9
$DIMALTF
 40
0.0393700787
  9
$DIMLFAC
 40
1.0
  9
$DIMTOFL
 70
     1
  9
$DIMTVP
 40
0.0
  9
$DIMTIX
 70
     0
  9
$DIMSOXD
 70
     0
  9
$DIMSAH
 70
     0
  9
$DIMBLK1
  1

  9
$DIMBLK2
  1

  9
$DIMSTYLE
  2
ISO-25
  9
$DIMCLRD
 70
     0
  9
$DIMCLRE
 70
     0
  9
$DIMCLRT
 70
     0
  9
$DIMTFAC
 40
1.0
  9
$DIMGAP
 40
1.524
  9
$DIMJUST
 70
     0
  9
$DIMSD1
 70
     0
  9
$DIMSD2
 70
     0
  9
$DIMTOLJ
 70
     0
  9
$DIMTZIN
 70
     0
  9
$DIMALTZ
 70
     0
  9
$DIMALTTZ
 70
     0
  9
$DIMUPT
 70
     0
  9
$DIMDEC
 70
     2
  9
$DIMTDEC
 70
     2
  9
$DIMALTU
 70
     2
  9
$DIMALTTD
 70
     3
  9
$DIMTXSTY
  7
Standard
  9
$DIMAUNIT
 70
     0
  9
$DIMADEC
 70
     2
  9
$DIMALTRND
 40
0.0
  9
$DIMAZIN
 70
     0
  9
$DIMDSEP
 70
    44
  9
$DIMATFIT
 70
     3
  9
$DIMFRAC
 70
     0
  9
$DIMLDRBLK
  1

  9
$DIMLUNIT
 70
     2
  9
$DIMLWD
 70
    -2
  9
$DIMLWE
 70
    -2
  9
$DIMTMOVE
 70
     0
  9
$LUNITS
 70
     2
  9
$LUPREC
 70
     2
  9
$SKETCHINC
 40
1.0
  9
$FILLETRAD
 40
10.0
  9
$AUNITS
 70
     0
  9
$AUPREC
 70
     2
  9
$MENU
  1
.
  9
$ELEVATION
 40
0.0
  9
$PELEVATION
 40
0.0
  9
$THICKNESS
 40
0.0
  9
$LIMCHECK
 70
     0
  9
$CHAMFERA
 40
0.0
  9
$CHAMFERB
 40
0.0
  9
$CHAMFERC
 40
0.0
  9
$CHAMFERD
 40
0.0
  9
$SKPOLY
 70
     0
  9
$TDCREATE
 40
2458772.47778338
  9
$TDUCREATE
 40
2458772.436116713
  9
$TDUPDATE
 40
2458772.477783912
  9
$TDUUPDATE
 40
2458772.436117245
  9
$TDINDWG
 40
0.0000000116
  9
$TDUSRTIMER
 40
0.0000000116
  9
$USRTIMER
 70
     1
  9
$ANGBASE
 50
0.0
  9
$ANGDIR
 70
     0
  9
$PDMODE
 70
     0
  9
$PDSIZE
 40
-1.0
  9
$PLINEWID
 40
0.0
  9
$SPLFRAME
 70
     0
  9
$SPLINETYPE
 70
     6
  9
$SPLINESEGS
 70
     8
  9
$HANDSEED
  5
245
  9
$SURFTAB1
 70
     6
  9
$SURFTAB2
 70
     6
  9
$SURFTYPE
 70
     6
  9
$SURFU
 70
     6
  9
$SURFV
 70
     6
  9
$UCSBASE
  2

  9
$UCSNAME
  2

  9
$UCSORG
 10
0.0
 20
0.0
 30
0.0
  9
$UCSXDIR
 10
1.0
 20
0.0
 30
0.0
  9
$UCSYDIR
 10
0.0
 20
1.0
 30
0.0
  9
$UCSORTHOREF
  2

  9
$UCSORTHOVIEW
 70
     0
  9
$UCSORGTOP
 10
0.0
 20
0.0
 30
0.0
  9
$UCSORGBOTTOM
 10
0.0
 20
0.0
 30
0.0
  9
$UCSORGLEFT
 10
0.0
 20
0.0
 30
0.0
  9
$UCSORGRIGHT
 10
0.0
 20
0.0
 30
0.0
  9
$UCSORGFRONT
 10
0.0
 20
0.0
 30
0.0
  9
$UCSORGBACK
 10
0.0
 20
0.0
 30
0.0
  9
$PUCSBASE
  2

  9
$PUCSNAME
  2

  9
$PUCSORG
 10
0.0
 20
0.0
 30
0.0
  9
$PUCSXDIR
 10
1.0
 20
0.0
 30
0.0
  9
$PUCSYDIR
 10
0.0
 20
1.0
 30
0.0
  9
$PUCSORTHOREF
  2

  9
$PUCSORTHOVIEW
 70
     0
  9
$PUCSORGTOP
 10
0.0
 20
0.0
 30
0.0
  9
$PUCSORGBOTTOM
 10
0.0
 20
0.0
 30
0.0
  9
$PUCSORGLEFT
 10
0.0
 20
0.0
 30
0.0
  9
$PUCSORGRIGHT
 10
0.0
 20
0.0
 30
0.0
  9
$PUCSORGFRONT
 10
0.0
 20
0.0
 30
0.0
  9
$PUCSORGBACK
 10
0.0
 20
0.0
 30
0.0
  9
$USERI1
 70
     0
  9
$USERI2
 70
     0
  9
$USERI3
 70
     0
  9
$USERI4
 70
     0
  9
$USERI5
 70
     0
  9
$USERR1
 40
0.0
  9
$USERR2
 40
0.0
  9
$USERR3
 40
0.0
  9
$USERR4
 40
0.0
  9
$USERR5
 40
0.0
  9
$WORLDVIEW
 70
     1
  9
$SHADEDGE
 70
     3
  9
$SHADEDIF
 70
    70
  9
$TILEMODE
 70
     1
  9
$MAXACTVP
 70
    64
  9
$PINSBASE
 10
0.0
 20
0.0
 30
0.0
  9
$PLIMCHECK
 70
     0
  9
$PEXTMIN
 10
1.0000000000E+20
 20
1.0000000000E+20
 30
1.0000000000E+20
  9
$PEXTMAX
 10
-1.0000000000E+20
 20
-1.0000000000E+20
 30
-1.0000000000E+20
  9
$PLIMMIN
 10
0.0
 20
0.0
  9
$PLIMMAX
 10
420.0
 20
297.0
  9
$UNITMODE
 70
     0
  9
$VISRETAIN
 70
     1
  9
$PLINEGEN
 70
     0
  9
$PSLTSCALE
 70
     1
  9
$TREEDEPTH
 70
  3020
  9
$CMLSTYLE
  2
Standard
  9
$CMLJUST
 70
     0
  9
$CMLSCALE
 40
20.0
  9
$PROXYGRAPHICS
 70
     1
  9
$MEASUREMENT
 70
     1
  9
$CELWEIGHT
370
    -1
  9
$ENDCAPS
280
     0
  9
$JOINSTYLE
280
     0
  9
$LWDISPLAY
290
     1
  9
$INSUNITS
 70
     4
  9
$HYPERLINKBASE
  1

  9
$STYLESHEET
  1

  9
$XEDIT
290
     1
  9
$CEPSNTYPE
380
     0
  9
$PSTYLEMODE
290
     1
  9
$FINGERPRINTGUID
  2
{2E10B413-678E-40AE-AF58-D8CD832657A7}
  9
$VERSIONGUID
  2
{FAEB1C32-E019-11D5-929B-00C0DF256EC4}
  9
$EXTNAMES
290
     1
  9
$PSVPSCALE
 40
0.0
  9
$OLESTARTUP
290
     0
  0
ENDSEC
  0
SECTION
  2
CLASSES
  0
CLASS
  1
ACDBDICTIONARYWDFLT
  2
AcDbDictionaryWithDefault
  3
ObjectDBX Classes
 90
        0
280
     0
281
     0
  0
CLASS
  1
VISUALSTYLE
  2
AcDbVisualStyle
  3
ObjectDBX Classes
 90
     4095
280
     0
281
     0
  0
CLASS
  1
MATERIAL
  2
AcDbMaterial
  3
ObjectDBX Classes
 90
     1153
280
     0
281
     0
  0
CLASS
  1
SCALE
  2
AcDbScale
  3
ObjectDBX Classes
 90
     1153
280
     0
281
     0
  0
CLASS
  1
TABLESTYLE
  2
AcDbTableStyle
  3
ObjectDBX Classes
 90
     4095
280
     0
281
     0
  0
CLASS
  1
MLEADERSTYLE
  2
AcDbMLeaderStyle
  3
ACDB_MLEADERSTYLE_CLASS
 90
     4095
280
     0
281
     0
  0
CLASS
  1
SUN
  2
AcDbSun
  3
SCENEOE
 90
     1153
280
     0
281
     0
  0
CLASS
  1
ACDBPLACEHOLDER
  2
AcDbPlaceHolder
  3
ObjectDBX Classes
 90
        0
280
     0
281
     0
  0
CLASS
  1
LAYOUT
  2
AcDbLayout
  3
ObjectDBX Classes
 90
        0
280
     0
281
     0
  0
ENDSEC
  0
SECTION
  2
TABLES
  0
TABLE
  2
VPORT
  5
8
330
0
100
AcDbSymbolTable
 70
     1
  0
VPORT
  5
29
330
8
100
AcDbSymbolTableRecord
100
AcDbViewportTableRecord
  2
*Active
 70
     0
 10
0.0
 20
0.0
 11
1.0
 21
1.0
 12
2000.0
 22
2000.0
 13
0.0
 23
0.0
 14
10.0
 24
10.0
 15
10.0
 25
10.0
 16
0.0
 26
0.0
 36
1.0
 17
0.0
 27
0.0
 37
0.0
 40
4000.0
 41
1.0
 42
50.0
 43
0.0
 44
0.0
 50
0.0
 51
0.0
 71
     0
 72
  2000
 73
     1
 74
     3
 75
     0
 76
     0
 77
     0
 78
     0
281
     0
 65
     1
110
0.0
120
0.0
130
0.0
111
1.0
121
0.0
131
0.0
112
0.0
122
1.0
132
0.0
 79
     0
146
0.0
  0
ENDTAB
  0
TABLE
  2
LTYPE
  5
5
330
0
100
AcDbSymbolTable
 70
     6
  0
LTYPE
  5
14
330
5
100
AcDbSymbolTableRecord
100
AcDbLinetypeTableRecord
  2
ByBlock
 70
     0
  3

 72
    65
 73
     0
 40
0.0
  0
LTYPE
  5
15
330
5
100
AcDbSymbolTableRecord
100
AcDbLinetypeTableRecord
  2
ByLayer
 70
     0
  3

 72
    65
 73
     0
 40
0.0
  0
LTYPE
  5
16
330
5
100
AcDbSymbolTableRecord
100
AcDbLinetypeTableRecord
  2
Continuous
 70
     0
  3
Solid line
 72
    65
 73
     0
 40
0.0
  0
LTYPE
  5
6E
330
5
100
AcDbSymbolTableRecord
100
AcDbLinetypeTableRecord
  2
HIDDEN
 70
     0
  3
Hidden __ __ __ __ __ __ __ __ __ __ __ __ __ __
 72
    65
 73
     2
 40
1.905
 49
1.27
 74
     0
 49
-0.635
 74
     0
  0
LTYPE
  5
6F
330
5
100
AcDbSymbolTableRecord
100
AcDbLinetypeTableRecord
  2
PHANTOM
 70
     0
  3
Phantom ______  __  __  ______  __  __  ______
 72
    65
 73
     6
 40
12.7
 49
6.35
 74
     0
 49
-1.27
 74
     0
 49
1.27
 74
     0
 49
-1.27
 74
     0
 49
1.27
 74
     0
 49
-1.27
 74
     0
  0
LTYPE
  5
70
330
5
100
AcDbSymbolTableRecord
100
AcDbLinetypeTableRecord
  2
CENTER
 70
     0
  3
Center ____ _ ____ _ ____ _ ____ _ ____ _ ____
 72
    65
 73
     4
 40
10.16
 49
6.35
 74
     0
 49
-1.27
 74
     0
 49
1.27
 74
     0
 49
-1.27
 74
     0
  0
LTYPE
  5
71
330
5
100
AcDbSymbolTableRecord
100
AcDbLinetypeTableRecord
  2
CENTERX2
 70
     0
  3
Center (2x) ________  __  ________  __  _____
 72
    65
 73
     4
 40
20.32
 49
12.7
 74
     0
 49
-2.54
 74
     0
 49
2.54
 74
     0
 49
-2.54
 74
     0
  0
LTYPE
  5
72
330
5
100
AcDbSymbolTableRecord
100
AcDbLinetypeTableRecord
  2
DOT2
 70
     0
  3
Dot (.5x) ........................................
 72
    65
 73
     2
 40
0.635
 49
0.0
 74
     0
 49
-0.635
 74
     0
  0
ENDTAB
  0
TABLE
  2
LAYER
  5
2
330
0
100
AcDbSymbolTable
 70
     1
  0
LAYER
  5
10
330
2
100
AcDbSymbolTableRecord
100
AcDbLayerTableRecord
  2
0
 70
     0
 62
     7
  6
Continuous
370
    -3
390
F
  0
ENDTAB
  0
TABLE
  2
STYLE
  5
3
330
0
100
AcDbSymbolTable
 70
     1
  0
STYLE
  5
11
330
3
100
AcDbSymbolTableRecord
100
AcDbTextStyleTableRecord
  2
Standard
 70
     0
 40
0.0
 41
1.0
 50
0.0
 71
     0
 42
3.5
  3
txt
  4

  0
ENDTAB
  0
TABLE
  2
VIEW
  5
6
330
0
100
AcDbSymbolTable
 70
     0
  0
ENDTAB
  0
TABLE
  2
UCS
  5
7
330
0
100
AcDbSymbolTable
 70
     0
  0
ENDTAB
  0
TABLE
  2
APPID
  5
9
330
0
100
AcDbSymbolTable
 70
     1
  0
APPID
  5
12
330
9
100
AcDbSymbolTableRecord
100
AcDbRegAppTableRecord
  2
ACAD
 70
     0
  0
ENDTAB
  0
TABLE
  2
DIMSTYLE
  5
A
330
0
100
AcDbSymbolTable
 70
     1
100
AcDbDimStyleTable
  0
DIMSTYLE
105
27
330
A
100
AcDbSymbolTableRecord
100
AcDbDimStyleTableRecord
  2
ISO-25
 70
     0
 41
2.5
 42
0.625
 43
3.75
 44
1.25
 73
     0
 74
     0
 77
     1
 78
     8
140
2.5
141
2.5
143
0.0393700787
147
0.625
171
     3
172
     1
178
     0
271
     2
272
     2
274
     3
278
    44
283
     0
284
     8
340
11
  0
ENDTAB
  0
TABLE
  2
BLOCK_RECORD
  5
1
330
0
100
AcDbSymbolTable
 70
     1
  0
BLOCK_RECORD
  5
1F
330
1
100
AcDbSymbolTableRecord
100
AcDbBlockTableRecord
  2
*Model_Space
340
22
  0
BLOCK_RECORD
  5
1B
330
1
100
AcDbSymbolTableRecord
100
AcDbBlockTableRecord
  2
*Paper_Space
340
1E
  0
BLOCK_RECORD
  5
23
330
1
100
AcDbSymbolTableRecord
100
AcDbBlockTableRecord
  2
*Paper_Space0
340
26
  0
ENDTAB
  0
ENDSEC
  0
SECTION
  2
BLOCKS
  0
BLOCK
  5
20
330
1F
100
AcDbEntity
  8
0
100
AcDbBlockBegin
  2
*Model_Space
 70
     0
 10
0.0
 20
0.0
 30
0.0
  3
*Model_Space
  1

  0
ENDBLK
  5
21
330
1F
100
AcDbEntity
  8
0
100
AcDbBlockEnd
  0
BLOCK
  5
1C
330
1B
100
AcDbEntity
 67
     1
  8
0
100
AcDbBlockBegin
  2
*Paper_Space
 70
     0
 10
0.0
 20
0.0
 30
0.0
  3
*Paper_Space
  1

  0
ENDBLK
  5
1D
330
1B
100
AcDbEntity
 67
     1
  8
0
100
AcDbBlockEnd
  0
BLOCK
  5
24
330
23
100
AcDbEntity
  8
0
100
AcDbBlockBegin
  2
*Paper_Space0
 70
     0
 10
0.0
 20
0.0
 30
0.0
  3
*Paper_Space0
  1

  0
ENDBLK
  5
25
330
23
100
AcDbEntity
  8
0
100
AcDbBlockEnd
  0
ENDSEC
  0
SECTION
  2
ENTITIES
  0
LWPOLYLINE
  5
73
330
1F
100
AcDbEntity
  8
0
  6
Continuous
 62
     7
370
    15
100
AcDbPolyline
 90
        4
 70
   128
 43
0.0
 10
890.8845573436
 20
2010.4281245504
 10
893.6764240037
 20
2009.7644361441
 10
902.4542212258
 20
2007.5898221467
 10
902.490386344
 20
2007.5805256848
  0
LWPOLYLINE
  5
74
330
1F
100
AcDbEntity
  8
0
  6
Continuous
 62
     7
370
    15
100
AcDbPolyline
 90
        3
 70
   128
 43
0.0
 10
529.4823586713
 20
2007.5921746675
 10
538.2549106847
 20
2009.7631900345
 10
541.0306542884
 20
2010.4224546586
  0
LWPOLYLINE
  5
75
330
1F
100
AcDbEntity
  8
0
  6
Continuous
 62
     7
370
    15
100
AcDbPolyline
 90
        4
 70
   128
 43
0.0
 10
911.3530605803
 20
2022.0014680882
 10
909.3081593285
 20
2022.2146487568
 10
903.05086372
 20
2022.8642006178
 10
899.7924566041
 20
2023.2020816539
  0
LWPOLYLINE
  5
76
330
1F
100
AcDbEntity
  8
0
  6
Continuous
 62
     7
370
    15
100
AcDbPolyline
 90
        5
 70
   128
 43
0.0
 10
882.1690618764
 20
2022.7167322074
 10
888.3130043517
 20
2021.3163434301
 10
895.9655254851
 20
2019.4983626489
 10
904.8497468005
 20
2017.2982415889
 10
904.8850774537
 20
2017.2891611938
  0
LWPOLYLINE
  5
77
330
1F
100
AcDbEntity
  8
0
  6
Continuous
 62
     7
370
    15
100
AcDbPolyline
 90
        4
 70
   128
 43
0.0
 10
532.1367174159
 20
2023.2035298605
 10
528.8814097415
 20
2022.866839986
 10
522.6232349644
 20
2022.2185081576
 10
520.5753236781
 20
2022.0050751005
  0
LWPOLYLINE
  5
78
330
1F
100
AcDbEntity
  8
0
  6
Continuous
 62
     7
370
    15
100
AcDbPolyline
 90
        3
 70
   128
 43
0.0
 10
909.0744495164
 20
1675.4164765362
 10
909.5969438325
 20
1676.3719687943
 10
910.2629363309
 20
1677.5663266663
  0
LWPOLYLINE
  5
79
330
1F
100
AcDbEntity
  8
0
  6
Continuous
 62
     7
370
    15
100
AcDbPolyline
 90
        3
 70
   128
 43
0.0
 10
521.6624825965
 20
1677.5765786652
 10
522.3284750949
 20
1676.3814459328
 10
522.8502988587
 20
1675.4265199189
  0
ARC
  5
7A
330
1F
100
AcDbEntity
  8
0
  6
Continuous
 62
     7
370
    15
100
AcDbCircle
 10
593.3144173262
 20
1710.2908755666
 30
0.0
 40
68.21144430153859
100
AcDbArc
 50
218.3631773591
 51
270.0681409614
  0
ARC
  5
7B
330
1F
100
AcDbEntity
  8
0
  6
Continuous
 62
     7
370
    15
100
AcDbCircle
 10
838.5818117396
 20
1710.4375313709
 30
0.0
 40
68.34590872120947
100
AcDbArc
 50
269.9605484409
 51
321.5938999406
  0
LWPOLYLINE
  5
7C
330
1F
100
AcDbEntity
  8
0
  6
Continuous
 62
     7
370
    15
100
AcDbPolyline
 90
        3
 70
   128
 43
0.0
 10
534.0320855151
 20
1676.1119435315
 10
534.2702656756
 20
1675.7317851071
 10
534.5080137025
 20
1675.3497193341
  0
LWPOLYLINE
  5
7D
330
1F
100
AcDbEntity
  8
0
  6
Continuous
 62
     7
370
    15
100
AcDbPolyline
 90
        3
 70
   128
 43
0.0
 10
897.4073022376
 20
1675.3257880692
 10
897.6455867062
 20
1675.7084200863
 10
897.8843331109
 20
1676.0891447548
  0
LWPOLYLINE
  5
7E
330
1F
100
AcDbEntity
  8
0
  6
Continuous
 62
     7
370
    15
100
AcDbPolyline
 90
       10
 70
   128
 43
0.0
 10
593.3934464823
 20
1642.0266995911
 10
601.6944959532
 20
1642.0830557827
 10
636.7250174056
 20
1642.2768900876
 10
667.6862030993
 20
1642.4013743882
 10
695.7613281677
 20
1642.4683998112
 10
721.7341545741
 20
1642.4855659489
 10
749.3590950738
 20
1642.452664185
 10
776.1198334168
 20
1642.3746119027
 10
805.5806025635
 20
1642.2415445332
 10
838.5347217093
 20
1642.0402000431
  0
LINE
  5
7F
330
1F
100
AcDbEntity
  8
0
  6
Continuous
 62
     7
370
    15
100
AcDbLine
 10
513.738819934
 20
1954.6190867905
 30
0.0
 11
513.9184683333
 21
1954.4394458417
 31
0.0
  0
LINE
  5
80
330
1F
100
AcDbEntity
  8
0
  6
Continuous
 62
     7
370
    15
100
AcDbLine
 10
918.0109739075
 20
1954.4377918128
 30
0.0
 11
918.1922763358
 21
1954.6190867905
 31
0.0
  0
LWPOLYLINE
  5
81
330
1F
100
AcDbEntity
  8
0
  6
Continuous
 62
     7
370
    15
100
AcDbPolyline
 90
        9
 70
   128
 43
0.0
 10
921.2318897019
 20
1976.116083074
 10
921.2313979636
 20
1976.1163922731
 10
921.1110263835
 20
1975.9192350094
 10
920.8267867337
 20
1975.4973645095
 10
920.3412621985
 20
1974.832333136
 10
919.6360200415
 20
1973.9264021401
 10
918.7139957915
 20
1972.8014240746
 10
917.5926983128
 20
1971.4896450524
 10
916.979634739
 20
1970.7972625975
  0
LWPOLYLINE
  5
82
330
1F
100
AcDbEntity
  8
0
  6
Continuous
 62
     7
370
    15
100
AcDbPolyline
 90
       14
 70
   128
 43
0.0
 10
918.1922763358
 20
1954.6190867905
 10
919.1481709252
 20
1955.5808896903
 10
920.938396431
 20
1957.4149320607
 10
922.6687192689
 20
1959.2313538079
 10
924.3150144587
 20
1961.0052699928
 10
925.8559584389
 20
1962.7144406323
 10
927.2730290662
 20
1964.3398145918
 10
928.5520106326
 20
1965.8679137711
 10
929.6855270634
 20
1967.2960261588
 10
930.6793451081
 20
1968.6469356303
 10
931.573623396
 20
1970.0300241594
 10
932.0874303351
 20
1971.0008273606
 10
932.4461012851
 20
1971.8831698183
 10
932.5868278514
 20
1972.3397935514
  0
ARC
  5
83
330
1F
100
AcDbEntity
  8
0
  6
Continuous
 62
     7
370
    15
100
AcDbCircle
 10
540.7524100614
 20
1995.7617504219
 30
0.0
 40
35.90401767494503
100
AcDbArc
 50
213.1695329102
 51
224.0565205942
  0
LWPOLYLINE
  5
84
330
1F
100
AcDbEntity
  8
0
  6
Continuous
 62
     7
370
    15
100
AcDbPolyline
 90
       13
 70
   128
 43
0.0
 10
499.3442684184
 20
1972.3397935514
 10
499.7085720073
 20
1971.302464116
 10
500.0709384452
 20
1970.5446804647
 10
500.6437837849
 20
1969.559318829
 10
501.6128510009
 20
1968.1410710101
 10
502.6391684781
 20
1966.7898858671
 10
503.9134859811
 20
1965.2208233957
 10
505.2985936175
 20
1963.5977293138
 10
506.8003922473
 20
1961.9034076814
 10
508.4093004237
 20
1960.1445044164
 10
510.1081222068
 20
1958.3378280286
 10
511.8757873545
 20
1956.5047691349
 10
513.738819934
 20
1954.6190867905
  0
LWPOLYLINE
  5
85
330
1F
100
AcDbEntity
  8
0
  6
Continuous
 62
     7
370
    15
100
AcDbPolyline
 90
       12
 70
   128
 43
0.0
 10
510.1873516808
 20
1674.2662559037
 10
510.1761758099
 20
1674.26184516
 10
510.3639155398
 20
1674.3139694218
 10
510.8187734853
 20
1674.4165490155
 10
511.5814745198
 20
1674.5548317913
 10
512.6681715022
 20
1674.7127542977
 10
514.0664815675
 20
1674.8749981408
 10
515.744084097
 20
1675.0290761475
 10
517.6594793568
 20
1675.1659582142
 10
519.7681277762
 20
1675.2793560509
 10
522.0248639355
 20
1675.3650973324
 10
523.0485588084
 20
1675.3890583996
  0
LWPOLYLINE
  5
86
330
1F
100
AcDbEntity
  8
0
  6
Continuous
 62
     7
370
    15
100
AcDbPolyline
 90
       14
 70
   128
 43
0.0
 10
517.2091513644
 20
1687.1556709294
 10
516.0956173907
 20
1687.0890031342
 10
513.9254420768
 20
1686.9170735363
 10
511.9163036118
 20
1686.7106626515
 10
510.0719868909
 20
1686.4648828988
 10
508.3650290738
 20
1686.1630747799
 10
506.6680103312
 20
1685.7376466279
 10
505.5871695052
 20
1685.3486071114
 10
504.7536283503
 20
1684.944785643
 10
503.9098799
 20
1684.4006846432
 10
503.0813008319
 20
1683.6708853726
 10
502.3317426215
 20
1682.7334533219
 10
501.7451584111
 20
1681.6110084538
 10
501.5857159863
 20
1681.1651955132
  0
ARC
  5
87
330
1F
100
AcDbEntity
  8
0
  6
Continuous
 62
     7
370
    15
100
AcDbCircle
 10
909.8934510621
 20
1612.8078538612
 30
0.0
 40
62.59042130196597
100
AcDbArc
 50
79.0907410645
 51
90.9259708056
  0
LWPOLYLINE
  5
88
330
1F
100
AcDbEntity
  8
0
  6
Continuous
 62
     7
370
    15
100
AcDbPolyline
 90
       14
 70
   128
 43
0.0
 10
930.3453802834
 20
1681.1651955132
 10
929.817864276
 20
1682.3758850579
 10
929.1718393336
 20
1683.3109031205
 10
928.4385531913
 20
1684.0629945282
 10
927.6708602677
 20
1684.6464643959
 10
926.8896668921
 20
1685.0969264988
 10
926.059150673
 20
1685.4635844712
 10
925.0594913731
 20
1685.7984433655
 10
923.5567688714
 20
1686.1649821286
 10
921.8517333041
 20
1686.466015387
 10
920.0566202174
 20
1686.7057452683
 10
917.9497599374
 20
1686.9220803265
 10
915.7203674088
 20
1687.0969007496
 10
914.7266387711
 20
1687.1554027085
  0
LINE
  5
89
330
1F
100
AcDbEntity
  8
0
  6
Continuous
 62
     7
370
    15
100
AcDbLine
 10
932.5868278514
 20
1972.3397935514
 30
0.0
 11
965.5761211882
 21
2092.8114051704
 31
0.0
  0
LINE
  5
8A
330
1F
100
AcDbEntity
  8
0
  6
Continuous
 62
     7
370
    15
100
AcDbLine
 10
954.002210475
 20
2095.9807405953
 30
0.0
 11
921.1367606889
 21
1975.9613941197
 31
0.0
  0
LINE
  5
8B
330
1F
100
AcDbEntity
  8
0
  6
Continuous
 62
     7
370
    15
100
AcDbLine
 10
510.7931881915
 20
1975.965581346
 30
0.0
 11
477.9288857947
 21
2095.9807405953
 31
0.0
  0
LINE
  5
8C
330
1F
100
AcDbEntity
  8
0
  6
Continuous
 62
     7
370
    15
100
AcDbLine
 10
466.3549750815
 20
2092.8114051704
 30
0.0
 11
499.3442684184
 21
1972.3397935514
 31
0.0
  0
LINE
  5
8D
330
1F
100
AcDbEntity
  8
0
  6
Continuous
 62
     7
370
    15
100
AcDbLine
 10
499.2413162957
 20
1633.871323872
 30
0.0
 11
512.1069043647
 21
1674.6311853413
 31
0.0
  0
LINE
  5
8E
330
1F
100
AcDbEntity
  8
0
  6
Continuous
 62
     7
370
    15
100
AcDbLine
 10
490.4366075764
 20
1605.9768269543
 30
0.0
 11
497.715854622
 21
1629.0384600644
 31
0.0
  0
LINE
  5
8F
330
1F
100
AcDbEntity
  8
0
  6
Continuous
 62
     7
370
    15
100
AcDbLine
 10
501.5857159863
 20
1681.1651955132
 30
0.0
 11
478.9931267272
 21
1609.5888684277
 31
0.0
  0
LINE
  5
90
330
1F
100
AcDbEntity
  8
0
  6
Continuous
 62
     7
370
    15
100
AcDbLine
 10
952.9379695426
 20
1609.5888684277
 30
0.0
 11
930.3453802834
 21
1681.1651955132
 31
0.0
  0
LINE
  5
91
330
1F
100
AcDbEntity
  8
0
  6
Continuous
 62
     7
370
    15
100
AcDbLine
 10
934.2152416478
 20
1629.0384600644
 30
0.0
 11
941.4944886933
 21
1605.9768269543
 31
0.0
  0
LINE
  5
92
330
1F
100
AcDbEntity
  8
0
  6
Continuous
 62
     7
370
    15
100
AcDbLine
 10
919.8229700099
 20
1674.6350894455
 30
0.0
 11
932.6897799741
 21
1633.871323872
 31
0.0
  0
LINE
  5
93
330
1F
100
AcDbEntity
  8
0
  6
Continuous
 62
     7
370
    15
100
AcDbLine
 10
493.9437597762
 20
1629.0384600644
 30
0.0
 11
937.9873364936
 21
1629.0384600644
 31
0.0
  0
LINE
  5
94
330
1F
100
AcDbEntity
  8
0
  6
Continuous
 62
     7
370
    15
100
AcDbLine
 10
930.4275154839
 20
1641.0384843831
 30
0.0
 11
872.2482561837
 21
1641.0384843831
 31
0.0
  0
LINE
  5
95
330
1F
100
AcDbEntity
  8
0
  6
Continuous
 62
     7
370
    15
100
AcDbLine
 10
559.6815138827
 20
1641.0384843831
 30
0.0
 11
501.5035807858
 21
1641.0384843831
 31
0.0
  0
LWPOLYLINE
  5
96
330
1F
100
AcDbEntity
  8
0
  6
Continuous
 62
     7
370
    15
100
AcDbPolyline
 90
       29
 70
   128
 43
0.0
 10
477.9288857947
 20
2095.9807405953
 10
477.7063965569
 20
2096.6679150943
 10
477.3794054757
 20
2097.3994652514
 10
476.886713482
 20
2098.1961558346
 10
476.1708020936
 20
2099.0189234499
 10
475.2317756186
 20
2099.7602860217
 10
474.1048902045
 20
2100.3272826557
 10
472.8496908913
 20
2100.6543333415
 10
471.5393870841
 20
2100.705630589
 10
470.2271014224
 20
2100.467226911
 10
469.1021382581
 20
2100.0042403821
 10
468.1680589686
 20
2099.388606358
 10
467.4246400367
 20
2098.6848096137
 10
466.8659060965
 20
2097.9588734691
 10
466.4715021621
 20
2097.2719783668
 10
466.1983787785
 20
2096.6440248076
 10
466.0020857821
 20
2096.0536370758
 10
465.8429413806
 20
2095.426547784
 10
465.6837373744
 20
2094.5843900327
 10
465.4965191851
 20
2093.1926737313
 10
465.3519481192
 20
2091.734602559
 10
465.2128308783
 20
2089.9408268516
 10
465.0918334494
 20
2087.9906485562
 10
464.9852007399
 20
2085.8759316389
 10
464.892485715
 20
2083.6123781983
 10
464.8141950141
 20
2081.2263111357
 10
464.7509842883
 20
2078.749361891
 10
464.7036582003
 20
2076.2162501697
 10
464.6845251094
 20
2074.8042757396
  0
LWPOLYLINE
  5
97
330
1F
100
AcDbEntity
  8
0
  6
Continuous
 62
     7
370
    15
100
AcDbPolyline
 90
       29
 70
   128
 43
0.0
 10
967.2465711604
 20
2074.8042757396
 10
967.2285407553
 20
2076.1438156251
 10
967.1817213069
 20
2078.6747815792
 10
967.1191662322
 20
2081.1489219551
 10
967.0416205893
 20
2083.5294271593
 10
966.9500976573
 20
2085.7828440849
 10
966.8454617034
 20
2087.8790351335
 10
966.728398181
 20
2089.7928694968
 10
966.5987282763
 20
2091.5073374991
 10
966.4536505709
 20
2093.0210607831
 10
966.2802904616
 20
2094.3745891337
 10
966.0403519641
 20
2095.6333460991
 10
965.8355951081
 20
2096.3540780131
 10
965.5861198674
 20
2097.0020363812
 10
965.2001499902
 20
2097.7450716083
 10
964.6293908129
 20
2098.5430548672
 10
963.8286024104
 20
2099.3354464654
 10
962.8151595364
 20
2100.0115941052
 10
961.6330802212
 20
2100.4879171733
 10
960.3488981496
 20
2100.708454359
 10
958.9272379647
 20
2100.6293738965
 10
957.6872825394
 20
2100.2726922516
 10
956.64245782
 20
2099.7233758454
 10
955.7917803298
 20
2099.0490088944
 10
955.1320314179
 20
2098.3139197115
 10
954.6520352135
 20
2097.584519047
 10
954.3221384059
 20
2096.9115192775
 10
954.0945231686
 20
2096.2932179455
 10
954.002210475
 20
2095.9807405953
  0
LWPOLYLINE
  5
98
330
1F
100
AcDbEntity
  8
0
  6
Continuous
 62
     7
370
    15
100
AcDbPolyline
 90
       26
 70
   128
 43
0.0
 10
941.4944886933
 20
1605.9768269543
 10
941.8041199218
 20
1605.1840553765
 10
942.3788726102
 20
1604.2050788884
 10
943.1878715525
 20
1603.2873759751
 10
944.2109107743
 20
1602.5206218247
 10
945.3977435599
 20
1601.9757459645
 10
946.786516882
 20
1601.6860077862
 10
948.0740070115
 20
1601.7083893303
 10
949.2248385916
 20
1601.9659410004
 10
950.2211898337
 20
1602.3932466988
 10
951.0487556229
 20
1602.9264102463
 10
951.703721262
 20
1603.4998665337
 10
952.2088706265
 20
1604.0667365078
 10
952.6101886998
 20
1604.6211491112
 10
952.9617219935
 20
1605.2021751885
 10
953.3368438254
 20
1605.9321830754
 10
953.8992434512
 20
1607.2219679837
 10
954.4329285393
 20
1608.6107860093
 10
954.977387167
 20
1610.145396996
 10
955.5930137406
 20
1611.9880745892
 10
956.2298446666
 20
1613.9896581654
 10
956.8867623578
 20
1616.1398659234
 10
957.5579851638
 20
1618.4165249352
 10
958.2356005679
 20
1620.7910845761
 10
958.9106380711
 20
1623.2312093262
 10
959.4235211383
 20
1625.1359949593
  0
LWPOLYLINE
  5
99
330
1F
100
AcDbEntity
  8
0
  6
Continuous
 62
     7
370
    15
100
AcDbPolyline
 90
        3
 70
   128
 43
0.0
 10
947.8270351659
 20
1628.221697617
 10
947.4915653239
 20
1626.971043158
 10
947.4728792678
 20
1626.903004456
  0
LWPOLYLINE
  5
9A
330
1F
100
AcDbEntity
  8
0
  6
Continuous
 62
     7
370
    15
100
AcDbPolyline
 90
       26
 70
   128
 43
0.0
 10
472.5075751315
 20
1625.1359949593
 10
472.85557685
 20
1623.8386700634
 10
473.5275894175
 20
1621.3910649304
 10
474.2038041125
 20
1619.0027366166
 10
474.8744457732
 20
1616.7087624554
 10
475.5304842959
 20
1614.5407329087
 10
476.1638283501
 20
1612.5268707756
 10
476.7680704365
 20
1610.6902728562
 10
477.3401558171
 20
1609.0454826836
 10
477.8850167762
 20
1607.5904438977
 10
478.434109665
 20
1606.2775025849
 10
478.9323150883
 20
1605.2692006115
 10
479.3738662968
 20
1604.5417557244
 10
479.8163711797
 20
1603.951103497
 10
480.4231315623
 20
1603.3116648678
 10
481.2205970059
 20
1602.685935307
 10
482.2318494092
 20
1602.1434734349
 10
483.4109037886
 20
1601.7806003575
 10
484.6895724307
 20
1601.6626725678
 10
485.9881788264
 20
1601.8213103299
 10
487.3054712783
 20
1602.2945116047
 10
488.3797704945
 20
1602.9756138806
 10
489.2210751544
 20
1603.7838826661
 10
489.8461043607
 20
1604.6544383053
 10
490.2751534949
 20
1605.5248747353
 10
490.4366075764
 20
1605.9768269543
  0
LWPOLYLINE
  5
9B
330
1F
100
AcDbEntity
  8
0
  6
Continuous
 62
     7
370
    15
100
AcDbPolyline
 90
        3
 70
   128
 43
0.0
 10
484.4582319031
 20
1626.9030342583
 10
484.4382792483
 20
1626.9756923203
 10
484.1040611039
 20
1628.221697617
  0
LINE
  5
9C
330
1F
100
AcDbEntity
  8
0
  6
Continuous
 62
     7
370
    15
100
AcDbLine
 10
959.4640224944
 20
1671.9549069886
 30
0.0
 11
947.8270351659
 21
1628.221697617
 31
0.0
  0
LINE
  5
9D
330
1F
100
AcDbEntity
  8
0
  6
Continuous
 62
     7
370
    15
100
AcDbLine
 10
959.4235211383
 20
1625.1359949593
 30
0.0
 11
971.060523368
 21
1668.8691745285
 31
0.0
  0
LINE
  5
9E
330
1F
100
AcDbEntity
  8
0
  6
Continuous
 62
     7
370
    15
100
AcDbLine
 10
464.6845251094
 20
2074.8042757396
 30
0.0
 11
459.9980801116
 21
1675.8602927212
 31
0.0
  0
LINE
  5
9F
330
1F
100
AcDbEntity
  8
0
  6
Continuous
 62
     7
370
    15
100
AcDbLine
 10
471.9972550641
 20
1675.7193575386
 30
0.0
 11
476.4632522832
 21
2055.8975985978
 31
0.0
  0
LINE
  5
A0
330
1F
100
AcDbEntity
  8
0
  6
Continuous
 62
     7
370
    15
100
AcDbLine
 10
955.4678439866
 20
2055.8975985978
 30
0.0
 11
959.9338412057
 21
1675.7193575386
 31
0.0
  0
LINE
  5
A1
330
1F
100
AcDbEntity
  8
0
  6
Continuous
 62
     7
370
    15
100
AcDbLine
 10
971.9330161582
 20
1675.8602927212
 30
0.0
 11
967.2465711604
 21
2074.8042757396
 31
0.0
  0
ARC
  5
A2
330
1F
100
AcDbEntity
  8
0
  6
Continuous
 62
     7
370
    15
100
AcDbCircle
 10
945.9348021907
 20
1675.5548953996
 30
0.0
 40
13.99999999999925
100
AcDbArc
 50
345.0994033122
 51
0.6730282764
  0
ARC
  5
A3
330
1F
100
AcDbEntity
  8
0
  6
Continuous
 62
     7
370
    15
100
AcDbCircle
 10
945.9348021907
 20
1675.5548953996
 30
0.0
 40
25.99999999999925
100
AcDbArc
 50
345.0994033122
 51
0.6730282764
  0
LINE
  5
A4
330
1F
100
AcDbEntity
  8
0
  6
Continuous
 62
     7
370
    15
100
AcDbLine
 10
460.8705729018
 20
1668.8691745285
 30
0.0
 11
472.5075751315
 21
1625.1359949593
 31
0.0
  0
LINE
  5
A5
330
1F
100
AcDbEntity
  8
0
  6
Continuous
 62
     7
370
    15
100
AcDbLine
 10
484.1040611039
 20
1628.221697617
 30
0.0
 11
472.4670737754
 21
1671.9549069886
 31
0.0
  0
ARC
  5
A6
330
1F
100
AcDbEntity
  8
0
  6
Continuous
 62
     7
370
    15
100
AcDbCircle
 10
485.996294079
 20
1675.5548953996
 30
0.0
 40
13.99999999999926
100
AcDbArc
 50
179.3269717236
 51
194.9005966878
  0
ARC
  5
A7
330
1F
100
AcDbEntity
  8
0
  6
Continuous
 62
     7
370
    15
100
AcDbCircle
 10
485.996294079
 20
1675.5548953996
 30
0.0
 40
25.99999999999928
100
AcDbArc
 50
179.3269717236
 51
194.9005966878
  0
LWPOLYLINE
  5
A8
330
1F
100
AcDbEntity
  8
0
  6
Continuous
 62
     7
370
    15
100
AcDbPolyline
 90
       17
 70
   128
 43
0.0
 10
537.5832408438
 20
2018.0432642583
 10
538.8786881934
 20
2019.706662256
 10
541.0069912444
 20
2021.5919962857
 10
543.9472287665
 20
2023.6749960814
 10
547.6975232135
 20
2025.9386454482
 10
552.1705388795
 20
2028.3213732537
 10
557.3244482051
 20
2030.7930568006
 10
563.1548106442
 20
2033.3370684885
 10
569.632881857
 20
2035.9104260052
 10
576.628559805
 20
2038.4261770879
 10
584.1347664366
 20
2040.8542975557
 10
592.1625062595
 20
2043.1731138152
 10
600.6243988643
 20
2045.3352615942
 10
609.3646302591
 20
2047.2898646031
 10
618.3840051065
 20
2049.0301665623
 10
627.6873215805
 20
2050.5480668281
 10
637.159907795
 20
2051.8211046938
  0
LWPOLYLINE
  5
A9
330
1F
100
AcDbEntity
  8
0
  6
Continuous
 62
     7
370
    15
100
AcDbPolyline
 90
        7
 70
   128
 43
0.0
 10
637.159907795
 20
2051.8211046938
 10
663.428360201
 20
2054.419205967
 10
689.6969951461
 20
2055.9533810948
 10
715.9655398975
 20
2056.4590184723
 10
742.2340862225
 20
2055.9466792975
 10
768.5026690136
 20
2054.4149852131
 10
794.7711884747
 20
2051.8213840906
  0
LWPOLYLINE
  5
AA
330
1F
100
AcDbEntity
  8
0
  6
Continuous
 62
     7
370
    15
100
AcDbPolyline
 90
       17
 70
   128
 43
0.0
 10
794.7711884747
 20
2051.8213840906
 10
804.18513862
 20
2050.558402646
 10
813.4119674335
 20
2049.0554873605
 10
822.4549755226
 20
2047.3139616434
 10
831.2885999451
 20
2045.3384681378
 10
839.7142082225
 20
2043.1846682687
 10
847.7009027968
 20
2040.8805366379
 10
855.256611086
 20
2038.4414868668
 10
862.3039513598
 20
2035.9102753055
 10
868.7298834096
 20
2033.360524546
 10
874.5441525946
 20
2030.8254793991
 10
879.7430187236
 20
2028.3333095495
 10
884.2223524819
 20
2025.9476075654
 10
887.9384636651
 20
2023.7063583691
 10
890.8862709771
 20
2021.6222037335
 10
893.0404275428
 20
2019.7167335783
 10
894.3478554259
 20
2018.0426235084
  0
LWPOLYLINE
  5
AB
330
1F
100
AcDbEntity
  8
0
  6
Continuous
 62
     7
370
    15
100
AcDbPolyline
 90
       21
 70
   128
 43
0.0
 10
894.3478554259
 20
2018.0426235084
 10
895.938152052
 20
2015.2635271434
 10
897.529461957
 20
2012.6207670901
 10
899.12279842
 20
2010.2498638217
 10
900.7204413186
 20
2008.4606534575
 10
902.3250728617
 20
2007.609588537
 10
903.9371251832
 20
2007.7265104984
 10
905.5545121203
 20
2008.6463927065
 10
906.6867619525
 20
2009.6500734572
 10
907.8184455405
 20
2010.7292751555
 10
908.9514851342
 20
2011.6302906309
 10
910.0864171754
 20
2012.055770937
 10
911.221304513
 20
2011.6864549701
 10
911.9249522458
 20
2010.895752791
 10
912.6184671889
 20
2009.534961987
 10
913.2988691102
 20
2007.4355541502
 10
913.953626133
 20
2004.4130678062
 10
914.5582556496
 20
2000.4391032044
 10
915.1051878701
 20
1995.4787264351
 10
915.5736654769
 20
1989.7360387032
 10
915.9655511151
 20
1983.3072083775
  0
LWPOLYLINE
  5
AC
330
1F
100
AcDbEntity
  8
0
  6
Continuous
 62
     7
370
    15
100
AcDbPolyline
 90
        6
 70
   128
 43
0.0
 10
918.0166363488
 20
1944.4475839619
 10
917.4855887662
 20
1954.5110235695
 10
916.9633924733
 20
1964.4067655091
 10
916.6216343413
 20
1970.8832571988
 10
916.2868648539
 20
1977.2274191265
 10
915.9660279523
 20
1983.307227004
  0
LWPOLYLINE
  5
AD
330
1F
100
AcDbEntity
  8
0
  6
Continuous
 62
     7
370
    15
100
AcDbPolyline
 90
       10
 70
   128
 43
0.0
 10
919.7942703734
 20
1742.4962292199
 10
920.7301676045
 20
1776.1583099846
 10
921.1730748187
 20
1809.8231176619
 10
921.1231708298
 20
1843.4890280251
 10
920.913436986
 20
1860.3205005412
 10
920.5805599461
 20
1877.1484712843
 10
920.1245397101
 20
1893.9735661034
 10
919.5453613768
 20
1910.7963437919
 10
918.8428759347
 20
1927.6185626869
 10
918.0166363488
 20
1944.4475839619
  0
LWPOLYLINE
  5
AE
330
1F
100
AcDbEntity
  8
0
  6
Continuous
 62
     7
370
    15
100
AcDbPolyline
 90
        3
 70
   128
 43
0.0
 10
918.6773240338
 20
1710.7022474293
 10
919.2357599507
 20
1726.5958259587
 10
919.7942703734
 20
1742.4962292199
  0
ARC
  5
AF
330
1F
100
AcDbEntity
  8
0
  6
Continuous
 62
     7
370
    15
100
AcDbCircle
 10
838.7266162218
 20
1713.5109834243
 30
0.0
 40
80.00002923453461
100
AcDbArc
 50
270.0000232361
 51
357.9879782574
  0
LINE
  5
B0
330
1F
100
AcDbEntity
  8
0
  6
Continuous
 62
     7
370
    15
100
AcDbLine
 10
593.2044476043
 20
1633.5109541897
 30
0.0
 11
838.7266486655
 21
1633.5109541897
 31
0.0
  0
ARC
  5
B1
330
1F
100
AcDbEntity
  8
0
  6
Continuous
 62
     7
370
    15
100
AcDbCircle
 10
593.2033548172
 20
1713.5098179696
 30
0.0
 40
79.99886378732866
100
AcDbArc
 50
182.0112158444
 51
270.0007826622
  0
LWPOLYLINE
  5
B2
330
1F
100
AcDbEntity
  8
0
  6
Continuous
 62
     7
370
    15
100
AcDbPolyline
 90
        3
 70
   128
 43
0.0
 10
512.1368258963
 20
1742.4962292199
 10
512.695336319
 20
1726.5958259587
 10
513.2537722359
 20
1710.7022474293
  0
LWPOLYLINE
  5
B3
330
1F
100
AcDbEntity
  8
0
  6
Continuous
 62
     7
370
    15
100
AcDbPolyline
 90
       10
 70
   128
 43
0.0
 10
513.914459921
 20
1944.4475839619
 10
513.0883693467
 20
1927.6221464161
 10
512.3858988057
 20
1910.8005533699
 10
511.8066757689
 20
1893.9771870856
 10
511.3505959283
 20
1877.1507213597
 10
511.0176741849
 20
1860.3208134655
 10
510.8079254399
 20
1843.4892664437
 10
510.7580065499
 20
1809.8268727545
 10
511.2008541594
 20
1776.1617968564
 10
512.1368258963
 20
1742.4962292199
  0
LWPOLYLINE
  5
B4
330
1F
100
AcDbEntity
  8
0
  6
Continuous
 62
     7
370
    15
100
AcDbPolyline
 90
        6
 70
   128
 43
0.0
 10
515.9655451546
 20
1983.3164508228
 10
515.645170189
 20
1977.2450472002
 10
515.3142303
 20
1970.9737519507
 10
514.9742156039
 20
1964.5301769261
 10
514.4494861136
 20
1954.586497951
 10
513.914459921
 20
1944.4475839619
  0
LWPOLYLINE
  5
B5
330
1F
100
AcDbEntity
  8
0
  6
Continuous
 62
     7
370
    15
100
AcDbPolyline
 90
       20
 70
   128
 43
0.0
 10
515.9655451546
 20
1983.3164508228
 10
516.359382845
 20
1989.7717679624
 10
516.8311983119
 20
1995.5415758078
 10
517.3807084332
 20
2000.5062105839
 10
517.9879903565
 20
2004.4766957645
 10
518.6461448441
 20
2007.4931415503
 10
519.3291097651
 20
2009.5801646594
 10
520.0263648997
 20
2010.930491123
 10
520.7345723878
 20
2011.709687743
 10
521.8710094462
 20
2012.0577509288
 10
523.0043172608
 20
2011.6184125428
 10
524.1357475291
 20
2010.7116768841
 10
525.2665221463
 20
2009.6323857789
 10
526.3971030484
 20
2008.633765835
 10
528.2773762713
 20
2007.6461690251
 10
530.1506459485
 20
2007.7845318948
 10
532.0155262719
 20
2009.2682013993
 10
533.8739245902
 20
2011.7934620712
 10
535.7292234669
 20
2014.8154399131
 10
537.5832408438
 20
2018.0432642583
  0
LWPOLYLINE
  5
B6
330
1F
100
AcDbEntity
  8
0
  6
Continuous
 62
     7
370
    15
100
AcDbPolyline
 90
        7
 70
   128
 43
0.0
 10
635.976599134
 20
2061.6715694551
 10
662.6541070412
 20
2064.3096244667
 10
689.3130257498
 20
2065.8660619293
 10
715.9671360525
 20
2066.3789300953
 10
742.619257025
 20
2065.8593228791
 10
769.2744262288
 20
2064.3055769388
 10
795.95429597
 20
2061.6718730663
  0
LWPOLYLINE
  5
B7
330
1F
100
AcDbEntity
  8
0
  6
Continuous
 62
     7
370
    15
100
AcDbPolyline
 90
       17
 70
   128
 43
0.0
 10
534.6602588664
 20
2027.5199846138
 10
535.9729617606
 20
2029.1865272221
 10
538.1320506106
 20
2031.080648746
 10
541.1137729655
 20
2033.1766137161
 10
544.9143439303
 20
2035.4556697849
 10
549.445936061
 20
2037.8556775168
 10
554.6698510419
 20
2040.3470857774
 10
560.5872809659
 20
2042.914792407
 10
567.1774387131
 20
2045.5180681084
 10
574.3089109431
 20
2048.0687296723
 10
581.9658726226
 20
2050.5332997773
 10
590.1541203032
 20
2052.8879309778
 10
598.782451428
 20
2055.0839113776
 10
607.6902836333
 20
2057.0691912208
 10
616.8768122564
 20
2058.8367818628
 10
626.3445779453
 20
2060.378366593
 10
635.976599134
 20
2061.6715694551
  0
LWPOLYLINE
  5
B8
330
1F
100
AcDbEntity
  8
0
  6
Continuous
 62
     7
370
    15
100
AcDbPolyline
 90
       17
 70
   128
 43
0.0
 10
795.95429597
 20
2061.6718730663
 10
805.5261984239
 20
2060.3889389668
 10
814.91641847
 20
2058.8625217561
 10
824.1286068927
 20
2057.0934260969
 10
833.1335425149
 20
2055.0865637843
 10
841.7228698502
 20
2052.8994495754
 10
849.8655199776
 20
2050.5605037097
 10
857.5711786519
 20
2048.0852923129
 10
864.7568911086
 20
2045.5185393576
 10
871.2951034079
 20
2042.9388917756
 10
877.1978109847
 20
2040.3797621612
 10
882.4683815013
 20
2037.8674170707
 10
887.0075136195
 20
2035.4640625365
 10
890.7741248379
 20
2033.2072789088
 10
893.7636554013
 20
2031.1101325561
 10
895.9491044055
 20
2029.1957026121
 10
897.2739964495
 20
2027.5183855329
  0
LWPOLYLINE
  5
B9
330
1F
100
AcDbEntity
  8
0
  6
Continuous
 62
     7
370
    15
100
AcDbPolyline
 90
        6
 70
   128
 43
0.0
 10
515.9625202189
 20
1988.2679912035
 10
515.5758797894
 20
1981.2601613585
 10
515.1555627356
 20
1974.1376968805
 10
514.7117614518
 20
1966.9275651459
 10
514.0210926305
 20
1956.0177991871
 10
513.3167743455
 20
1945.1856906299
  0
LWPOLYLINE
  5
BA
330
1F
100
AcDbEntity
  8
0
  6
Continuous
 62
     7
370
    15
100
AcDbPolyline
 90
       11
 70
   128
 43
0.0
 10
513.3167743455
 20
1945.1856906299
 10
512.3687624703
 20
1930.1922614459
 10
511.5428805123
 20
1915.5046413426
 10
510.8561604987
 20
1901.0058264021
 10
510.298573948
 20
1886.5291843895
 10
509.8677664767
 20
1872.0662961487
 10
509.5481663714
 20
1857.6143155579
 10
509.3312948714
 20
1843.1889335398
 10
509.2404871951
 20
1809.6580425982
 10
509.7239404689
 20
1776.1348257546
 10
510.7767075072
 20
1742.5754735951
  0
LINE
  5
BB
330
1F
100
AcDbEntity
  8
0
  6
Continuous
 62
     7
370
    15
100
AcDbLine
 10
510.7767075072
 20
1742.5754735951
 30
0.0
 11
512.1152937184
 21
1711.0723922734
 31
0.0
  0
ARC
  5
BC
330
1F
100
AcDbEntity
  8
0
  6
Continuous
 62
     7
370
    15
100
AcDbCircle
 10
581.9386644279
 20
1713.2101924707
 30
0.0
 40
69.85608983420542
100
AcDbArc
 50
181.753691855
 51
210.5907440291
  0
ARC
  5
BD
330
1F
100
AcDbEntity
  8
0
  6
Continuous
 62
     7
370
    15
100
AcDbCircle
 10
849.4955492389
 20
1713.3499607696
 30
0.0
 40
70.3558007009383
100
AcDbArc
 50
329.5077494973
 51
358.1449126358
  0
LINE
  5
BE
330
1F
100
AcDbEntity
  8
0
  6
Continuous
 62
     7
370
    15
100
AcDbLine
 10
919.814476348
 20
1711.0724220757
 30
0.0
 11
921.1526453267
 21
1742.5755033974
 31
0.0
  0
LWPOLYLINE
  5
BF
330
1F
100
AcDbEntity
  8
0
  6
Continuous
 62
     7
370
    15
100
AcDbPolyline
 90
       11
 70
   128
 43
0.0
 10
921.1526453267
 20
1742.5755033974
 10
922.2049355279
 20
1776.1313686852
 10
922.6882248889
 20
1809.6543173079
 10
922.5973427068
 20
1843.1887100224
 10
922.3804712067
 20
1857.6142559533
 10
922.0609307061
 20
1872.064567614
 10
921.6302275429
 20
1886.526084948
 10
921.0728198062
 20
1901.0018626933
 10
920.3863084088
 20
1915.5004541163
 10
919.5605754624
 20
1930.1889682893
 10
918.6125188838
 20
1945.1858992462
  0
LWPOLYLINE
  5
C0
330
1F
100
AcDbEntity
  8
0
  6
Continuous
 62
     7
370
    15
100
AcDbPolyline
 90
        6
 70
   128
 43
0.0
 10
918.6125188838
 20
1945.1858992462
 10
917.9135501157
 20
1955.9362004284
 10
917.2263085614
 20
1966.7909214978
 10
916.7801975976
 20
1974.0362013463
 10
916.3549780617
 20
1981.2405700569
 10
915.9678458939
 20
1988.2579254691
  0
LWPOLYLINE
  5
C1
330
1F
100
AcDbEntity
  8
0
  6
Continuous
 62
     7
370
    15
100
AcDbPolyline
 90
       23
 70
   128
 43
0.0
 10
897.2739964495
 20
2027.5183855329
 10
898.8710582028
 20
2024.7445939813
 10
900.4379898082
 20
2022.1214047406
 10
901.9504427682
 20
2019.7976636474
 10
903.3814906846
 20
2018.0864049826
 10
904.7489702473
 20
2017.3113210831
 10
906.0920715104
 20
2017.4786201451
 10
907.4171572695
 20
2018.43208212
 10
908.5002332698
 20
2019.6451018338
 10
909.5985233556
 20
2020.9227767546
 10
910.7054412137
 20
2021.8407544081
 10
911.3491117726
 20
2022.0019346808
 10
911.9775235425
 20
2021.7338124995
 10
912.5854313145
 20
2020.8949078579
 10
913.1660848628
 20
2019.2819325958
 10
913.6771946917
 20
2016.880245391
 10
914.1705423365
 20
2013.3265475516
 10
914.4867896806
 20
2010.2965715115
 10
914.7970914613
 20
2006.7182867561
 10
915.1011198531
 20
2002.638134617
 10
915.3983533154
 20
1998.1628129963
 10
915.6872421275
 20
1993.3591852669
 10
915.9673541556
 20
1988.2579068427
  0
LWPOLYLINE
  5
C2
330
1F
100
AcDbEntity
  8
0
  6
Continuous
 62
     7
370
    15
100
AcDbPolyline
 90
       22
 70
   128
 43
0.0
 10
515.9625202189
 20
1988.2679912035
 10
516.2439286481
 20
1993.3898518567
 10
516.5344565879
 20
1998.2153731172
 10
516.833701707
 20
2002.7125286643
 10
517.13941393
 20
2006.8035456125
 10
517.4504309664
 20
2010.3740854893
 10
517.7680790196
 20
2013.4011893306
 10
518.2642429839
 20
2016.9465536956
 10
518.7775134812
 20
2019.3321178441
 10
519.3075924884
 20
2020.8211536293
 10
519.8615878592
 20
2021.6527697404
 10
520.778784133
 20
2021.9963467453
 10
521.7213123809
 20
2021.5109451447
 10
522.6684301863
 20
2020.5558272783
 10
523.6064731847
 20
2019.4410807226
 10
524.532505847
 20
2018.4194589738
 10
526.0756104956
 20
2017.3914260004
 10
527.6446878682
 20
2017.4643522833
 10
529.2618065844
 20
2018.8523656462
 10
530.987390853
 20
2021.307147551
 10
532.8008770715
 20
2024.299425516
 10
534.6602588664
 20
2027.5199846138
  0
LWPOLYLINE
  5
C3
330
1F
100
AcDbEntity
  8
0
  6
Continuous
 62
   144
370
     0
100
AcDbPolyline
 90
       16
 70
   128
 43
0.0
 10
547.6806849013
 20
2020.4431074445
 10
548.845151044
 20
2021.9176732708
 10
550.7561802636
 20
2023.5792123486
 10
553.3983945618
 20
2025.411202084
 10
556.7697822819
 20
2027.3997592513
 10
562.2710078727
 20
2030.2042886388
 10
568.8613295327
 20
2033.1310853135
 10
576.5061020623
 20
2036.1145413836
 10
582.80380962
 20
2038.3035153855
 10
589.5581632624
 20
2040.4178593081
 10
596.7797577153
 20
2042.4399715622
 10
604.3902799259
 20
2044.3302481209
 10
612.2486531506
 20
2046.0446025018
 10
620.3544229041
 20
2047.5775594596
 10
628.713206924
 20
2048.9234677289
 10
637.2191771637
 20
2050.0608174835
  0
LWPOLYLINE
  5
C4
330
1F
100
AcDbEntity
  8
0
  6
Continuous
 62
   144
370
     0
100
AcDbPolyline
 90
       16
 70
   128
 43
0.0
 10
794.7119265567
 20
2050.0610922237
 10
803.166845418
 20
2048.9316400845
 10
811.4559367071
 20
2047.5998702232
 10
819.5818677316
 20
2046.0662678589
 10
827.5228678952
 20
2044.3344427977
 10
835.1000711094
 20
2042.4509928335
 10
842.2849863539
 20
2040.4401821789
 10
849.0820765267
 20
2038.3157622774
 10
855.427914835
 20
2036.1131920136
 10
863.0207717191
 20
2033.1538014353
 10
869.6314632664
 20
2030.2213821333
 10
875.1506745587
 20
2027.4094096158
 10
878.4911572705
 20
2025.4411403794
 10
881.1409860621
 20
2023.6083627452
 10
883.0782562266
 20
2021.9281972159
 10
884.2503070603
 20
2020.4456061829
  0
LWPOLYLINE
  5
C5
330
1F
100
AcDbEntity
  8
0
  6
Continuous
 62
   144
370
     0
100
AcDbPolyline
 90
        7
 70
   128
 43
0.0
 10
637.2191771637
 20
2050.0608174835
 10
663.4637616347
 20
2052.6583748643
 10
689.7197194169
 20
2054.1936955188
 10
715.965461069
 20
2054.6986772452
 10
742.2002121578
 20
2054.1871688102
 10
768.4929571818
 20
2052.6529359405
 10
794.7119265567
 20
2050.0610922237
  0
LINE
  5
C6
330
1F
100
AcDbEntity
  8
0
  6
Continuous
 62
   144
370
     0
100
AcDbLine
 10
906.0085356007
 20
1981.4008432214
 30
0.0
 11
906.0141682397
 21
1979.3764161651
 31
0.0
  0
LWPOLYLINE
  5
C7
330
1F
100
AcDbEntity
  8
0
  6
Continuous
 62
   144
370
     0
100
AcDbPolyline
 90
       12
 70
   128
 43
0.0
 10
884.2503070603
 20
2020.4456061829
 10
885.429659463
 20
2018.3870787506
 10
886.5290224324
 20
2016.5134626214
 10
887.5485151778
 20
2014.8368640576
 10
888.4882867108
 20
2013.3736221824
 10
889.3485456477
 20
2012.1480482404
 10
890.1378303538
 20
2011.1688556854
 10
890.9565001498
 20
2010.3567479883
 10
891.8576180707
 20
2009.7540705238
 10
892.8191751014
 20
2009.4468421076
 10
893.8057660828
 20
2009.452063102
 10
894.3708032141
 20
2009.5924115513
  0
LWPOLYLINE
  5
C8
330
1F
100
AcDbEntity
  8
0
  6
Continuous
 62
   144
370
     0
100
AcDbPolyline
 90
        9
 70
   128
 43
0.0
 10
903.1488388549
 20
2007.6693366055
 10
903.2670348655
 20
2007.2386539314
 10
903.5685300599
 20
2005.9251836274
 10
903.8457661639
 20
2004.5109051053
 10
904.336550809
 20
2001.4386023168
 10
904.7628283273
 20
1998.0335267965
 10
905.1357000838
 20
1994.3287702982
 10
905.6144445906
 20
1988.1957280223
 10
906.0085356007
 20
1981.4008432214
  0
LINE
  5
C9
330
1F
100
AcDbEntity
  8
0
  6
Continuous
 62
   144
370
     0
100
AcDbLine
 10
525.9224265586
 20
1981.4084577147
 30
0.0
 11
525.9157061349
 21
1979.3842877035
 31
0.0
  0
LWPOLYLINE
  5
CA
330
1F
100
AcDbEntity
  8
0
  6
Continuous
 62
   144
370
     0
100
AcDbPolyline
 90
        9
 70
   128
 43
0.0
 10
525.9224265586
 20
1981.4084577147
 10
526.2995004426
 20
1987.9474709515
 10
526.7547011147
 20
1993.8821117167
 10
527.1002888451
 20
1997.4195356254
 10
527.4760067235
 20
2000.574353594
 10
527.885758854
 20
2003.3615561907
 10
528.306284524
 20
2005.6591662352
 10
528.7501305114
 20
2007.5785382424
 10
528.781527258
 20
2007.683407027
  0
LWPOLYLINE
  5
CB
330
1F
100
AcDbEntity
  8
0
  6
Continuous
 62
   144
370
     0
100
AcDbPolyline
 90
       14
 70
   128
 43
0.0
 10
537.5634073983
 20
2009.5920576487
 10
538.3972912799
 20
2009.4207762514
 10
538.7910395633
 20
2009.4149685238
 10
539.1846686373
 20
2009.45887107
 10
539.6259665261
 20
2009.5703075413
 10
540.0590836774
 20
2009.7469794337
 10
540.7866030703
 20
2010.2032865171
 10
541.4551287661
 20
2010.8036822413
 10
542.0646160613
 20
2011.4858648513
 10
542.618596531
 20
2012.1956853901
 10
543.7007784615
 20
2013.7634179328
 10
544.9049860011
 20
2015.6862656359
 10
546.231532074
 20
2017.9209573899
 10
547.6806849013
 20
2020.4431074445
  0
ARC
  5
CC
330
1F
100
AcDbEntity
  8
0
  6
Continuous
 62
   144
370
     0
100
AcDbCircle
 10
903.9040764653
 20
1979.5129295185
 30
0.0
 40
2.141773561117285
100
AcDbArc
 50
331.8019929127
 51
359.6881682899
  0
ARC
  5
CD
330
1F
100
AcDbEntity
  8
0
  6
Continuous
 62
   144
370
     0
100
AcDbCircle
 10
528.0762503365
 20
1979.5318157488
 30
0.0
 40
2.191857775552959
100
AcDbArc
 50
180.6129961059
 51
207.662782454
  0
LWPOLYLINE
  5
CE
330
1F
100
AcDbEntity
  8
0
  6
Continuous
 62
   144
370
     0
100
AcDbPolyline
 90
        3
 70
   128
 43
0.0
 10
906.0141682397
 20
1979.3764161651
 10
905.966037489
 20
1978.9731795673
 10
905.7916641007
 20
1978.5008984391
  0
LWPOLYLINE
  5
CF
330
1F
100
AcDbEntity
  8
0
  6
Continuous
 62
   144
370
     0
100
AcDbPolyline
 90
        3
 70
   128
 43
0.0
 10
526.1349320184
 20
1978.5142089014
 10
525.9779631863
 20
1978.9243112092
 10
525.9157061349
 20
1979.3842877035
  0
ARC
  5
D0
330
1F
100
AcDbEntity
  8
0
  6
Continuous
 62
     7
370
    15
100
AcDbCircle
 10
589.5219393469
 20
1709.393991953
 30
0.0
 40
64.727543459105
100
AcDbArc
 50
202.9232986027
 51
219.7753011469
  0
ARC
  5
D1
330
1F
100
AcDbEntity
  8
0
  6
Continuous
 62
     7
370
    15
100
AcDbCircle
 10
843.3687361554
 20
1708.8827744208
 30
0.0
 40
63.64454634369751
100
AcDbArc
 50
320.0630726887
 51
337.1994427411
  0
LINE
  5
D2
330
1F
100
AcDbEntity
  8
0
  6
Continuous
 62
   144
370
     0
100
AcDbLine
 10
525.8908211957
 20
1981.4139338915
 30
0.0
 11
525.8845180045
 21
1979.5083659474
 31
0.0
  0
LWPOLYLINE
  5
D3
330
1F
100
AcDbEntity
  8
0
  6
Continuous
 62
   144
370
     0
100
AcDbPolyline
 90
       11
 70
   128
 43
0.0
 10
525.8908211957
 20
1981.4139338915
 10
525.7598250876
 20
1978.928826261
 10
525.617682911
 20
1976.2278864865
 10
525.4644542704
 20
1973.3094679896
 10
525.3001391659
 20
1970.1731200103
 10
525.1247226964
 20
1966.8195019249
 10
524.9382048617
 20
1963.2493923192
 10
524.7035711776
 20
1958.7547327165
 10
524.4383156071
 20
1953.6682958488
 10
524.2059319983
 20
1949.208795536
 10
523.9283084641
 20
1943.8769216423
  0
LINE
  5
D4
330
1F
100
AcDbEntity
  8
0
  6
Continuous
 62
   144
370
     0
100
AcDbLine
 10
906.040543295
 20
1981.4063715522
 30
0.0
 11
906.045818306
 21
1979.5012729947
 31
0.0
  0
LWPOLYLINE
  5
D5
330
1F
100
AcDbEntity
  8
0
  6
Continuous
 62
   144
370
     0
100
AcDbPolyline
 90
       10
 70
   128
 43
0.0
 10
908.0027132998
 20
1943.8769141917
 10
907.8141540061
 20
1947.4984700565
 10
907.6454132567
 20
1950.7379601483
 10
907.4964910517
 20
1953.5953844671
 10
907.3170512686
 20
1957.0369939093
 10
907.1511119376
 20
1960.2173859958
 10
906.9986581574
 20
1963.1372312788
 10
906.6343396674
 20
1970.1035315875
 10
906.3149332772
 20
1976.1934350018
 10
906.040543295
 20
1981.4063715522
  0
LWPOLYLINE
  5
D6
330
1F
100
AcDbEntity
  8
0
  6
Continuous
 62
   144
370
     0
100
AcDbPolyline
 90
       10
 70
   128
 43
0.0
 10
909.7328275214
 20
1742.8458998684
 10
910.6594115268
 20
1776.3631115441
 10
911.098816968
 20
1809.8934064393
 10
911.051297165
 20
1843.4195588116
 10
910.8448415766
 20
1860.180250812
 10
910.5168670188
 20
1876.9352803711
 10
910.0682079564
 20
1893.6807582859
 10
909.4994455348
 20
1910.4231367592
 10
908.8129937421
 20
1927.1203721647
 10
908.0027132998
 20
1943.8769141917
  0
LWPOLYLINE
  5
D7
330
1F
100
AcDbEntity
  8
0
  6
Continuous
 62
   144
370
     0
100
AcDbPolyline
 90
        6
 70
   128
 43
0.0
 10
523.3046352635
 20
1711.0394607071
 10
524.1957098017
 20
1702.0657430176
 10
526.2145489226
 20
1693.3320830349
 10
529.3510049353
 20
1684.8800251965
 10
533.4957927237
 20
1676.978922892
 10
533.9371949206
 20
1676.3480375294
  0
LWPOLYLINE
  5
D8
330
1F
100
AcDbEntity
  8
0
  6
Continuous
 62
   144
370
     0
100
AcDbPolyline
 90
        6
 70
   128
 43
0.0
 10
897.835904337
 20
1676.1171589379
 10
898.4010159741
 20
1676.9232223515
 10
902.558514453
 20
1684.8318348412
 10
905.6816488276
 20
1693.2161221985
 10
907.7279209862
 20
1702.0208011155
 10
908.6264163028
 20
1711.0394607071
  0
LWPOLYLINE
  5
D9
330
1F
100
AcDbEntity
  8
0
  6
Continuous
 62
   144
370
     0
100
AcDbPolyline
 90
       10
 70
   128
 43
0.0
 10
523.9283084641
 20
1943.8769216423
 10
523.1181919347
 20
1927.1237919812
 10
522.4317848454
 20
1910.4282478575
 10
521.8629926215
 20
1893.6857799773
 10
521.4141845475
 20
1876.9348929409
 10
521.0861950885
 20
1860.1791779284
 10
520.8797693024
 20
1843.4204826836
 10
520.8322494994
 20
1809.8940620903
 10
521.2716400395
 20
1776.3634691719
 10
522.1982240449
 20
1742.8458998684
  0
LINE
  5
DA
330
1F
100
AcDbEntity
  8
0
  6
Continuous
 62
   144
370
     0
100
AcDbLine
 10
908.6264163028
 20
1711.0394607071
 30
0.0
 11
909.7328275214
 21
1742.8458998684
 31
0.0
  0
LINE
  5
DB
330
1F
100
AcDbEntity
  8
0
  6
Continuous
 62
   144
370
     0
100
AcDbLine
 10
522.1982240449
 20
1742.8458998684
 30
0.0
 11
523.3046352635
 21
1711.0394607071
 31
0.0
  0
LINE
  5
DC
330
1F
100
AcDbEntity
  8
0
  6
Continuous
 62
     7
370
    15
100
AcDbLine
 10
501.6268282901
 20
1681.2905440812
 30
0.0
 11
501.5857159863
 21
1681.1651955132
 31
0.0
  0
LINE
  5
DD
330
1F
100
AcDbEntity
  8
0
  6
Continuous
 62
     7
370
    15
100
AcDbLine
 10
930.3040593634
 20
1681.2911699299
 30
0.0
 11
930.3453802834
 21
1681.1651955132
 31
0.0
  0
ELLIPSE
  5
DE
330
1F
100
AcDbEntity
  8
0
  6
Continuous
 62
     7
370
    15
100
AcDbEllipse
 10
493.3179227177
 20
1635.0384698035
 30
0.0
 11
5.194751419246529
 21
3.807698098975379
 31
0.0
210
0.0
220
0.0
230
1.0
 40
0.8926248113
 41
4.133007640943077
 42
5.399900975005187
  0
ELLIPSE
  5
DF
330
1F
100
AcDbEntity
  8
0
  6
Continuous
 62
     7
370
    15
100
AcDbEllipse
 10
493.3179227177
 20
1635.0384698035
 30
0.0
 11
-3.680200271605258
 21
5.020809183684605
 31
0.0
210
0.0
220
0.0
230
1.0
 40
0.8926248113
 41
2.454080658972263
 42
2.56221131414886
  0
LWPOLYLINE
  5
E0
330
1F
100
AcDbEntity
  8
0
  6
Continuous
 62
     7
370
    15
100
AcDbPolyline
 90
        3
 70
   128
 43
0.0
 10
490.3802215825
 20
1605.807162333
 10
490.3845429192
 20
1605.8195600991
 10
490.4366075764
 20
1605.9768269543
  0
ELLIPSE
  5
E1
330
1F
100
AcDbEntity
  8
0
  6
Continuous
 62
     7
370
    15
100
AcDbEllipse
 10
938.613173552
 20
1635.0384698035
 30
0.0
 11
5.194751419246585
 21
-3.807698098975151
 31
0.0
210
0.0
220
0.0
230
1.0
 40
0.8926248113
 41
4.024876985764194
 42
5.29177031982629
  0
ELLIPSE
  5
E2
330
1F
100
AcDbEntity
  8
0
  6
Continuous
 62
     7
370
    15
100
AcDbEllipse
 10
938.613173552
 20
1635.0384698035
 30
0.0
 11
3.680200271605258
 21
5.020809183684605
 31
0.0
210
0.0
220
0.0
230
1.0
 40
0.8926248113
 41
3.720973993020878
 42
3.829104648207334
  0
LWPOLYLINE
  5
E3
330
1F
100
AcDbEntity
  8
0
  6
Continuous
 62
     7
370
    15
100
AcDbPolyline
 90
        3
 70
   128
 43
0.0
 10
941.5557771693
 20
1605.7931850438
 10
941.5465533505
 20
1605.8195600991
 10
941.4944886933
 20
1605.9768269543
  0
LINE
  5
E4
330
1F
100
AcDbEntity
  8
0
  6
Continuous
 62
     7
370
    15
100
AcDbLine
 10
959.341967083
 20
1672.7583477978
 30
0.0
 11
958.692276455
 21
1672.93123107
 31
0.0
  0
LINE
  5
E5
330
1F
100
AcDbEntity
  8
0
  6
Continuous
 62
     7
370
    15
100
AcDbLine
 10
972.2154229651
 20
1669.3328390603
 30
0.0
 11
971.5657323371
 21
1669.5057223324
 31
0.0
  0
LINE
  5
E6
330
1F
100
AcDbEntity
  8
0
  6
Continuous
 62
   144
370
     0
100
AcDbLine
 10
971.5657323371
 20
1669.5057223324
 30
0.0
 11
971.2417810927
 21
1669.5919106488
 31
0.0
  0
LINE
  5
E7
330
1F
100
AcDbEntity
  8
0
  6
Continuous
 62
   144
370
     0
100
AcDbLine
 10
959.6364438306
 20
1672.6799974923
 30
0.0
 11
959.341967083
 21
1672.7583477978
 31
0.0
  0
ARC
  5
E8
330
1F
100
AcDbEntity
  8
0
  6
Continuous
 62
   144
370
     0
100
AcDbCircle
 10
972.2487467103
 20
1669.4525845187
 30
0.0
 40
0.124295803660466
100
AcDbArc
 50
254.4487437601
 51
255.8982962992
  0
ARC
  5
E9
330
1F
100
AcDbEntity
  8
0
  6
Continuous
 62
   144
370
     0
100
AcDbCircle
 10
958.6885843578
 20
1672.9234273929
 30
0.0
 40
0.008633015577747
100
AcDbArc
 50
64.6801039437
 51
85.6669361164
  0
LINE
  5
EA
330
1F
100
AcDbEntity
  8
0
  6
Continuous
 62
     7
370
    15
100
AcDbLine
 10
961.9297176371
 20
1630.6779156212
 30
0.0
 11
961.2800270091
 21
1630.8507690911
 31
0.0
  0
LINE
  5
EB
330
1F
100
AcDbEntity
  8
0
  6
Continuous
 62
   144
370
     0
100
AcDbLine
 10
972.2154229651
 20
1669.3328390603
 30
0.0
 11
961.9297176371
 21
1630.6779156212
 31
0.0
  0
LINE
  5
EC
330
1F
100
AcDbEntity
  8
0
  6
Continuous
 62
   144
370
     0
100
AcDbLine
 10
971.5657323371
 20
1669.5057223324
 30
0.0
 11
961.2800270091
 21
1630.8507690911
 31
0.0
  0
LINE
  5
ED
330
1F
100
AcDbEntity
  8
0
  6
Continuous
 62
     7
370
    15
100
AcDbLine
 10
949.0562617551
 20
1634.1033945565
 30
0.0
 11
948.4065562258
 21
1634.2762778286
 31
0.0
  0
LINE
  5
EE
330
1F
100
AcDbEntity
  8
0
  6
Continuous
 62
   144
370
     0
100
AcDbLine
 10
961.2800270091
 20
1630.8507690911
 30
0.0
 11
960.9663724671
 21
1630.9342453961
 31
0.0
  0
LINE
  5
EF
330
1F
100
AcDbEntity
  8
0
  6
Continuous
 62
   144
370
     0
100
AcDbLine
 10
949.3699013959
 20
1634.0199480538
 30
0.0
 11
949.0562617551
 21
1634.1033945565
 31
0.0
  0
ARC
  5
F0
330
1F
100
AcDbEntity
  8
0
  6
Continuous
 62
   144
370
     0
100
AcDbCircle
 10
948.3781546858
 20
1634.1755971664
 30
0.0
 40
0.1046099575638478
100
AcDbArc
 50
74.2464909993
 51
75.9609546473
  0
LWPOLYLINE
  5
F1
330
1F
100
AcDbEntity
  8
0
  6
Continuous
 62
   144
370
     0
100
AcDbPolyline
 90
        9
 70
   128
 43
0.0
 10
961.932757474
 20
1630.6770811562
 10
961.9326978694
 20
1630.6771109585
 10
961.9325637589
 20
1630.6771407608
 10
961.9323253403
 20
1630.6772003655
 10
961.9319975148
 20
1630.6772897725
 10
961.9315653811
 20
1630.6774089817
 10
961.9310438405
 20
1630.6775579934
 10
961.9304328929
 20
1630.677707005
 10
961.9297176371
 20
1630.6779156212
  0
LINE
  5
F2
330
1F
100
AcDbEntity
  8
0
  6
Continuous
 62
   144
370
     0
100
AcDbLine
 10
959.341967083
 20
1672.7583477978
 30
0.0
 11
949.0562617551
 21
1634.1033945565
 31
0.0
  0
LINE
  5
F3
330
1F
100
AcDbEntity
  8
0
  6
Continuous
 62
   144
370
     0
100
AcDbLine
 10
958.692276455
 20
1672.93123107
 30
0.0
 11
948.4065562258
 21
1634.2762778286
 31
0.0
  0
LINE
  5
F4
330
1F
100
AcDbEntity
  8
0
  6
Continuous
 62
   144
370
     0
100
AcDbLine
 10
972.218462802
 20
1669.3320343976
 30
0.0
 11
961.932757474
 21
1630.6770811562
 31
0.0
  0
LINE
  5
F5
330
1F
100
AcDbEntity
  8
0
  6
Continuous
 62
   144
370
     0
100
AcDbLine
 10
958.6892366181
 20
1672.9320357327
 30
0.0
 11
948.4035312901
 21
1634.2770824913
 31
0.0
  0
LINE
  5
F6
330
1F
100
AcDbEntity
  8
0
  6
Continuous
 62
   144
370
     0
100
AcDbLine
 10
968.7710195552
 20
2029.8190796521
 30
0.0
 11
968.3011561404
 21
2069.8163206462
 31
0.0
  0
LINE
  5
F7
330
1F
100
AcDbEntity
  8
0
  6
Continuous
 62
     7
370
    15
100
AcDbLine
 10
968.0996924411
 20
2029.8111932125
 30
0.0
 11
968.7710195552
 21
2029.8190796521
 31
0.0
  0
LINE
  5
F8
330
1F
100
AcDbEntity
  8
0
  6
Continuous
 62
   144
370
     0
100
AcDbLine
 10
968.0996924411
 20
2029.8111932125
 30
0.0
 11
967.6298290263
 21
2069.8084342067
 31
0.0
  0
LINE
  5
F9
330
1F
100
AcDbEntity
  8
0
  6
Continuous
 62
     7
370
    15
100
AcDbLine
 10
967.6298290263
 20
2069.8084342067
 30
0.0
 11
968.3011561404
 21
2069.8163206462
 31
0.0
  0
LINE
  5
FA
330
1F
100
AcDbEntity
  8
0
  6
Continuous
 62
     7
370
    15
100
AcDbLine
 10
954.7801255952
 20
2029.6547272947
 30
0.0
 11
955.4514527093
 21
2029.6626132686
 31
0.0
  0
LINE
  5
FB
330
1F
100
AcDbEntity
  8
0
  6
Continuous
 62
   144
370
     0
100
AcDbLine
 10
955.4514527093
 20
2029.6626132686
 30
0.0
 11
955.7759850989
 21
2029.6664256376
 31
0.0
  0
LINE
  5
FC
330
1F
100
AcDbEntity
  8
0
  6
Continuous
 62
   144
370
     0
100
AcDbLine
 10
967.7751451503
 20
2029.8073813092
 30
0.0
 11
968.0996924411
 21
2029.8111932125
 31
0.0
  0
LINE
  5
FD
330
1F
100
AcDbEntity
  8
0
  6
Continuous
 62
   144
370
     0
100
AcDbLine
 10
954.7760575782
 20
2029.6546793316
 30
0.0
 11
954.7801255952
 21
2029.6547272947
 31
0.0
  0
LWPOLYLINE
  5
FE
330
1F
100
AcDbEntity
  8
0
  6
Continuous
 62
   144
370
     0
100
AcDbPolyline
 90
        9
 70
   128
 43
0.0
 10
968.7710195552
 20
2029.8190796521
 10
968.7719732295
 20
2029.819090828
 10
968.7727778922
 20
2029.8191006069
 10
968.7734931479
 20
2029.8191085231
 10
968.774059392
 20
2029.819115508
 10
968.7745064269
 20
2029.8191206303
 10
968.7748342524
 20
2029.8191243556
 10
968.7750130664
 20
2029.8191266839
 10
968.7751024733
 20
2029.8191276152
  0
LINE
  5
FF
330
1F
100
AcDbEntity
  8
0
  6
Continuous
 62
   144
370
     0
100
AcDbLine
 10
954.7801255952
 20
2029.6547272947
 30
0.0
 11
954.5128285657
 21
2052.4100190733
 31
0.0
  0
LINE
  5
100
330
1F
100
AcDbEntity
  8
0
  6
Continuous
 62
   144
370
     0
100
AcDbLine
 10
955.4514527093
 20
2029.6626132686
 30
0.0
 11
955.1566183339
 21
2054.7610497807
 31
0.0
  0
LINE
  5
101
330
1F
100
AcDbEntity
  8
0
  6
Continuous
 62
   144
370
     0
100
AcDbLine
 10
967.3053115378
 20
2069.8046232347
 30
0.0
 11
967.6298290263
 21
2069.8084342067
 31
0.0
  0
ARC
  5
102
330
1F
100
AcDbEntity
  8
0
  6
Continuous
 62
   144
370
     0
100
AcDbCircle
 10
968.2942033704
 20
2070.5746275547
 30
0.0
 40
0.7583387821473159
100
AcDbArc
 50
270.5253192437
 51
270.8338234674
  0
LINE
  5
103
330
1F
100
AcDbEntity
  8
0
  6
Continuous
 62
   144
370
     0
100
AcDbLine
 10
968.7751024733
 20
2029.8191276152
 30
0.0
 11
968.3052390586
 21
2069.816369075
 31
0.0
  0
LINE
  5
104
330
1F
100
AcDbEntity
  8
0
  6
Continuous
 62
   144
370
     0
100
AcDbLine
 10
954.7760575782
 20
2029.6546793316
 30
0.0
 11
954.5089095603
 21
2052.395732585
 31
0.0
  0
LINE
  5
105
330
1F
100
AcDbEntity
  8
0
  6
Continuous
 62
     7
370
    15
100
AcDbLine
 10
459.7156733046
 20
1669.3328390603
 30
0.0
 11
460.3653639327
 21
1669.5057223324
 31
0.0
  0
ARC
  5
106
330
1F
100
AcDbEntity
  8
0
  6
Continuous
 62
     7
370
    15
100
AcDbCircle
 10
473.2425119119
 20
1672.9234273929
 30
0.0
 40
0.008633015577772
100
AcDbArc
 50
94.3330638844
 51
115.3198960569
  0
LINE
  5
107
330
1F
100
AcDbEntity
  8
0
  6
Continuous
 62
     7
370
    15
100
AcDbLine
 10
472.5891291867
 20
1672.7583477978
 30
0.0
 11
473.2388198148
 21
1672.93123107
 31
0.0
  0
LINE
  5
108
330
1F
100
AcDbEntity
  8
0
  6
Continuous
 62
   144
370
     0
100
AcDbLine
 10
460.3653639327
 20
1669.5057223324
 30
0.0
 11
460.689315177
 21
1669.5919106488
 31
0.0
  0
LINE
  5
109
330
1F
100
AcDbEntity
  8
0
  6
Continuous
 62
   144
370
     0
100
AcDbLine
 10
472.2946524392
 20
1672.6799974923
 30
0.0
 11
472.5891291867
 21
1672.7583477978
 31
0.0
  0
ARC
  5
10A
330
1F
100
AcDbEntity
  8
0
  6
Continuous
 62
   144
370
     0
100
AcDbCircle
 10
459.6823495595
 20
1669.4525845187
 30
0.0
 40
0.1242958036604516
100
AcDbArc
 50
284.1017037008
 51
285.5512562399
  0
LINE
  5
10B
330
1F
100
AcDbEntity
  8
0
  6
Continuous
 62
     7
370
    15
100
AcDbLine
 10
470.0013786326
 20
1630.6779156212
 30
0.0
 11
470.6510692607
 21
1630.8507690911
 31
0.0
  0
LINE
  5
10C
330
1F
100
AcDbEntity
  8
0
  6
Continuous
 62
   144
370
     0
100
AcDbLine
 10
460.3653639327
 20
1669.5057223324
 30
0.0
 11
470.6510692607
 21
1630.8507690911
 31
0.0
  0
LINE
  5
10D
330
1F
100
AcDbEntity
  8
0
  6
Continuous
 62
   144
370
     0
100
AcDbLine
 10
459.7156733046
 20
1669.3328390603
 30
0.0
 11
470.0013786326
 21
1630.6779156212
 31
0.0
  0
LINE
  5
10E
330
1F
100
AcDbEntity
  8
0
  6
Continuous
 62
     7
370
    15
100
AcDbLine
 10
482.8748345147
 20
1634.1033945565
 30
0.0
 11
483.5245400439
 21
1634.2762778286
 31
0.0
  0
ARC
  5
10F
330
1F
100
AcDbEntity
  8
0
  6
Continuous
 62
     7
370
    15
100
AcDbCircle
 10
483.5529415839
 20
1634.1755971664
 30
0.0
 40
0.1046099575638336
100
AcDbArc
 50
104.0390453527
 51
105.7535090007
  0
LINE
  5
110
330
1F
100
AcDbEntity
  8
0
  6
Continuous
 62
   144
370
     0
100
AcDbLine
 10
470.6510692607
 20
1630.8507690911
 30
0.0
 11
470.9647238026
 21
1630.9342453961
 31
0.0
  0
LINE
  5
111
330
1F
100
AcDbEntity
  8
0
  6
Continuous
 62
   144
370
     0
100
AcDbLine
 10
482.5611948739
 20
1634.0199480538
 30
0.0
 11
482.8748345147
 21
1634.1033945565
 31
0.0
  0
LWPOLYLINE
  5
112
330
1F
100
AcDbEntity
  8
0
  6
Continuous
 62
   144
370
     0
100
AcDbPolyline
 90
        9
 70
   128
 43
0.0
 10
469.9983387957
 20
1630.6770811562
 10
469.9983984004
 20
1630.6771109585
 10
469.9985325108
 20
1630.6771407608
 10
469.9987709294
 20
1630.6772003655
 10
469.999098755
 20
1630.6772897725
 10
469.9995308886
 20
1630.6774089817
 10
470.0000524293
 20
1630.6775579934
 10
470.0006633769
 20
1630.677707005
 10
470.0013786326
 20
1630.6779156212
  0
LINE
  5
113
330
1F
100
AcDbEntity
  8
0
  6
Continuous
 62
   144
370
     0
100
AcDbLine
 10
472.5891291867
 20
1672.7583477978
 30
0.0
 11
482.8748345147
 21
1634.1033945565
 31
0.0
  0
LINE
  5
114
330
1F
100
AcDbEntity
  8
0
  6
Continuous
 62
     7
370
    15
100
AcDbLine
 10
473.2418596516
 20
1672.9320357327
 30
0.0
 11
483.5275649796
 21
1634.2770824913
 31
0.0
  0
LINE
  5
115
330
1F
100
AcDbEntity
  8
0
  6
Continuous
 62
   144
370
     0
100
AcDbLine
 10
459.7126334677
 20
1669.3320343976
 30
0.0
 11
469.9983387957
 21
1630.6770811562
 31
0.0
  0
LINE
  5
116
330
1F
100
AcDbEntity
  8
0
  6
Continuous
 62
     7
370
    15
100
AcDbLine
 10
477.1509706746
 20
2029.6547272947
 30
0.0
 11
476.4796435605
 21
2029.6626132686
 31
0.0
  0
LINE
  5
117
330
1F
100
AcDbEntity
  8
0
  6
Continuous
 62
     7
370
    15
100
AcDbLine
 10
476.4796435605
 20
2029.6626132686
 30
0.0
 11
476.7744779359
 21
2054.7610497807
 31
0.0
  0
LINE
  5
118
330
1F
100
AcDbEntity
  8
0
  6
Continuous
 62
   144
370
     0
100
AcDbLine
 10
477.1509706746
 20
2029.6547272947
 30
0.0
 11
477.4182677041
 21
2052.4100190733
 31
0.0
  0
LINE
  5
119
330
1F
100
AcDbEntity
  8
0
  6
Continuous
 62
     7
370
    15
100
AcDbLine
 10
476.4796435605
 20
2029.6626132686
 30
0.0
 11
476.1551111708
 21
2029.6664256376
 31
0.0
  0
LINE
  5
11A
330
1F
100
AcDbEntity
  8
0
  6
Continuous
 62
     7
370
    15
100
AcDbLine
 10
464.1559511195
 20
2029.8073813092
 30
0.0
 11
463.8314038287
 21
2029.8111932125
 31
0.0
  0
LINE
  5
11B
330
1F
100
AcDbEntity
  8
0
  6
Continuous
 62
     7
370
    15
100
AcDbLine
 10
463.8314038287
 20
2029.8111932125
 30
0.0
 11
464.3012672435
 21
2069.8084342067
 31
0.0
  0
LINE
  5
11C
330
1F
100
AcDbEntity
  8
0
  6
Continuous
 62
     7
370
    15
100
AcDbLine
 10
464.6257847319
 20
2069.8046232347
 30
0.0
 11
464.3012672435
 21
2069.8084342067
 31
0.0
  0
LINE
  5
11D
330
1F
100
AcDbEntity
  8
0
  6
Continuous
 62
     7
370
    15
100
AcDbLine
 10
463.8314038287
 20
2029.8111932125
 30
0.0
 11
463.1600767146
 21
2029.8190796521
 31
0.0
  0
LINE
  5
11E
330
1F
100
AcDbEntity
  8
0
  6
Continuous
 62
     7
370
    15
100
AcDbLine
 10
464.3012672435
 20
2069.8084342067
 30
0.0
 11
463.6299401294
 21
2069.8163206462
 31
0.0
  0
LINE
  5
11F
330
1F
100
AcDbEntity
  8
0
  6
Continuous
 62
   144
370
     0
100
AcDbLine
 10
463.1600767146
 20
2029.8190796521
 30
0.0
 11
463.6299401294
 21
2069.8163206462
 31
0.0
  0
LWPOLYLINE
  5
120
330
1F
100
AcDbEntity
  8
0
  6
Continuous
 62
   144
370
     0
100
AcDbPolyline
 90
        9
 70
   128
 43
0.0
 10
463.1600767146
 20
2029.8190796521
 10
463.1591230403
 20
2029.819090828
 10
463.1583183776
 20
2029.8191006069
 10
463.1576031218
 20
2029.8191085231
 10
463.1570368777
 20
2029.819115508
 10
463.1565898429
 20
2029.8191206303
 10
463.1562620173
 20
2029.8191243556
 10
463.1560832034
 20
2029.8191266839
 10
463.1559937964
 20
2029.8191276152
  0
LINE
  5
121
330
1F
100
AcDbEntity
  8
0
  6
Continuous
 62
   144
370
     0
100
AcDbLine
 10
477.1509706746
 20
2029.6547272947
 30
0.0
 11
477.1550386916
 21
2029.6546793316
 31
0.0
  0
ARC
  5
122
330
1F
100
AcDbEntity
  8
0
  6
Continuous
 62
   144
370
     0
100
AcDbCircle
 10
463.6368928993
 20
2070.5746275547
 30
0.0
 40
0.7583387821473166
100
AcDbArc
 50
269.1661765326
 51
269.4746807563
  0
LINE
  5
123
330
1F
100
AcDbEntity
  8
0
  6
Continuous
 62
   144
370
     0
100
AcDbLine
 10
477.1550386916
 20
2029.6546793316
 30
0.0
 11
477.4221867095
 21
2052.395732585
 31
0.0
  0
LINE
  5
124
330
1F
100
AcDbEntity
  8
0
  6
Continuous
 62
   144
370
     0
100
AcDbLine
 10
463.1559937964
 20
2029.8191276152
 30
0.0
 11
463.6258572112
 21
2069.816369075
 31
0.0
  0
LWPOLYLINE
  5
125
330
1F
100
AcDbEntity
  8
0
  6
Continuous
 62
     7
370
    15
100
AcDbPolyline
 90
        4
 70
   128
 43
0.0
 10
920.5200463305
 20
930.0765210193
 10
917.1591043244
 20
929.587055127
 10
911.1194997798
 20
928.7278839749
 10
908.3458274375
 20
928.3429869812
  0
LWPOLYLINE
  5
126
330
1F
100
AcDbEntity
  8
0
  6
Continuous
 62
     7
370
    15
100
AcDbPolyline
 90
        4
 70
   128
 43
0.0
 10
523.5907673608
 20
928.3382856649
 10
521.3440894852
 20
928.6486992043
 10
515.0452494393
 20
929.5440131229
 10
511.3899945985
 20
930.0775641006
  0
LWPOLYLINE
  5
127
330
1F
100
AcDbEntity
  8
0
  6
Continuous
 62
     7
370
    15
100
AcDbPolyline
 90
        3
 70
   128
 43
0.0
 10
511.3009154568
 20
917.1529525321
 10
514.8321181308
 20
916.7942815822
 10
519.795382
 20
916.2642249268
  0
LWPOLYLINE
  5
128
330
1F
100
AcDbEntity
  8
0
  6
Continuous
 62
     7
370
    15
100
AcDbPolyline
 90
        3
 70
   128
 43
0.0
 10
912.1478438149
 20
916.2699469727
 10
915.2524262439
 20
916.605729739
 10
920.6342786322
 20
917.1536156338
  0
LWPOLYLINE
  5
129
330
1F
100
AcDbEntity
  8
0
  6
Continuous
 62
     7
370
    15
100
AcDbPolyline
 90
        3
 70
   128
 43
0.0
 10
510.730007268
 20
929.741714279
 10
509.9724173318
 20
924.8062410753
 10
509.214782692
 20
919.8707008165
  0
LWPOLYLINE
  5
12A
330
1F
100
AcDbEntity
  8
0
  6
Continuous
 62
     7
370
    15
100
AcDbPolyline
 90
        3
 70
   128
 43
0.0
 10
922.7139293919
 20
919.8720046681
 10
921.9575017462
 20
924.8076492351
 10
921.201118804
 20
929.7432267469
  0
LWPOLYLINE
  5
12B
330
1F
100
AcDbEntity
  8
0
  6
Continuous
 62
     7
370
    15
100
AcDbPolyline
 90
        3
 70
   128
 43
0.0
 10
848.5495686303
 20
1247.1486815613
 10
847.2274482022
 20
1247.9332575005
 10
845.9098130236
 20
1248.7167903584
  0
LWPOLYLINE
  5
12C
330
1F
100
AcDbEntity
  8
0
  6
Continuous
 62
     7
370
    15
100
AcDbPolyline
 90
        3
 70
   128
 43
0.0
 10
586.037912942
 20
1248.7265357178
 10
584.7158819209
 20
1247.940976302
 10
583.3893060456
 20
1247.1543738049
  0
LWPOLYLINE
  5
12D
330
1F
100
AcDbEntity
  8
0
  6
Continuous
 62
     7
370
    15
100
AcDbPolyline
 90
       50
 70
   128
 43
0.0
 10
899.9980926286
 20
939.8191237252
 10
896.8979507457
 20
939.4079485338
 10
890.6586259375
 20
938.6110120814
 10
885.1033091317
 20
937.9283302825
 10
879.9027293692
 20
937.3148196738
 10
874.9146103631
 20
936.7522933882
 10
870.1374321948
 20
936.2391793531
 10
865.5700027714
 20
935.7731008332
 10
861.2116962443
 20
935.3509956401
 10
855.7187855016
 20
934.8488041561
 10
850.2589404355
 20
934.3702533644
 10
844.6465521823
 20
933.8944816392
 10
840.3371438156
 20
933.5407802265
 10
835.9423145424
 20
933.1902080577
 10
831.4637258421
 20
932.8427129787
 10
826.9019365083
 20
932.4974977773
 10
820.9413081179
 20
932.055872063
 10
814.8453324805
 20
931.6090383928
 10
808.6158722411
 20
931.1503806513
 10
802.1919369469
 20
930.679958443
 10
795.470865048
 20
930.2112945717
 10
788.4508162509
 20
929.7539928358
 10
781.1318054567
 20
929.3170088332
 10
766.9387437175
 20
928.5982438725
 10
751.7373502026
 20
928.0289003056
 10
735.5270717065
 20
927.6500382822
 10
724.6884308527
 20
927.5268131297
 10
713.4448600239
 20
927.5072255533
 10
701.8005825351
 20
927.6015722554
 10
689.7604126255
 20
927.8212675255
 10
677.8768837224
 20
928.1524234813
 10
666.6399106155
 20
928.563539068
 10
654.2245834838
 20
929.1261771124
 10
642.7024468551
 20
929.7427126568
 10
632.0785075198
 20
930.3853848379
 10
622.3536446462
 20
931.0329296988
 10
616.5193632017
 20
931.4475321572
 10
611.062602676
 20
931.8524786633
 10
605.9826850663
 20
932.2440960806
 10
601.2785002361
 20
932.6191806596
 10
596.7779397736
 20
932.9876118701
 10
591.6328668366
 20
933.4147462052
 10
585.7334375153
 20
933.9190015
 10
579.0866702567
 20
934.5130809944
 10
571.7004179726
 20
935.2130108874
 10
563.5763197909
 20
936.0378199619
 10
554.8831760655
 20
936.9872548979
 10
546.0363715659
 20
938.0243533652
 10
537.0455473433
 20
939.1472676199
 10
531.9240629445
 20
939.8223423761
  0
LWPOLYLINE
  5
12E
330
1F
100
AcDbEntity
  8
0
  6
Continuous
 62
     7
370
    15
100
AcDbPolyline
 90
        3
 70
   128
 43
0.0
 10
900.380292512
 20
939.8662709993
 10
900.3793239365
 20
939.866203944
 10
900.1345872651
 20
939.8306274217
  0
ARC
  5
12F
330
1F
100
AcDbEntity
  8
0
  6
Continuous
 62
     7
370
    15
100
AcDbCircle
 10
901.7891465286
 20
931.2330044903
 30
0.0
 40
8.806837575240548
100
AcDbArc
 50
9.3526213614
 51
99.2190640335
  0
ARC
  5
130
330
1F
100
AcDbEntity
  8
0
  6
Continuous
 62
     7
370
    15
100
AcDbCircle
 10
530.1210117456
 20
931.2742010308
 30
0.0
 40
8.766410437647297
100
AcDbArc
 50
80.304864313
 51
170.7812700289
  0
LWPOLYLINE
  5
131
330
1F
100
AcDbEntity
  8
0
  6
Continuous
 62
     7
370
    15
100
AcDbPolyline
 90
        3
 70
   128
 43
0.0
 10
911.1280381451
 20
928.7100770872
 10
910.8295976887
 20
930.6955972117
 10
910.5311721335
 20
932.6809608739
  0
LWPOLYLINE
  5
132
330
1F
100
AcDbEntity
  8
0
  6
Continuous
 62
     7
370
    15
100
AcDbPolyline
 90
        3
 70
   128
 43
0.0
 10
521.3997602235
 20
932.6789790195
 10
521.1013942729
 20
930.6933247846
 10
520.8030283223
 20
928.7074991863
  0
LWPOLYLINE
  5
133
330
1F
100
AcDbEntity
  8
0
  6
Continuous
 62
     7
370
    15
100
AcDbPolyline
 90
        3
 70
   128
 43
0.0
 10
906.3061862956
 20
938.7814888161
 10
906.1584412823
 20
940.0697389048
 10
906.014287449
 20
941.5129461687
  0
ARC
  5
134
330
1F
100
AcDbEntity
  8
0
  6
Continuous
 62
     7
370
    15
100
AcDbCircle
 10
446.1967327736
 20
948.7138311536
 30
0.0
 40
80.04625363150231
100
AcDbArc
 50
352.8574109096
 51
354.8011574897
  0
LINE
  5
135
330
1F
100
AcDbEntity
  8
0
  6
Continuous
 62
     7
370
    15
100
AcDbLine
 10
903.7373155127
 20
962.7968856495
 30
0.0
 11
903.6347657214
 21
963.6798390549
 31
0.0
  0
LWPOLYLINE
  5
136
330
1F
100
AcDbEntity
  8
0
  6
Continuous
 62
     7
370
    15
100
AcDbPolyline
 90
       10
 70
   128
 43
0.0
 10
905.9565603505
 20
941.885005812
 10
905.9485882293
 20
941.9653156202
 10
905.7556479941
 20
943.9919778507
 10
905.5351257096
 20
946.3103899162
 10
905.2828937541
 20
948.8858619135
 10
904.9951374303
 20
951.6817071837
 10
904.6715736161
 20
954.6509572666
 10
904.3086707364
 20
957.8578957718
 10
903.9046704541
 20
961.3560029667
 10
903.7373155127
 20
962.7968856495
  0
LWPOLYLINE
  5
137
330
1F
100
AcDbEntity
  8
0
  6
Continuous
 62
     7
370
    15
100
AcDbPolyline
 90
        9
 70
   128
 43
0.0
 10
528.2072067033
 20
962.9253932636
 10
527.9357224475
 20
960.5883249443
 10
527.5412440072
 20
957.1624883812
 10
527.1933763991
 20
954.0700354975
 10
526.8596350919
 20
950.9713837307
 10
526.5817284356
 20
948.2331463497
 10
526.341328002
 20
945.7549193304
 10
526.1278390656
 20
943.5031601589
 10
525.9489506255
 20
941.6346141499
  0
LINE
  5
138
330
1F
100
AcDbEntity
  8
0
  6
Continuous
 62
     7
370
    15
100
AcDbLine
 10
528.2897293339
 20
963.6359253328
 30
0.0
 11
528.2072067033
 21
962.9253932636
 31
0.0
  0
ARC
  5
139
330
1F
100
AcDbEntity
  8
0
  6
Continuous
 62
     7
370
    15
100
AcDbCircle
 10
637.6211851114
 20
1166.2650277726
 30
0.0
 40
87.18981315014167
100
AcDbArc
 50
89.8070144228
 51
112.1213542858
  0
ARC
  5
13A
330
1F
100
AcDbEntity
  8
0
  6
Continuous
 62
     7
370
    15
100
AcDbCircle
 10
794.0062254036
 20
1164.6027020662
 30
0.0
 40
88.8589465433748
100
AcDbArc
 50
68.097229941
 51
89.9928005572
  0
LWPOLYLINE
  5
13B
330
1F
100
AcDbEntity
  8
0
  6
Continuous
 62
     7
370
    15
100
AcDbPolyline
 90
        3
 70
   128
 43
0.0
 10
591.0824477444
 20
1240.1102968853
 10
590.4433667432
 20
1239.712763707
 10
589.8034959803
 20
1239.3151113194
  0
LWPOLYLINE
  5
13C
330
1F
100
AcDbEntity
  8
0
  6
Continuous
 62
     7
370
    15
100
AcDbPolyline
 90
        3
 70
   128
 43
0.0
 10
842.1286433707
 20
1239.3144854706
 10
841.4911418925
 20
1239.7106775444
 10
840.8546685944
 20
1240.1066013973
  0
LWPOLYLINE
  5
13D
330
1F
100
AcDbEntity
  8
0
  6
Continuous
 62
     7
370
    15
100
AcDbPolyline
 90
       13
 70
   128
 43
0.0
 10
794.0131291519
 20
1253.5029539269
 10
784.3431100021
 20
1253.487248103
 10
770.741967089
 20
1253.4828373593
 10
756.8933680425
 20
1253.4902581375
 10
742.7934292476
 20
1253.5035499733
 10
728.4389190148
 20
1253.516096751
 10
713.8274913426
 20
1253.5205372971
 10
698.9623024832
 20
1253.5127290886
 10
684.2444367479
 20
1253.4988114041
 10
669.7885595034
 20
1253.4865924519
 10
655.5946074198
 20
1253.4830757778
 10
641.6606619726
 20
1253.4945794743
 10
637.918443955
 20
1253.5034009617
  0
LWPOLYLINE
  5
13E
330
1F
100
AcDbEntity
  8
0
  6
Continuous
 62
     7
370
    15
100
AcDbPolyline
 90
       18
 70
   128
 43
0.0
 10
941.2197410832
 20
222.0087238949
 10
941.2804186116
 20
220.5918022793
 10
941.462197877
 20
217.8987452191
 10
941.7293011914
 20
215.2319142025
 10
942.0793145667
 20
212.6231977146
 10
942.5106435786
 20
210.0988217991
 10
943.0231541167
 20
207.6811978024
 10
943.6202734481
 20
205.3864785832
 10
944.3132966529
 20
203.220445792
 10
945.1318025361
 20
201.1722513836
 10
946.1500584851
 20
199.2055365246
 10
947.1758991252
 20
197.716791312
 10
948.2101440202
 20
196.5910979908
 10
949.3320375453
 20
195.6924983662
 10
950.5689233313
 20
195.0038859051
 10
951.9148409138
 20
194.5467778843
 10
953.333297349
 20
194.3511554402
 10
953.6252856026
 20
194.345314185
  0
LWPOLYLINE
  5
13F
330
1F
100
AcDbEntity
  8
0
  6
Continuous
 62
     7
370
    15
100
AcDbPolyline
 90
       14
 70
   128
 43
0.0
 10
956.5511435042
 20
205.206293742
 10
956.5568357478
 20
205.1999756497
 10
956.4723759661
 20
205.3262778919
 10
956.2645345698
 20
205.6997009915
 10
955.9627711545
 20
206.3536235493
 10
955.5960535775
 20
207.3078343075
 10
955.1937669287
 20
208.5622736614
 10
954.7835975657
 20
210.0975701016
 10
954.3895065556
 20
211.8797489803
 10
954.0309697161
 20
213.8661929768
 10
953.7229925166
 20
216.0095760029
 10
953.4767955313
 20
218.2604858082
 10
953.3002614747
 20
220.5685564678
 10
953.2127022515
 20
222.419638316
  0
LWPOLYLINE
  5
140
330
1F
100
AcDbEntity
  8
0
  6
Continuous
 62
     7
370
    15
100
AcDbPolyline
 90
       17
 70
   128
 43
0.0
 10
478.3058106671
 20
194.345314185
 10
479.747259594
 20
194.4880077046
 10
481.1073332797
 20
194.8955246609
 10
482.3248922597
 20
195.514995734
 10
483.4114998351
 20
196.3132807415
 10
484.3961983691
 20
197.288591544
 10
485.3233337174
 20
198.488492648
 10
486.2417965899
 20
200.0262924832
 10
487.1597081195
 20
202.01518027
 10
487.9712104569
 20
204.2677590054
 10
488.6449217568
 20
206.6125461262
 10
489.2106741439
 20
209.0477534931
 10
489.684173442
 20
211.5733811062
 10
490.071231104
 20
214.1767927807
 10
490.3731286298
 20
216.8368884724
 10
490.5892699729
 20
219.5278593701
 10
490.7113551865
 20
222.0087238949
  0
LWPOLYLINE
  5
141
330
1F
100
AcDbEntity
  8
0
  6
Continuous
 62
     7
370
    15
100
AcDbPolyline
 90
       13
 70
   128
 43
0.0
 10
478.7183940182
 20
222.419638316
 10
478.6664634715
 20
221.2071010273
 10
478.509911872
 20
218.8900300663
 10
478.2805084954
 20
216.6042515438
 10
477.9842585097
 20
214.4016215008
 10
477.6299983035
 20
212.331671397
 10
477.2300362359
 20
210.4429194134
 10
476.801210619
 20
208.783168475
 10
476.3666033517
 20
207.398194949
 10
475.9582370291
 20
206.329841296
 10
475.6548195849
 20
205.6768128079
 10
475.4483341943
 20
205.309648196
 10
475.3754228125
 20
205.201763789
  0
LINE
  5
142
330
1F
100
AcDbEntity
  8
0
  6
Continuous
 62
     7
370
    15
100
AcDbLine
 10
953.2127022515
 20
222.419638316
 30
0.0
 11
930.6201129924
 21
881.78070275
 31
0.0
  0
LINE
  5
143
330
1F
100
AcDbEntity
  8
0
  6
Continuous
 62
     7
370
    15
100
AcDbLine
 10
932.8141152631
 20
467.3255869549
 30
0.0
 11
941.2197410832
 21
222.0087238949
 31
0.0
  0
LINE
  5
144
330
1F
100
AcDbEntity
  8
0
  6
Continuous
 62
     7
370
    15
100
AcDbLine
 10
918.6271518241
 20
881.3697659772
 30
0.0
 11
932.4040651093
 21
479.2928883236
 31
0.0
  0
LINE
  5
145
330
1F
100
AcDbEntity
  8
0
  6
Continuous
 62
     7
370
    15
100
AcDbLine
 10
499.5270311604
 20
479.2928883236
 30
0.0
 11
513.3039444457
 21
881.3697659772
 31
0.0
  0
LINE
  5
146
330
1F
100
AcDbEntity
  8
0
  6
Continuous
 62
     7
370
    15
100
AcDbLine
 10
490.7113551865
 20
222.0087238949
 30
0.0
 11
499.1169810067
 21
467.3255869549
 31
0.0
  0
LINE
  5
147
330
1F
100
AcDbEntity
  8
0
  6
Continuous
 62
     7
370
    15
100
AcDbLine
 10
501.3109832774
 20
881.78070275
 30
0.0
 11
478.7183940182
 21
222.419638316
 31
0.0
  0
LINE
  5
148
330
1F
100
AcDbEntity
  8
0
  6
Continuous
 62
     7
370
    15
100
AcDbLine
 10
965.2622729312
 20
206.3453385037
 30
0.0
 11
955.9666007529
 21
206.3453385037
 31
0.0
  0
LINE
  5
149
330
1F
100
AcDbEntity
  8
0
  6
Continuous
 62
     7
370
    15
100
AcDbLine
 10
953.6252856026
 20
194.345314185
 30
0.0
 11
957.584077097
 21
194.345314185
 31
0.0
  0
LINE
  5
14A
330
1F
100
AcDbEntity
  8
0
  6
Continuous
 62
     7
370
    15
100
AcDbLine
 10
474.3470191727
 20
194.345314185
 30
0.0
 11
478.3058106671
 21
194.345314185
 31
0.0
  0
LINE
  5
14B
330
1F
100
AcDbEntity
  8
0
  6
Continuous
 62
     7
370
    15
100
AcDbLine
 10
475.9641676913
 20
206.3453385037
 30
0.0
 11
466.6688233386
 21
206.3453385037
 31
0.0
  0
LINE
  5
14C
330
1F
100
AcDbEntity
  8
0
  6
Continuous
 62
     7
370
    15
100
AcDbLine
 10
499.1158634196
 20
467.2928938072
 30
0.0
 11
932.8152328501
 21
467.2928938072
 31
0.0
  0
LINE
  5
14D
330
1F
100
AcDbEntity
  8
0
  6
Continuous
 62
     7
370
    15
100
AcDbLine
 10
932.441571332
 20
479.2928883236
 30
0.0
 11
499.4895249377
 21
479.2928883236
 31
0.0
  0
ARC
  5
14E
330
1F
100
AcDbEntity
  8
0
  6
Continuous
 62
     7
370
    15
100
AcDbCircle
 10
965.9348021907
 20
200.3453316841
 30
0.0
 40
6.0
100
AcDbArc
 50
340.8241052212
 51
90.0
  0
LINE
  5
14F
330
1F
100
AcDbEntity
  8
0
  6
Continuous
 62
     7
370
    15
100
AcDbLine
 10
965.9348070393
 20
206.3453385037
 30
0.0
 11
965.2622729312
 21
206.3453385037
 31
0.0
  0
ARC
  5
150
330
1F
100
AcDbEntity
  8
0
  6
Continuous
 62
     7
370
    15
100
AcDbCircle
 10
465.996294079
 20
200.3453316841
 30
0.0
 40
6.000000000000036
100
AcDbArc
 50
90.0
 51
199.1758947788
  0
LINE
  5
151
330
1F
100
AcDbEntity
  8
0
  6
Continuous
 62
     7
370
    15
100
AcDbLine
 10
466.6688233386
 20
206.3453385037
 30
0.0
 11
465.9962892304
 21
206.3453385037
 31
0.0
  0
ARC
  5
152
330
1F
100
AcDbEntity
  8
0
  6
Continuous
 62
     7
370
    15
100
AcDbCircle
 10
527.2440585885
 20
880.8310895287
 30
0.0
 40
13.95051807748278
100
AcDbArc
 50
89.7872203456
 51
177.7870670009
  0
ARC
  5
153
330
1F
100
AcDbEntity
  8
0
  6
Continuous
 62
     7
370
    15
100
AcDbCircle
 10
527.2348645773
 20
880.8406658589
 30
0.0
 40
25.9409192398321
100
AcDbArc
 50
89.8652645722
 51
177.9232832578
  0
ARC
  5
154
330
1F
100
AcDbEntity
  8
0
  6
Continuous
 62
     7
370
    15
100
AcDbCircle
 10
904.6943610498
 20
880.8387296977
 30
0.0
 40
13.94290709608188
100
AcDbArc
 50
2.1827225918
 51
90.2429900617
  0
ARC
  5
155
330
1F
100
AcDbEntity
  8
0
  6
Continuous
 62
     7
370
    15
100
AcDbCircle
 10
904.6856684303
 20
880.8296868095
 30
0.0
 40
25.95187557884534
100
AcDbArc
 50
2.1000949348
 51
90.1113572351
  0
LINE
  5
156
330
1F
100
AcDbEntity
  8
0
  6
Continuous
 62
     7
370
    15
100
AcDbLine
 10
527.2958665858
 20
894.7815114062
 30
0.0
 11
904.6352296839
 21
894.7815114062
 31
0.0
  0
LINE
  5
157
330
1F
100
AcDbEntity
  8
0
  6
Continuous
 62
     7
370
    15
100
AcDbLine
 10
556.858712412
 20
906.7815133732
 30
0.0
 11
527.2958665858
 21
906.7815133732
 31
0.0
  0
LINE
  5
158
330
1F
100
AcDbEntity
  8
0
  6
Continuous
 62
     7
370
    15
100
AcDbLine
 10
904.6352296839
 20
906.7815133732
 30
0.0
 11
875.0827252637
 21
906.7815133732
 31
0.0
  0
LINE
  5
159
330
1F
100
AcDbEntity
  8
0
  6
Continuous
 62
     7
370
    15
100
AcDbLine
 10
913.9496326218
 20
906.7815133732
 30
0.0
 11
904.6352296839
 21
906.7815133732
 31
0.0
  0
LINE
  5
15A
330
1F
100
AcDbEntity
  8
0
  6
Continuous
 62
     7
370
    15
100
AcDbLine
 10
527.2958665858
 20
906.7815133732
 30
0.0
 11
517.9814636479
 21
906.7815133732
 31
0.0
  0
LWPOLYLINE
  5
15B
330
1F
100
AcDbEntity
  8
0
  6
Continuous
 62
     7
370
    15
100
AcDbPolyline
 90
       15
 70
   128
 43
0.0
 10
932.79238937
 20
884.3840846222
 10
932.6752513419
 20
885.9629744094
 10
932.2711318503
 20
888.7690940302
 10
931.6184460889
 20
891.4919534128
 10
930.7188480864
 20
894.0962442558
 10
929.5772552262
 20
896.5459653538
 10
928.2035320769
 20
898.8036030334
 10
926.6142189275
 20
900.831807534
 10
924.8336642752
 20
902.5958516997
 10
922.8931456576
 20
904.0674009722
 10
920.8279043208
 20
905.2273744147
 10
918.6734944354
 20
906.0663172405
 10
916.4629816781
 20
906.5825009149
 10
914.346316434
 20
906.7766034406
 10
913.9496326218
 20
906.7815133732
  0
LWPOLYLINE
  5
15C
330
1F
100
AcDbEntity
  8
0
  6
Continuous
 62
     7
370
    15
100
AcDbPolyline
 90
       15
 70
   128
 43
0.0
 10
517.9814636479
 20
906.7815133732
 10
516.4922415982
 20
906.712021808
 10
514.2781823645
 20
906.3458481234
 10
512.140491582
 20
905.6751692098
 10
510.1052164803
 20
904.7139772576
 10
508.1890463601
 20
903.4740963381
 10
506.4081191788
 20
901.9662627381
 10
504.7795563708
 20
900.2018981975
 10
503.3220737944
 20
898.1956952613
 10
502.0551472674
 20
895.9679791134
 10
500.9972244273
 20
893.5456016462
 10
500.1636534701
 20
890.9608536761
 10
499.5654016505
 20
888.2491552633
 10
499.2091148864
 20
885.4473867815
 10
499.1387068997
 20
884.3840846222
  0
LINE
  5
15D
330
1F
100
AcDbEntity
  8
0
  6
Continuous
 62
     7
370
    15
100
AcDbLine
 10
499.1387068997
 20
884.3840846222
 30
0.0
 11
466.1493986617
 21
224.1869756382
 31
0.0
  0
LINE
  5
15E
330
1F
100
AcDbEntity
  8
0
  6
Continuous
 62
     7
370
    15
100
AcDbLine
 10
478.1344473134
 20
223.5881277722
 30
0.0
 11
480.1198333274
 21
263.3204647701
 31
0.0
  0
LINE
  5
15F
330
1F
100
AcDbEntity
  8
0
  6
Continuous
 62
     7
370
    15
100
AcDbLine
 10
951.8112629424
 20
263.3204647701
 30
0.0
 11
953.7966489564
 21
223.5881277722
 31
0.0
  0
LINE
  5
160
330
1F
100
AcDbEntity
  8
0
  6
Continuous
 62
     7
370
    15
100
AcDbLine
 10
965.7816976081
 20
224.1869756382
 30
0.0
 11
932.79238937
 21
884.3840846222
 31
0.0
  0
LWPOLYLINE
  5
161
330
1F
100
AcDbEntity
  8
0
  6
Continuous
 62
     7
370
    15
100
AcDbPolyline
 90
       10
 70
   128
 43
0.0
 10
466.1493986617
 20
224.1869756382
 10
466.0839676629
 20
222.88795201
 10
465.9553855429
 20
220.3914114636
 10
465.8232420455
 20
217.8973743122
 10
465.6896978389
 20
215.4469677609
 10
465.5569284926
 20
213.079709689
 10
465.427079774
 20
210.8339258831
 10
465.3022676478
 20
208.7461539906
 10
465.184608079
 20
206.8507858914
 10
465.1405006419
 20
206.1715313595
  0
LWPOLYLINE
  5
162
330
1F
100
AcDbEntity
  8
0
  6
Continuous
 62
     7
370
    15
100
AcDbPolyline
 90
        7
 70
   128
 43
0.0
 10
477.497482277
 20
211.7058226269
 10
477.5817781459
 20
213.1788918179
 10
477.716201521
 20
215.5990788143
 10
477.8505354892
 20
218.0872151058
 10
477.9826938878
 20
220.6049153011
 10
478.1040787469
 20
222.9826637905
 10
478.1344473134
 20
223.5881277722
  0
LWPOLYLINE
  5
163
330
1F
100
AcDbEntity
  8
0
  6
Continuous
 62
     7
370
    15
100
AcDbPolyline
 90
       10
 70
   128
 43
0.0
 10
966.7886286746
 20
206.200141589
 10
966.7573958407
 20
206.6789457005
 10
966.6411667834
 20
208.5434981983
 10
966.5173679362
 20
210.6070110005
 10
966.3881748687
 20
212.8341981571
 10
966.255733348
 20
215.188045184
 10
966.122248746
 20
217.6301070851
 10
965.9898668299
 20
220.1209255856
 10
965.860733367
 20
222.6202079456
 10
965.7816976081
 20
224.1869756382
  0
LWPOLYLINE
  5
164
330
1F
100
AcDbEntity
  8
0
  6
Continuous
 62
     7
370
    15
100
AcDbPolyline
 90
        7
 70
   128
 43
0.0
 10
953.7966489564
 20
223.5881277722
 10
953.8625567923
 20
222.2795674008
 10
953.9920776854
 20
219.7649070423
 10
954.1251748572
 20
217.2530481022
 10
954.2597323428
 20
214.7841045063
 10
954.3936490784
 20
212.3964616459
 10
954.4355660449
 20
211.6714903515
  0
ARC
  5
165
330
1F
100
AcDbEntity
  8
0
  6
Continuous
 62
     7
370
    15
100
AcDbCircle
 10
637.1599248505
 20
1162.7815013642
 30
0.0
 40
100.0000182079281
100
AcDbArc
 50
90.000009772
 51
174.7260914136
  0
LINE
  5
166
330
1F
100
AcDbEntity
  8
0
  6
Continuous
 62
     7
370
    15
100
AcDbLine
 10
637.159907795
 20
1262.7815195721
 30
0.0
 11
794.7711884747
 21
1262.7815195721
 31
0.0
  0
ARC
  5
167
330
1F
100
AcDbEntity
  8
0
  6
Continuous
 62
     7
370
    15
100
AcDbCircle
 10
794.7711738572
 20
1162.7815040375
 30
0.0
 40
100.0000155345967
100
AcDbArc
 50
5.2739071896
 51
89.9999916248
  0
LWPOLYLINE
  5
168
330
1F
100
AcDbEntity
  8
0
  6
Continuous
 62
     7
370
    15
100
AcDbPolyline
 90
       21
 70
   128
 43
0.0
 10
894.3478554259
 20
1171.973217408
 10
895.938152052
 20
1154.7450014752
 10
897.529461957
 20
1137.505758683
 10
899.12279842
 20
1120.2446707886
 10
900.7204413186
 20
1102.936793248
 10
902.3250728617
 20
1085.5533668202
 10
903.9371251832
 20
1068.0894145172
 10
905.5545121203
 20
1050.5677053135
 10
906.6867619525
 20
1038.3017697733
 10
907.8184455405
 20
1026.0417499941
 10
908.9514851342
 20
1013.7671717804
 10
910.0864171754
 20
1001.4720299643
 10
911.221304513
 20
989.1774990957
 10
911.9249522458
 20
981.5546908777
 10
912.6184671889
 20
974.0415850084
 10
913.2988691102
 20
966.6705766123
 10
913.953626133
 20
959.5773109596
 10
914.5582556496
 20
953.0272224348
 10
915.1051878701
 20
947.1020886105
 10
915.5736654769
 20
942.026857416
 10
915.9655511151
 20
937.781531493
  0
ARC
  5
169
330
1F
100
AcDbEntity
  8
0
  6
Continuous
 62
     7
370
    15
100
AcDbCircle
 10
960.5661922352
 20
940.3327828806
 30
0.0
 40
44.67307354204036
100
AcDbArc
 50
183.2738979656
 51
193.9100255777
  0
LWPOLYLINE
  5
16A
330
1F
100
AcDbEntity
  8
0
  6
Continuous
 62
     7
370
    15
100
AcDbPolyline
 90
        4
 70
   128
 43
0.0
 10
919.7942703734
 20
929.8987129133
 10
920.7301676045
 20
930.0921448868
 10
921.1730748187
 20
929.8556485575
 10
921.1637764941
 20
929.6977707546
  0
LWPOLYLINE
  5
16B
330
1F
100
AcDbEntity
  8
0
  6
Continuous
 62
     7
370
    15
100
AcDbPolyline
 90
        3
 70
   128
 43
0.0
 10
918.6773240338
 20
929.113660137
 10
919.2357599507
 20
929.6165072721
 10
919.7942703734
 20
929.8987129133
  0
LWPOLYLINE
  5
16C
330
1F
100
AcDbEntity
  8
0
  6
Continuous
 62
     7
370
    15
100
AcDbPolyline
 90
       15
 70
   128
 43
0.0
 10
838.7266486655
 20
912.0583498281
 10
846.4874714385
 20
912.3474621576
 10
854.101264454
 20
912.9551538628
 10
861.5717530022
 20
913.8608538907
 10
868.8470810424
 20
915.0205367606
 10
877.9927879344
 20
916.8278464478
 10
886.5126162539
 20
918.8245275419
 10
894.2469000588
 20
920.8702707093
 10
901.0661929618
 20
922.847811262
 10
906.9451480876
 20
924.6919715207
 10
911.6997211943
 20
926.2854346436
 10
914.4993960629
 20
927.2785970371
 10
916.6264772187
 20
928.0880430144
 10
918.0262028943
 20
928.6981189054
 10
918.6773240338
 20
929.113660137
  0
LWPOLYLINE
  5
16D
330
1F
100
AcDbEntity
  8
0
  6
Continuous
 62
     7
370
    15
100
AcDbPolyline
 90
        5
 70
   128
 43
0.0
 10
593.2044476043
 20
912.0569714707
 10
654.5813992391
 20
911.1582377356
 10
715.9625477264
 20
910.8027332824
 10
777.3472010861
 20
911.1586177152
 10
838.7266486655
 20
912.0583498281
  0
LWPOLYLINE
  5
16E
330
1F
100
AcDbEntity
  8
0
  6
Continuous
 62
     7
370
    15
100
AcDbPolyline
 90
       15
 70
   128
 43
0.0
 10
513.2537722359
 20
929.111760239
 10
513.9017939339
 20
928.6976718705
 10
515.2834295998
 20
928.0944579642
 10
517.3869371186
 20
927.2927680414
 10
520.2065944443
 20
926.29180489
 10
524.9567866097
 20
924.6991985839
 10
530.8080851804
 20
922.8641131323
 10
537.6642882596
 20
920.875836293
 10
545.3580707083
 20
918.8403153222
 10
553.8868546258
 20
916.8411084812
 10
563.0301177274
 20
915.0315338176
 10
570.2257692586
 20
913.8806053799
 10
577.7215003739
 20
912.9657783907
 10
585.4156553517
 20
912.3478346866
 10
593.2044476043
 20
912.0569714707
  0
LWPOLYLINE
  5
16F
330
1F
100
AcDbEntity
  8
0
  6
Continuous
 62
     7
370
    15
100
AcDbPolyline
 90
        3
 70
   128
 43
0.0
 10
512.1368258963
 20
929.8969024223
 10
512.695336319
 20
929.6146520775
 10
513.2537722359
 20
929.111760239
  0
LWPOLYLINE
  5
170
330
1F
100
AcDbEntity
  8
0
  6
Continuous
 62
     7
370
    15
100
AcDbPolyline
 90
        4
 70
   128
 43
0.0
 10
510.7672750722
 20
929.696325342
 10
510.7580065499
 20
929.8538827699
 10
511.2008541594
 20
930.0904163521
 10
512.1368258963
 20
929.8969024223
  0
ARC
  5
171
330
1F
100
AcDbEntity
  8
0
  6
Continuous
 62
     7
370
    15
100
AcDbCircle
 10
471.3238347553
 20
940.3408330603
 30
0.0
 40
44.71501323002835
100
AcDbArc
 50
346.0886342155
 51
356.7188153683
  0
LWPOLYLINE
  5
172
330
1F
100
AcDbEntity
  8
0
  6
Continuous
 62
     7
370
    15
100
AcDbPolyline
 90
       20
 70
   128
 43
0.0
 10
515.9655451546
 20
937.7815165919
 10
516.359382845
 20
942.048031966
 10
516.8311983119
 20
947.1594282787
 10
517.3807084332
 20
953.1124868792
 10
517.9879903565
 20
959.6912601393
 10
518.6461448441
 20
966.8212720555
 10
519.3291097651
 20
974.2201307219
 10
520.0263648997
 20
981.7736336392
 10
520.7345723878
 20
989.4458988112
 10
521.8710094462
 20
1001.7573424977
 10
523.0043172608
 20
1014.0347966355
 10
524.1357475291
 20
1026.2920596998
 10
525.2665221463
 20
1038.5420509976
 10
526.3971030484
 20
1050.7900902432
 10
528.2773762713
 20
1071.1596795719
 10
530.1506459485
 20
1091.4533325833
 10
532.0155262719
 20
1111.6562077206
 10
533.8739245902
 20
1131.788838784
 10
535.7292234669
 20
1151.8880018395
 10
537.5832408438
 20
1171.973217408
  0
LWPOLYLINE
  5
173
330
1F
100
AcDbEntity
  8
0
  6
Continuous
 62
     7
370
    15
100
AcDbPolyline
 90
       14
 70
   128
 43
0.0
 10
512.1152937184
 20
919.183675329
 10
512.8349601994
 20
918.7681117457
 10
514.2937093745
 20
918.1681537431
 10
516.4796948205
 20
917.3763134878
 10
519.3873584042
 20
916.3941556018
 10
524.2605596553
 20
914.842296521
 10
530.2391737471
 20
913.0667412084
 10
537.2175663481
 20
911.1627751392
 10
545.0166404019
 20
909.2374780577
 10
553.6300033103
 20
907.3690885108
 10
562.8298163186
 20
905.6948536437
 10
572.5248247157
 20
904.3224790495
 10
582.6931088935
 20
903.3593797486
 10
593.0595114599
 20
902.896087746
  0
LWPOLYLINE
  5
174
330
1F
100
AcDbEntity
  8
0
  6
Continuous
 62
     7
370
    15
100
AcDbPolyline
 90
       14
 70
   128
 43
0.0
 10
838.8723447691
 20
902.8974363011
 10
849.1877704631
 20
903.3569285076
 10
859.2619091044
 20
904.304918031
 10
869.0464585791
 20
905.684616546
 10
878.2495051394
 20
907.3569738668
 10
886.8544190894
 20
909.2226066988
 10
894.694799162
 20
911.1575448316
 10
901.6355514298
 20
913.0513036054
 10
907.6418965827
 20
914.8353823822
 10
912.5186443101
 20
916.3879939717
 10
915.4048949252
 20
917.3623883527
 10
917.6144987117
 20
918.1617387932
 10
919.0916806231
 20
918.7684395712
 10
919.814476348
 20
919.1854262155
  0
LWPOLYLINE
  5
175
330
1F
100
AcDbEntity
  8
0
  6
Continuous
 62
     7
370
    15
100
AcDbPolyline
 90
        5
 70
   128
 43
0.0
 10
593.0595114599
 20
902.896087746
 10
654.4726989935
 20
901.8009343546
 10
715.9631294358
 20
901.3772123855
 10
777.4551078449
 20
901.8012845319
 10
838.8723447691
 20
902.8974363011
  0
LWPOLYLINE
  5
176
330
1F
100
AcDbEntity
  8
0
  6
Continuous
 62
     7
370
    15
100
AcDbPolyline
 90
       11
 70
   128
 43
0.0
 10
512.4206632148
 20
917.0392194193
 10
512.3687624703
 20
917.0082324546
 10
511.5428805123
 20
917.0705491107
 10
510.8561604987
 20
917.3611441057
 10
510.298573948
 20
917.738568167
 10
509.8677664767
 20
918.172720949
 10
509.5481663714
 20
918.6437392038
 10
509.3312948714
 20
919.1196375888
 10
509.2404871951
 20
919.9711495441
 10
509.7239404689
 20
920.200120787
 10
510.7767075072
 20
919.9901485246
  0
LINE
  5
177
330
1F
100
AcDbEntity
  8
0
  6
Continuous
 62
     7
370
    15
100
AcDbLine
 10
510.7767075072
 20
919.9901485246
 30
0.0
 11
512.1152937184
 21
919.183675329
 31
0.0
  0
LINE
  5
178
330
1F
100
AcDbEntity
  8
0
  6
Continuous
 62
     7
370
    15
100
AcDbLine
 10
919.814476348
 20
919.1854262155
 30
0.0
 11
921.1526453267
 21
919.9917205971
 31
0.0
  0
LWPOLYLINE
  5
179
330
1F
100
AcDbEntity
  8
0
  6
Continuous
 62
     7
370
    15
100
AcDbPolyline
 90
       11
 70
   128
 43
0.0
 10
921.1526453267
 20
919.9917205971
 10
922.2049355279
 20
920.2015289467
 10
922.6882248889
 20
919.9725502532
 10
922.5973427068
 20
919.1210830014
 10
922.3804712067
 20
918.6452740234
 10
922.0609307061
 20
918.1744345825
 10
921.6302275429
 20
917.7404904168
 10
921.0728198062
 20
917.3632675212
 10
920.3863084088
 20
917.072888593
 10
919.5605754624
 20
917.010765652
 10
919.5126086245
 20
917.0394280356
  0
LWPOLYLINE
  5
17A
330
1F
100
AcDbEntity
  8
0
  6
Continuous
 62
     7
370
    15
100
AcDbPolyline
 90
       17
 70
   128
 43
0.0
 10
897.2739964495
 20
1170.6896313828
 10
898.8710582028
 20
1153.5168477696
 10
900.4379898082
 20
1136.3741943043
 10
901.9504427682
 20
1119.3221995037
 10
903.3814906846
 20
1102.4243125122
 10
904.7489702473
 20
1085.5876096886
 10
906.0920715104
 20
1068.592835347
 10
907.4171572695
 20
1051.4456817311
 10
908.5002332698
 20
1037.2814872664
 10
909.5985233556
 20
1022.8567907017
 10
910.7054412137
 20
1008.0840030115
 10
911.3491117726
 20
999.2042371433
 10
911.9775235425
 20
990.1962765854
 10
912.5854313145
 20
981.078077237
 10
913.1660848628
 20
971.8743899267
 10
913.6771946917
 20
963.4064176481
 10
913.813853241
 20
961.0914775532
  0
ARC
  5
17B
330
1F
100
AcDbEntity
  8
0
  6
Continuous
 62
     7
370
    15
100
AcDbCircle
 10
798.3381516315
 20
1161.3206054328
 30
0.0
 40
99.37846867962944
100
AcDbArc
 50
5.40966306
 51
59.6723184074
  0
ARC
  5
17C
330
1F
100
AcDbEntity
  8
0
  6
Continuous
 62
     7
370
    15
100
AcDbCircle
 10
633.4660990367
 20
1161.4012956041
 30
0.0
 40
99.24144529978722
100
AcDbArc
 50
120.2823299438
 51
174.6297244959
  0
LWPOLYLINE
  5
17D
330
1F
100
AcDbEntity
  8
0
  6
Continuous
 62
     7
370
    15
100
AcDbPolyline
 90
       16
 70
   128
 43
0.0
 10
518.1166916857
 20
961.085636298
 10
518.2642429839
 20
963.5828921002
 10
518.7775134812
 20
972.076494376
 10
519.3075924884
 20
980.4859348934
 10
519.8615878592
 20
988.8351300162
 10
520.778784133
 20
1001.9397476118
 10
521.7213123809
 20
1014.7378781241
 10
522.6684301863
 20
1027.2624829214
 10
523.6064731847
 20
1039.5589807432
 10
524.532505847
 20
1051.6638496321
 10
526.0756104956
 20
1071.5874919098
 10
527.6446878682
 20
1091.3073310059
 10
529.2618065844
 20
1110.9073051613
 10
530.987390853
 20
1130.7093986672
 10
532.8008770715
 20
1150.6715902489
 10
534.6602588664
 20
1170.6894823712
  0
LWPOLYLINE
  5
17E
330
1F
100
AcDbEntity
  8
0
  6
Continuous
 62
   144
370
     0
100
AcDbPolyline
 90
       13
 70
   128
 43
0.0
 10
523.3046352635
 20
928.4718596738
 10
524.1957098017
 20
928.0559012097
 10
526.2145489226
 20
927.3801410001
 10
529.3510049353
 20
926.4413752955
 10
533.4957927237
 20
925.2831452888
 10
538.6157572041
 20
923.9467197459
 10
544.6171998749
 20
922.5087278884
 10
551.3690501223
 20
921.0525119107
 10
558.8463634024
 20
919.6379819315
 10
566.8650060664
 20
918.3657207888
 10
575.3313392173
 20
917.3153006833
 10
584.1813772689
 20
916.5544846457
 10
593.2177543412
 20
916.1316045921
  0
LWPOLYLINE
  5
17F
330
1F
100
AcDbEntity
  8
0
  6
Continuous
 62
   144
370
     0
100
AcDbPolyline
 90
       13
 70
   128
 43
0.0
 10
838.7133046757
 20
916.1328786414
 10
847.7041959534
 20
916.5521898668
 10
856.4863145123
 20
917.3033276003
 10
865.0172590981
 20
918.357741217
 10
873.0317145358
 20
919.6271264356
 10
880.501085497
 20
921.0385718744
 10
887.2914403449
 20
922.5026929181
 10
893.2671785126
 20
923.9344560903
 10
898.4010159741
 20
925.2745026153
 10
902.558514453
 20
926.436390857
 10
905.6816488276
 20
927.3708724778
 10
907.7279209862
 20
928.0548283261
 10
908.6264163028
 20
928.4738415282
  0
LWPOLYLINE
  5
180
330
1F
100
AcDbEntity
  8
0
  6
Continuous
 62
   144
370
     0
100
AcDbPolyline
 90
       13
 70
   128
 43
0.0
 10
593.2177543412
 20
916.1316045921
 10
613.5980650554
 20
915.5772515934
 10
633.9246645342
 20
915.071834008
 10
654.5843198667
 20
914.6378972929
 10
675.0250138114
 20
914.3192806643
 10
695.5226618568
 20
914.1303413909
 10
715.9547227014
 20
914.0697681707
 10
736.423289008
 20
914.1324573558
 10
756.9517545174
 20
914.3221714895
 10
777.3355781804
 20
914.6380612057
 10
798.0382680665
 20
915.0723406475
 10
818.3182194601
 20
915.5763128203
 10
838.7133046757
 20
916.1328786414
  0
LINE
  5
181
330
1F
100
AcDbEntity
  8
0
  6
Continuous
 62
     7
370
    15
100
AcDbLine
 10
900.1998990546
 20
939.8440608185
 30
0.0
 11
900.3930181037
 21
939.845953266
 31
0.0
  0
LINE
  5
182
330
1F
100
AcDbEntity
  8
0
  6
Continuous
 62
     7
370
    15
100
AcDbLine
 10
899.9991357098
 20
939.8112186592
 30
0.0
 11
900.1342147361
 21
939.8333170813
 31
0.0
  0
LINE
  5
183
330
1F
100
AcDbEntity
  8
0
  6
Continuous
 62
     7
370
    15
100
AcDbLine
 10
531.7297667037
 20
939.8430698913
 30
0.0
 11
531.9170742999
 21
939.7676029604
 31
0.0
  0
LINE
  5
184
330
1F
100
AcDbEntity
  8
0
  6
Continuous
 62
     7
370
    15
100
AcDbLine
 10
531.5804570685
 20
939.8205169838
 30
0.0
 11
531.7297667037
 21
939.8430698913
 31
0.0
  0
LINE
  5
185
330
1F
100
AcDbEntity
  8
0
  6
Continuous
 62
   144
370
     0
100
AcDbLine
 10
522.1982240449
 20
929.0256017249
 30
0.0
 11
523.3046352635
 21
928.4718596738
 31
0.0
  0
LINE
  5
186
330
1F
100
AcDbEntity
  8
0
  6
Continuous
 62
   144
370
     0
100
AcDbLine
 10
908.6264163028
 20
928.4738415282
 30
0.0
 11
909.7328275214
 21
929.0277772945
 31
0.0
  0
LWPOLYLINE
  5
187
330
1F
100
AcDbEntity
  8
0
  6
Continuous
 62
   144
370
     0
100
AcDbPolyline
 90
        4
 70
   128
 43
0.0
 10
909.7328275214
 20
929.0277772945
 10
910.6594115268
 20
929.1043916147
 10
911.098816968
 20
928.8288691443
 10
911.089384533
 20
928.669754545
  0
LWPOLYLINE
  5
188
330
1F
100
AcDbEntity
  8
0
  6
Continuous
 62
   144
370
     0
100
AcDbPolyline
 90
        4
 70
   128
 43
0.0
 10
520.8416819344
 20
928.6671766442
 10
520.8322494994
 20
928.8263284963
 10
521.2716400395
 20
929.1020148795
 10
522.1982240449
 20
929.0256017249
  0
LWPOLYLINE
  5
189
330
1F
100
AcDbEntity
  8
0
  6
Continuous
 62
   144
370
     0
100
AcDbPolyline
 90
        3
 70
   128
 43
0.0
 10
905.7916641007
 20
942.5857254666
 10
905.9571712981
 20
941.8823906582
 10
906.007730938
 20
941.5121042531
  0
LWPOLYLINE
  5
18A
330
1F
100
AcDbEntity
  8
0
  6
Continuous
 62
   144
370
     0
100
AcDbPolyline
 90
        3
 70
   128
 43
0.0
 10
525.9155720244
 20
941.460374872
 10
526.0285526286
 20
942.1652445
 10
526.1349320184
 20
942.5750711363
  0
LWPOLYLINE
  5
18B
330
1F
100
AcDbEntity
  8
0
  6
Continuous
 62
     7
370
    15
100
AcDbPolyline
 90
        4
 70
   128
 43
0.0
 10
901.8201321135
 20
979.6468505066
 10
901.9940286647
 20
978.0684599083
 10
902.8324574004
 20
970.6521817845
 10
903.6499053012
 20
963.5453113716
  0
LWPOLYLINE
  5
18C
330
1F
100
AcDbEntity
  8
0
  6
Continuous
 62
   144
370
     0
100
AcDbPolyline
 90
       36
 70
   128
 43
0.0
 10
884.2503070603
 20
1171.1183675926
 10
885.429659463
 20
1158.3332010906
 10
886.5290224324
 20
1146.421004216
 10
887.5485151778
 20
1135.3809425038
 10
888.4882867108
 20
1125.2115258377
 10
889.3485456477
 20
1115.9101614159
 10
890.1378303538
 20
1107.3862501782
 10
890.9565001498
 20
1098.5553154152
 10
891.8576180707
 20
1088.8443776768
 10
892.8191751014
 20
1078.4924515885
 10
893.8057660828
 20
1067.8785928887
 10
894.4480210315
 20
1060.9729775589
 10
895.0224607955
 20
1054.7994860809
 10
895.1598942052
 20
1053.3227959078
 10
895.2919333945
 20
1051.904279868
 10
895.4185783635
 20
1050.5439081591
 10
895.5395310889
 20
1049.2446759146
 10
895.6720173131
 20
1047.8216448229
 10
895.8742260705
 20
1045.6494280499
 10
896.1850940953
 20
1042.3108079832
 10
896.5877979766
 20
1037.9869529408
 10
897.081294633
 20
1032.689277212
 10
897.5833594571
 20
1027.3005553883
 10
898.0420917044
 20
1022.3776289623
 10
898.5786676179
 20
1016.6208484572
 10
899.0718066464
 20
1011.33191971
 10
899.533608533
 20
1006.3822009962
 10
899.9948441754
 20
1001.4435538452
 10
900.445649005
 20
996.6190644901
 10
900.8818655978
 20
991.9552096527
 10
901.2528151046
 20
987.9931548041
 10
901.570120431
 20
984.6063741844
 10
902.1050423156
 20
978.9038041037
 10
902.5564133893
 20
974.1010555428
 10
902.9318630467
 20
970.11033086
 10
903.0991732846
 20
968.3333524864
  0
LWPOLYLINE
  5
18D
330
1F
100
AcDbEntity
  8
0
  6
Continuous
 62
     7
370
    15
100
AcDbPolyline
 90
        6
 70
   128
 43
0.0
 10
528.2747536669
 20
963.5038116377
 10
528.7889629374
 20
967.9636993807
 10
529.3163746367
 20
972.5749829214
 10
529.8610120784
 20
977.4033912819
 10
530.4042190085
 20
982.3016115826
 10
530.4050385724
 20
982.3092111748
  0
LWPOLYLINE
  5
18E
330
1F
100
AcDbEntity
  8
0
  6
Continuous
 62
   144
370
     0
100
AcDbPolyline
 90
       40
 70
   128
 43
0.0
 10
528.834217764
 20
968.359384815
 10
529.2238831292
 20
972.4994042319
 10
529.4519752036
 20
974.9244192045
 10
529.7078132401
 20
977.6461759012
 10
529.991322733
 20
980.6656726998
 10
530.3025036822
 20
983.9841165941
 10
530.6413560878
 20
987.6004794043
 10
531.0961544286
 20
992.458764593
 10
531.5637826691
 20
997.4579849642
 10
532.0241838465
 20
1002.3859181803
 10
532.5144320498
 20
1007.637638728
 10
532.9797208081
 20
1012.6252063912
 10
533.4138661395
 20
1017.2812083166
 10
533.8194757472
 20
1021.6329583328
 10
534.1644972335
 20
1025.3354349535
 10
534.5388889085
 20
1029.3533244532
 10
534.9426507722
 20
1033.6872526806
 10
535.4508548747
 20
1039.1431787413
 10
535.8626484643
 20
1043.5648003023
 10
536.1747532855
 20
1046.917099635
 10
536.387139536
 20
1049.1986015242
 10
536.5728825103
 20
1051.1938223046
 10
536.7592513333
 20
1053.1960466307
 10
536.946231104
 20
1055.2052297991
 10
537.1338367234
 20
1057.2213271063
 10
537.3220532904
 20
1059.2442640465
 10
537.5108957062
 20
1061.2740108174
 10
538.3972912799
 20
1070.8042272728
 10
538.7910395633
 20
1075.0405081909
 10
539.1846686373
 20
1079.2766698998
 10
539.6259665261
 20
1084.0273687046
 10
540.0590836774
 20
1088.6921176117
 10
540.7866030703
 20
1096.5314695042
 10
541.4551287661
 20
1103.7397572201
 10
542.0646160613
 20
1110.3168019455
 10
542.618596531
 20
1116.301018874
 10
543.7007784615
 20
1128.0037054222
 10
544.9049860011
 20
1141.0382875603
 10
546.231532074
 20
1155.4091462296
 10
547.6806849013
 20
1171.1183675926
  0
ARC
  5
18F
330
1F
100
AcDbEntity
  8
0
  6
Continuous
 62
     7
370
    15
100
AcDbCircle
 10
632.0906190475
 20
1174.1939406841
 30
0.0
 40
77.73353249190409
100
AcDbArc
 50
110.6001520677
 51
131.9438035467
  0
ARC
  5
190
330
1F
100
AcDbEntity
  8
0
  6
Continuous
 62
     7
370
    15
100
AcDbCircle
 10
800.6506032477
 20
1175.9058008038
 30
0.0
 40
75.81166812878875
100
AcDbArc
 50
48.2311837867
 51
69.5156551822
  0
ARC
  5
191
330
1F
100
AcDbEntity
  8
0
  6
Continuous
 62
   144
370
     0
100
AcDbCircle
 10
636.670961791
 20
1163.1296448371
 30
0.0
 40
89.34813412808394
100
AcDbArc
 50
123.6321516372
 51
174.8702659573
  0
LWPOLYLINE
  5
192
330
1F
100
AcDbEntity
  8
0
  6
Continuous
 62
   144
370
     0
100
AcDbPolyline
 90
        3
 70
   128
 43
0.0
 10
587.7800076972
 20
1237.9332670372
 10
589.5581632624
 20
1239.1621658009
 10
591.3050859938
 20
1240.1460894745
  0
ARC
  5
193
330
1F
100
AcDbEntity
  8
0
  6
Continuous
 62
   144
370
     0
100
AcDbCircle
 10
795.1836516708
 20
1163.1306082075
 30
0.0
 40
89.424120919748
100
AcDbArc
 50
5.124743732
 51
59.5022313726
  0
ELLIPSE
  5
194
330
1F
100
AcDbEntity
  8
0
  6
Continuous
 62
     7
370
    15
100
AcDbEllipse
 10
938.613173552
 20
473.2928957626
 30
0.0
 11
6.199404110375667
 21
-5.990623600935066
 31
0.0
210
0.0
220
0.0
230
1.0
 40
0.0540865126
 41
1.623013828425715
 42
3.085679500126907
  0
ELLIPSE
  5
195
330
1F
100
AcDbEntity
  8
0
  6
Continuous
 62
     7
370
    15
100
AcDbEllipse
 10
938.613173552
 20
473.2928957626
 30
0.0
 11
5.790032200604288
 21
5.991821856080265
 31
0.0
210
0.0
220
0.0
230
1.0
 40
0.0540865126
 41
1.51488317324979
 42
3.089375151958925
  0
ELLIPSE
  5
196
330
1F
100
AcDbEntity
  8
0
  6
Continuous
 62
     7
370
    15
100
AcDbEllipse
 10
493.3179227177
 20
473.2928957626
 30
0.0
 11
6.19940411037561
 21
5.990623600935123
 31
0.0
210
0.0
220
0.0
230
1.0
 40
0.0540865126
 41
0.0559131536324108
 42
1.518578825164082
  0
ELLIPSE
  5
197
330
1F
100
AcDbEntity
  8
0
  6
Continuous
 62
     7
370
    15
100
AcDbEllipse
 10
493.3179227177
 20
473.2928957626
 30
0.0
 11
-5.790032200604288
 21
5.991821856080265
 31
0.0
210
0.0
220
0.0
230
1.0
 40
0.0540865126
 41
3.193810155220919
 42
4.768302133929797
  0
ARC
  5
198
330
1F
100
AcDbEntity
  8
0
  6
Continuous
 62
     7
370
    15
100
AcDbCircle
 10
971.235000267
 20
188.8287624405
 30
0.0
 40
0.9836024995952631
100
AcDbArc
 50
270.9957003507
 51
0.9665894321
  0
LINE
  5
199
330
1F
100
AcDbEntity
  8
0
  6
Continuous
 62
     7
370
    15
100
AcDbLine
 10
971.2520926963
 20
187.8453084629
 30
0.0
 11
960.9663724671
 21
187.8453084629
 31
0.0
  0
ARC
  5
19A
330
1F
100
AcDbEntity
  8
0
  6
Continuous
 62
     7
370
    15
100
AcDbCircle
 10
960.9492649467
 20
188.8287916779
 30
0.0
 40
0.9836319948562727
100
AcDbArc
 50
270.9965496699
 51
0.9648571524
  0
LINE
  5
19B
330
1F
100
AcDbEntity
  8
0
  6
Continuous
 62
   144
370
     0
100
AcDbLine
 10
972.218462802
 20
190.30566899
 30
0.0
 11
961.932757474
 21
190.30566899
 31
0.0
  0
LINE
  5
19C
330
1F
100
AcDbEntity
  8
0
  6
Continuous
 62
     7
370
    15
100
AcDbLine
 10
972.218462802
 20
188.845355193
 30
0.0
 11
972.218462802
 21
190.30566899
 31
0.0
  0
LINE
  5
19D
330
1F
100
AcDbEntity
  8
0
  6
Continuous
 62
     7
370
    15
100
AcDbLine
 10
961.932757474
 20
188.845355193
 30
0.0
 11
961.932757474
 21
190.30566899
 31
0.0
  0
LINE
  5
19E
330
1F
100
AcDbEntity
  8
0
  6
Continuous
 62
     7
370
    15
100
AcDbLine
 10
961.9297176371
 20
190.3848835629
 30
0.0
 11
961.2800270091
 21
198.8453456562
 31
0.0
  0
ARC
  5
19F
330
1F
100
AcDbEntity
  8
0
  6
Continuous
 62
   144
370
     0
100
AcDbCircle
 10
960.8942453492
 20
190.3054819931
 30
0.0
 40
1.038512141611247
100
AcDbArc
 50
0.0103168085
 51
4.3849452663
  0
LINE
  5
1A0
330
1F
100
AcDbEntity
  8
0
  6
Continuous
 62
     7
370
    15
100
AcDbLine
 10
949.3699013959
 20
187.8453084629
 30
0.0
 11
960.9663724671
 21
187.8453084629
 31
0.0
  0
ARC
  5
1A1
330
1F
100
AcDbEntity
  8
0
  6
Continuous
 62
     7
370
    15
100
AcDbCircle
 10
949.3869938251
 20
188.8287624405
 30
0.0
 40
0.9836024995952631
100
AcDbArc
 50
179.0334105679
 51
269.0042996493
  0
LINE
  5
1A2
330
1F
100
AcDbEntity
  8
0
  6
Continuous
 62
     7
370
    15
100
AcDbLine
 10
948.4035312901
 20
190.30566899
 30
0.0
 11
948.4035312901
 21
188.845355193
 31
0.0
  0
ARC
  5
1A3
330
1F
100
AcDbEntity
  8
0
  6
Continuous
 62
   144
370
     0
100
AcDbCircle
 10
949.4364399145
 20
190.3058907573
 30
0.0
 40
1.032908648157656
100
AcDbArc
 50
175.6139608522
 51
180.0123015051
  0
LINE
  5
1A4
330
1F
100
AcDbEntity
  8
0
  6
Continuous
 62
     7
370
    15
100
AcDbLine
 10
948.8441586266
 20
196.0832664173
 30
0.0
 11
948.4065562258
 21
190.3848835629
 31
0.0
  0
ARC
  5
1A5
330
1F
100
AcDbEntity
  8
0
  6
Continuous
 62
   144
370
     0
100
AcDbCircle
 10
955.1643759923
 20
200.1035355527
 30
0.0
 40
6.243735194179543
100
AcDbArc
 50
247.9127081601
 51
348.3745875556
  0
LINE
  5
1A6
330
1F
100
AcDbEntity
  8
0
  6
Continuous
 62
     7
370
    15
100
AcDbLine
 10
972.2154229651
 20
190.3848835629
 30
0.0
 11
971.5657323371
 21
198.8453456562
 31
0.0
  0
LINE
  5
1A7
330
1F
100
AcDbEntity
  8
0
  6
Continuous
 62
   144
370
     0
100
AcDbLine
 10
972.2154229651
 20
190.3848835629
 30
0.0
 11
961.9297176371
 21
190.3848835629
 31
0.0
  0
LINE
  5
1A8
330
1F
100
AcDbEntity
  8
0
  6
Continuous
 62
   144
370
     0
100
AcDbLine
 10
971.5657323371
 20
198.8453456562
 30
0.0
 11
961.2800270091
 21
198.8453456562
 31
0.0
  0
ARC
  5
1A9
330
1F
100
AcDbEntity
  8
0
  6
Continuous
 62
   144
370
     0
100
AcDbCircle
 10
971.2043407278
 20
190.3064179544
 30
0.0
 40
1.0141223508209
100
AcDbArc
 50
359.9576850804
 51
4.4375769944
  0
LINE
  5
1AA
330
1F
100
AcDbEntity
  8
0
  6
Continuous
 62
     7
370
    15
100
AcDbLine
 10
460.6790035735
 20
187.8453084629
 30
0.0
 11
470.9647238026
 21
187.8453084629
 31
0.0
  0
ARC
  5
1AB
330
1F
100
AcDbEntity
  8
0
  6
Continuous
 62
     7
370
    15
100
AcDbCircle
 10
460.6960960028
 20
188.8287624405
 30
0.0
 40
0.9836024995953687
100
AcDbArc
 50
179.0334105679
 51
269.0042996493
  0
ARC
  5
1AC
330
1F
100
AcDbEntity
  8
0
  6
Continuous
 62
     7
370
    15
100
AcDbCircle
 10
470.981831323
 20
188.8287916779
 30
0.0
 40
0.98363199485625
100
AcDbArc
 50
179.0351428476
 51
269.0034503301
  0
LINE
  5
1AD
330
1F
100
AcDbEntity
  8
0
  6
Continuous
 62
     7
370
    15
100
AcDbLine
 10
483.0875485907
 20
196.0753389996
 30
0.0
 11
483.5245400439
 21
190.3848835629
 31
0.0
  0
ARC
  5
1AE
330
1F
100
AcDbEntity
  8
0
  6
Continuous
 62
     7
370
    15
100
AcDbCircle
 10
482.4946563553
 20
190.3058907573
 30
0.0
 40
1.032908648157542
100
AcDbArc
 50
359.9876984949
 51
4.3860391478
  0
LINE
  5
1AF
330
1F
100
AcDbEntity
  8
0
  6
Continuous
 62
     7
370
    15
100
AcDbLine
 10
483.5275649796
 20
190.30566899
 30
0.0
 11
483.5275649796
 21
188.845355193
 31
0.0
  0
ARC
  5
1B0
330
1F
100
AcDbEntity
  8
0
  6
Continuous
 62
     7
370
    15
100
AcDbCircle
 10
482.5441024446
 20
188.8287624405
 30
0.0
 40
0.9836024995953119
100
AcDbArc
 50
270.9957003507
 51
0.9665894321
  0
LINE
  5
1B1
330
1F
100
AcDbEntity
  8
0
  6
Continuous
 62
     7
370
    15
100
AcDbLine
 10
482.5611948739
 20
187.8453084629
 30
0.0
 11
470.9647238026
 21
187.8453084629
 31
0.0
  0
LINE
  5
1B2
330
1F
100
AcDbEntity
  8
0
  6
Continuous
 62
     7
370
    15
100
AcDbLine
 10
469.9983387957
 20
188.845355193
 30
0.0
 11
469.9983387957
 21
190.30566899
 31
0.0
  0
LINE
  5
1B3
330
1F
100
AcDbEntity
  8
0
  6
Continuous
 62
     7
370
    15
100
AcDbLine
 10
470.0013786326
 20
190.3848835629
 30
0.0
 11
470.6510692607
 21
198.8453456562
 31
0.0
  0
ARC
  5
1B4
330
1F
100
AcDbEntity
  8
0
  6
Continuous
 62
   144
370
     0
100
AcDbCircle
 10
476.7665570911
 20
200.103415389
 30
0.0
 40
6.243551141539715
100
AcDbArc
 50
191.6246341189
 51
292.2050462982
  0
ARC
  5
1B5
330
1F
100
AcDbEntity
  8
0
  6
Continuous
 62
   144
370
     0
100
AcDbCircle
 10
471.0368509205
 20
190.3054819931
 30
0.0
 40
1.038512141611304
100
AcDbArc
 50
175.6150547337
 51
179.9896831915
  0
LINE
  5
1B6
330
1F
100
AcDbEntity
  8
0
  6
Continuous
 62
     7
370
    15
100
AcDbLine
 10
459.7126334677
 20
188.845355193
 30
0.0
 11
459.7126334677
 21
190.30566899
 31
0.0
  0
LINE
  5
1B7
330
1F
100
AcDbEntity
  8
0
  6
Continuous
 62
   144
370
     0
100
AcDbLine
 10
459.7126334677
 20
190.30566899
 30
0.0
 11
469.9983387957
 21
190.30566899
 31
0.0
  0
LINE
  5
1B8
330
1F
100
AcDbEntity
  8
0
  6
Continuous
 62
     7
370
    15
100
AcDbLine
 10
459.7156733046
 20
190.3848835629
 30
0.0
 11
460.3653639327
 21
198.8453456562
 31
0.0
  0
LINE
  5
1B9
330
1F
100
AcDbEntity
  8
0
  6
Continuous
 62
   144
370
     0
100
AcDbLine
 10
460.3653639327
 20
198.8453456562
 30
0.0
 11
470.6510692607
 21
198.8453456562
 31
0.0
  0
LINE
  5
1BA
330
1F
100
AcDbEntity
  8
0
  6
Continuous
 62
   144
370
     0
100
AcDbLine
 10
459.7156733046
 20
190.3848835629
 30
0.0
 11
470.0013786326
 21
190.3848835629
 31
0.0
  0
ARC
  5
1BB
330
1F
100
AcDbEntity
  8
0
  6
Continuous
 62
   144
370
     0
100
AcDbCircle
 10
460.726755542
 20
190.3064179544
 30
0.0
 40
1.014122350820957
100
AcDbArc
 50
175.5624230056
 51
180.0423149196
  0
LINE
  5
1BC
330
1F
100
AcDbEntity
  8
0
  6
Continuous
 62
     7
370
    15
100
AcDbLine
 10
1503.4416831467
 20
925.1922782188
 30
0.0
 11
1501.4383337829
 21
926.071610642
 31
0.0
  0
LWPOLYLINE
  5
1BD
330
1F
100
AcDbEntity
  8
0
  6
Continuous
 62
     7
370
    15
100
AcDbPolyline
 90
        3
 70
   128
 43
0.0
 10
1469.7532869313
 20
947.9953091269
 10
1469.3280673954
 20
948.4371434575
 10
1468.4109642539
 20
949.5224397307
  0
LWPOLYLINE
  5
1BE
330
1F
100
AcDbEntity
  8
0
  6
Continuous
 62
     7
370
    15
100
AcDbPolyline
 90
        3
 70
   128
 43
0.0
 10
1486.7757774327
 20
931.9722097044
 10
1486.978254411
 20
931.8498860722
 10
1487.2559263739
 20
931.6947202807
  0
ARC
  5
1BF
330
1F
100
AcDbEntity
  8
0
  6
Continuous
 62
     7
370
    15
100
AcDbCircle
 10
1506.0200745865
 20
971.896436399
 30
0.0
 40
43.77929690988346
100
AcDbArc
 50
221.9286587455
 51
224.3622185473
  0
LINE
  5
1C0
330
1F
100
AcDbEntity
  8
0
  6
Continuous
 62
     7
370
    15
100
AcDbLine
 10
1474.9222315285
 20
941.0779665833
 30
0.0
 11
1475.2158663604
 21
940.7743256216
 31
0.0
  0
LWPOLYLINE
  5
1C1
330
1F
100
AcDbEntity
  8
0
  6
Continuous
 62
     7
370
    15
100
AcDbPolyline
 90
       30
 70
   128
 43
0.0
 10
1403.9702444706
 20
1255.5363516932
 10
1405.1634083871
 20
1246.1304705267
 10
1406.7266426418
 20
1233.6043756133
 10
1408.1642861847
 20
1222.0808606272
 10
1409.4961258951
 20
1211.5755717879
 10
1410.7143666032
 20
1202.1089534884
 10
1411.788941491
 20
1193.8195269232
 10
1412.7360946867
 20
1186.5260939723
 10
1413.5554909143
 20
1180.2040081149
 10
1414.3393068943
 20
1174.1280298357
 10
1416.2426284883
 20
1159.2240672236
 10
1418.2489748481
 20
1143.6741094714
 10
1420.400952119
 20
1127.5306980734
 10
1421.6787788454
 20
1118.1041638976
 10
1423.004951458
 20
1108.3436052924
 10
1424.4527166147
 20
1097.5884537821
 10
1426.0033267919
 20
1085.7677798396
 10
1427.6088654432
 20
1072.883461011
 10
1429.2310668524
 20
1058.8945489054
 10
1430.4760784279
 20
1047.6465116864
 10
1431.8022980723
 20
1035.7247184639
 10
1433.3037746973
 20
1023.1191407567
 10
1435.1540825582
 20
1009.7830038195
 10
1436.7192664785
 20
1000.4864077692
 10
1438.6933514751
 20
990.852672947
 10
1441.25571534
 20
980.9142093783
 10
1443.6979099545
 20
973.2902537709
 10
1446.7334711361
 20
965.5537347918
 10
1450.5232192013
 20
957.7890675192
 10
1455.2250515107
 20
950.1629959469
  0
ARC
  5
1C2
330
1F
100
AcDbEntity
  8
0
  6
Continuous
 62
     7
370
    15
100
AcDbCircle
 10
1583.9897175523
 20
1138.6144432887
 30
0.0
 40
238.4369174667798
100
AcDbArc
 50
251.6208969806
 51
265.8587151465
  0
LWPOLYLINE
  5
1C3
330
1F
100
AcDbEntity
  8
0
  6
Continuous
 62
     7
370
    15
100
AcDbPolyline
 90
       12
 70
   128
 43
0.0
 10
1579.4750071499
 20
899.8144682174
 10
1586.0009855959
 20
899.3888985043
 10
1601.0257072184
 20
898.7536843543
 10
1617.2232545349
 20
898.3696069246
 10
1631.6043204996
 20
898.2297297245
 10
1646.7771596644
 20
898.2189412837
 10
1662.7330399487
 20
898.2818688875
 10
1679.4651366207
 20
898.3405422097
 10
1696.9996757243
 20
898.3065973645
 10
1715.4913015101
 20
898.2666399007
 10
1734.9127597544
 20
898.4661664491
 10
1748.9085561964
 20
898.8527249222
  0
LWPOLYLINE
  5
1C4
330
1F
100
AcDbEntity
  8
0
  6
Continuous
 62
     7
370
    15
100
AcDbPolyline
 90
        7
 70
   128
 43
0.0
 10
1791.6724748347
 20
900.0649790888
 10
1792.0257813666
 20
900.0728320008
 10
1808.0999917719
 20
899.8008485561
 10
1816.0247571204
 20
899.1794477826
 10
1823.7436778281
 20
898.0230357175
 10
1831.1836786005
 20
896.1654644137
 10
1833.4600395892
 20
895.2974270707
  0
ARC
  5
1C5
330
1F
100
AcDbEntity
  8
0
  6
Continuous
 62
     7
370
    15
100
AcDbCircle
 10
1555.9998623479
 20
1015.9905121875
 30
0.0
 40
120.3816096811188
100
AcDbArc
 50
212.9105004554
 51
222.6494482903
  0
LWPOLYLINE
  5
1C6
330
1F
100
AcDbEntity
  8
0
  6
Continuous
 62
     7
370
    15
100
AcDbPolyline
 90
       27
 70
   128
 43
0.0
 10
1481.569997165
 20
923.43589325
 10
1481.9572559926
 20
923.2018407112
 10
1483.9339509044
 20
922.0966513877
 10
1485.5304948423
 20
921.2580065852
 10
1486.8710331056
 20
920.5871563082
 10
1488.0809515152
 20
920.0052808648
 10
1489.1583874259
 20
919.5048104649
 10
1491.374979857
 20
918.5235690003
 10
1492.7523239884
 20
917.9442789083
 10
1493.9381695721
 20
917.4626733785
 10
1495.0249224338
 20
917.0337285524
 10
1496.0110179517
 20
916.6535328751
 10
1496.9124189947
 20
916.3124080425
 10
1497.7368704412
 20
916.0048257237
 10
1498.6304409239
 20
915.6764264827
 10
1499.583020005
 20
915.3339977985
 10
1500.580064151
 20
914.9840887313
 10
1501.6014344427
 20
914.6326448446
 10
1502.6248685453
 20
914.2856191521
 10
1503.6367244456
 20
913.9493893509
 10
1504.6265266273
 20
913.6302362805
 10
1505.57809988
 20
913.3330698734
 10
1506.4732126329
 20
913.0611609345
 10
1507.2960175011
 20
912.8130416995
 10
1508.0351001952
 20
912.5867899185
 10
1508.6724452112
 20
912.3863842016
 10
1509.1864384148
 20
912.2168685918
  0
ARC
  5
1C7
330
1F
100
AcDbEntity
  8
0
  6
Continuous
 62
     7
370
    15
100
AcDbCircle
 10
1473.7243582308
 20
958.0374641925
 30
0.0
 40
19.7352127752211
100
AcDbArc
 50
212.730139793
 51
216.0761998839
  0
ARC
  5
1C8
330
1F
100
AcDbEntity
  8
0
  6
Continuous
 62
     7
370
    15
100
AcDbCircle
 10
1533.2669822209
 20
996.662894365
 30
0.0
 40
90.60770005621193
100
AcDbArc
 50
216.7530090523
 51
219.3566612936
  0
ARC
  5
1C9
330
1F
100
AcDbEntity
  8
0
  6
Continuous
 62
     7
370
    15
100
AcDbCircle
 10
1513.6840801517
 20
978.8936928061
 30
0.0
 40
64.15606314178626
100
AcDbArc
 50
222.116045397
 51
224.7535774561
  0
LINE
  5
1CA
330
1F
100
AcDbEntity
  8
0
  6
Continuous
 62
     7
370
    15
100
AcDbLine
 10
1833.5011071894
 20
895.3957747345
 30
0.0
 11
1836.8417091105
 21
904.8212956315
 31
0.0
  0
LINE
  5
1CB
330
1F
100
AcDbEntity
  8
0
  6
Continuous
 62
     7
370
    15
100
AcDbLine
 10
1413.8936373774
 20
1256.8000893717
 30
0.0
 11
1403.9737238917
 21
1255.5370073443
 31
0.0
  0
LWPOLYLINE
  5
1CC
330
1F
100
AcDbEntity
  8
0
  6
Continuous
 62
     7
370
    15
100
AcDbPolyline
 90
       13
 70
   128
 43
0.0
 10
1727.2766597006
 20
933.962453497
 10
1710.9192080233
 20
934.050690723
 10
1684.1891623471
 20
933.9241202598
 10
1658.1712580654
 20
933.5659783011
 10
1635.8264900181
 20
933.092017067
 10
1612.1970034573
 20
932.4696030145
 10
1587.5508106682
 20
931.9098781472
 10
1569.2074961398
 20
931.6922168856
 10
1555.5363438461
 20
931.7003752714
 10
1545.4185075495
 20
931.8772073513
 10
1536.4960424039
 20
932.2548772817
 10
1529.0671877
 20
932.7932040816
 10
1527.9322631094
 20
932.9173456555
  0
LINE
  5
1CD
330
1F
100
AcDbEntity
  8
0
  6
Continuous
 62
     7
370
    15
100
AcDbLine
 10
1498.1753222082
 20
940.1230405693
 30
0.0
 11
1499.0349627468
 21
939.7380839711
 31
0.0
  0
LWPOLYLINE
  5
1CE
330
1F
100
AcDbEntity
  8
0
  6
Continuous
 62
     7
370
    15
100
AcDbPolyline
 90
       10
 70
   128
 43
0.0
 10
1510.1002744768
 20
935.9285723095
 10
1504.8884666893
 20
938.1811361437
 10
1499.637521002
 20
940.8008496886
 10
1494.992098901
 20
943.4534500962
 10
1490.9341103766
 20
946.0861723547
 10
1487.4319798682
 20
948.6491124754
 10
1483.1308639977
 20
952.2640447741
 10
1479.8329278264
 20
955.4835151558
 10
1477.4061247144
 20
958.1740092164
 10
1477.3938275311
 20
958.1891189938
  0
LWPOLYLINE
  5
1CF
330
1F
100
AcDbEntity
  8
0
  6
Continuous
 62
     7
370
    15
100
AcDbPolyline
 90
       29
 70
   128
 43
0.0
 10
1827.8382487032
 20
918.4307049637
 10
1827.6811010573
 20
918.9541306024
 10
1826.9835180971
 20
920.2907573109
 10
1826.1846966479
 20
921.3407378321
 10
1825.3715700838
 20
922.139015389
 10
1824.5884544585
 20
922.7418940192
 10
1823.8350517485
 20
923.2114966636
 10
1823.0568535063
 20
923.6124198561
 10
1822.1714563105
 20
923.9958863383
 10
1821.1549885008
 20
924.3833537822
 10
1819.5910520289
 20
924.9185215359
 10
1817.8479737971
 20
925.4612292772
 10
1815.7320983145
 20
926.0690401917
 10
1813.3743173811
 20
926.6973253017
 10
1810.7601470682
 20
927.345466209
 10
1807.8921205733
 20
928.0067201381
 10
1804.7779566977
 20
928.6724071627
 10
1801.4149136279
 20
929.3333854204
 10
1797.956473324
 20
929.9509267931
 10
1794.1853768561
 20
930.5602427249
 10
1790.2254528735
 20
931.1344440704
 10
1786.1032850478
 20
931.6652010804
 10
1781.8535334799
 20
932.1436550146
 10
1777.5091893408
 20
932.5619380599
 10
1773.1033630106
 20
932.9129572635
 10
1769.1596812937
 20
933.1635277396
 10
1764.9260825846
 20
933.3666454678
 10
1760.6151170466
 20
933.5172664051
 10
1759.3434817526
 20
933.5486035471
  0
LWPOLYLINE
  5
1D0
330
1F
100
AcDbEntity
  8
0
  6
Continuous
 62
     7
370
    15
100
AcDbPolyline
 90
       25
 70
   128
 43
0.0
 10
1476.2807554934
 20
960.1025771027
 10
1476.106419358
 20
960.4035805588
 10
1474.5462454293
 20
963.70453049
 10
1473.1616965864
 20
967.31755544
 10
1471.9761154983
 20
971.2233733063
 10
1470.9857247207
 20
975.4686247235
 10
1470.1883449588
 20
980.1123927956
 10
1469.5808730457
 20
985.2389286881
 10
1469.1562570069
 20
990.9817021018
 10
1468.9171082709
 20
997.5900839692
 10
1468.9063719842
 20
1005.1091205006
 10
1469.1432818208
 20
1013.5025124674
 10
1469.6361004743
 20
1023.3240764266
 10
1470.4017519388
 20
1036.0482375746
 10
1471.0052862201
 20
1047.8713851099
 10
1471.2577044401
 20
1057.4287216788
 10
1471.2202540967
 20
1067.4458782797
 10
1470.8864122066
 20
1077.6642005568
 10
1470.2481470439
 20
1088.2950763827
 10
1469.2932918105
 20
1099.4006435996
 10
1468.0056005154
 20
1111.069146884
 10
1466.3628070984
 20
1123.4230737811
 10
1464.4118539426
 20
1136.5860145216
 10
1461.1176058087
 20
1157.6749425059
 10
1459.7710288498
 20
1165.9872274523
  0
LWPOLYLINE
  5
1D1
330
1F
100
AcDbEntity
  8
0
  6
Continuous
 62
     7
370
    15
100
AcDbPolyline
 90
        4
 70
   128
 43
0.0
 10
1759.34434602
 20
933.5336874848
 10
1753.0858285162
 20
933.6891736513
 10
1738.2652229998
 20
933.8726814514
 10
1727.2788352702
 20
933.9148219352
  0
LWPOLYLINE
  5
1D2
330
1F
100
AcDbEntity
  8
0
  6
Continuous
 62
     7
370
    15
100
AcDbPolyline
 90
        3
 70
   128
 43
0.0
 10
1527.9326952431
 20
932.9219054108
 10
1523.6406541798
 20
933.3776648765
 10
1522.6276657913
 20
933.5273097878
  0
LWPOLYLINE
  5
1D3
330
1F
100
AcDbEntity
  8
0
  6
Continuous
 62
     7
370
    15
100
AcDbPolyline
 90
       27
 70
   128
 43
0.0
 10
1459.7563847337
 20
1165.9813563948
 10
1459.7137618247
 20
1166.2442724829
 10
1458.7477530721
 20
1171.8031804686
 10
1457.8006538931
 20
1176.8409054404
 10
1456.8634677116
 20
1181.4326684599
 10
1455.7934656176
 20
1186.2347464686
 10
1454.7084897194
 20
1190.7402317648
 10
1453.4920297
 20
1195.4501311903
 10
1452.2162593338
 20
1200.0678222304
 10
1450.8909910354
 20
1204.5685093527
 10
1449.5274919454
 20
1208.9246850138
 10
1448.1377109322
 20
1213.1089608794
 10
1446.7341575209
 20
1217.0943658476
 10
1445.3297146965
 20
1220.8548526888
 10
1443.9407020244
 20
1224.3665497427
 10
1442.6042564582
 20
1227.5627296095
 10
1441.2457292337
 20
1230.6257228976
 10
1439.905651975
 20
1233.4566455012
 10
1438.5845709029
 20
1236.0505502348
 10
1437.2755446374
 20
1238.4105663424
 10
1435.9554302782
 20
1240.5539791708
 10
1434.5605634289
 20
1242.5255518084
 10
1433.2145726211
 20
1244.0894882803
 10
1431.8099703077
 20
1245.3464608317
 10
1430.3644519668
 20
1246.2989728575
 10
1428.8338028263
 20
1246.9890158301
 10
1427.2880518246
 20
1247.3806481486
  0
LINE
  5
1D4
330
1F
100
AcDbEntity
  8
0
  6
Continuous
 62
     7
370
    15
100
AcDbLine
 10
1827.4439043734
 20
910.4785587316
 30
0.0
 11
1827.7016050551
 21
911.7106984978
 31
0.0
  0
ARC
  5
1D5
330
1F
100
AcDbEntity
  8
0
  6
Continuous
 62
     7
370
    15
100
AcDbCircle
 10
1877.1370819433
 20
904.5615873402
 30
0.0
 40
49.93763475324488
100
AcDbArc
 50
170.9468549115
 51
171.2876557168
  0
ARC
  5
1D6
330
1F
100
AcDbEntity
  8
0
  6
Continuous
 62
     7
370
    15
100
AcDbCircle
 10
1891.5051723804
 20
901.6292631672
 30
0.0
 40
64.58268783666053
100
AcDbArc
 50
168.6739570995
 51
170.4582227329
  0
LINE
  5
1D7
330
1F
100
AcDbEntity
  8
0
  6
Continuous
 62
     7
370
    15
100
AcDbLine
 10
1794.5628530714
 20
188.3638839846
 30
0.0
 11
1799.9406225417
 21
188.3638839846
 31
0.0
  0
LINE
  5
1D8
330
1F
100
AcDbEntity
  8
0
  6
Continuous
 62
     7
370
    15
100
AcDbLine
 10
1799.9406225417
 20
200.3639083033
 30
0.0
 11
1794.5628530714
 21
200.3639083033
 31
0.0
  0
LINE
  5
1D9
330
1F
100
AcDbEntity
  8
0
  6
Continuous
 62
     7
370
    15
100
AcDbLine
 10
1440.5863942947
 20
188.3638839846
 30
0.0
 11
1794.5628530714
 21
188.3638839846
 31
0.0
  0
LINE
  5
1DA
330
1F
100
AcDbEntity
  8
0
  6
Continuous
 62
     7
370
    15
100
AcDbLine
 10
1395.6188626025
 20
188.3638839846
 30
0.0
 11
1400.5394383702
 21
188.3638839846
 31
0.0
  0
LINE
  5
1DB
330
1F
100
AcDbEntity
  8
0
  6
Continuous
 62
     7
370
    15
100
AcDbLine
 10
1794.5628530714
 20
200.3639083033
 30
0.0
 11
1395.6188626025
 21
200.3639083033
 31
0.0
  0
LINE
  5
1DC
330
1F
100
AcDbEntity
  8
0
  6
Continuous
 62
     7
370
    15
100
AcDbLine
 10
1839.5938343737
 20
188.3638839846
 30
0.0
 11
1843.6738021109
 21
188.3638839846
 31
0.0
  0
LINE
  5
1DD
330
1F
100
AcDbEntity
  8
0
  6
Continuous
 62
     7
370
    15
100
AcDbLine
 10
1843.6738021109
 20
200.3639083033
 30
0.0
 11
1799.9406225417
 21
200.3639083033
 31
0.0
  0
ARC
  5
1DE
330
1F
100
AcDbEntity
  8
0
  6
Continuous
 62
     7
370
    15
100
AcDbCircle
 10
1395.6023338813
 20
214.3320785501
 30
0.0
 40
25.96819982578955
100
AcDbArc
 50
169.6821556765
 51
270.0364686823
  0
ARC
  5
1DF
330
1F
100
AcDbEntity
  8
0
  6
Continuous
 62
     7
370
    15
100
AcDbCircle
 10
1395.6011198828
 20
214.331081942
 30
0.0
 40
13.96718490810971
100
AcDbArc
 50
169.6975391136
 51
270.0727836881
  0
LINE
  5
1E0
330
1F
100
AcDbEntity
  8
0
  6
Continuous
 62
     7
370
    15
100
AcDbLine
 10
1490.525665823
 20
879.1803013211
 30
0.0
 11
1370.0540579293
 21
218.9832072382
 31
0.0
  0
LINE
  5
1E1
330
1F
100
AcDbEntity
  8
0
  6
Continuous
 62
     7
370
    15
100
AcDbLine
 10
1381.8591229055
 20
216.8290357714
 30
0.0
 11
1502.3307345245
 21
877.0261298542
 31
0.0
  0
ARC
  5
1E2
330
1F
100
AcDbEntity
  8
0
  6
Continuous
 62
     7
370
    15
100
AcDbCircle
 10
1843.3538079739
 20
213.7381201489
 30
0.0
 40
25.3762538049018
100
AcDbArc
 50
270.7225179725
 51
7.112681699
  0
ARC
  5
1E3
330
1F
100
AcDbEntity
  8
0
  6
Continuous
 62
     7
370
    15
100
AcDbCircle
 10
1843.3375921747
 20
213.7528791706
 30
0.0
 40
13.39319147945466
100
AcDbArc
 50
271.4384498393
 51
7.8633152418
  0
LINE
  5
1E4
330
1F
100
AcDbEntity
  8
0
  6
Continuous
 62
     7
370
    15
100
AcDbLine
 10
1841.2791557047
 20
467.9589908247
 30
0.0
 11
1796.9584531519
 21
876.2413229471
 31
0.0
  0
LINE
  5
1E5
330
1F
100
AcDbEntity
  8
0
  6
Continuous
 62
     7
370
    15
100
AcDbLine
 10
1868.5347802374
 20
216.8802361613
 30
0.0
 11
1841.2791557047
 21
467.9589908247
 31
0.0
  0
LINE
  5
1E6
330
1F
100
AcDbEntity
  8
0
  6
Continuous
 62
     7
370
    15
100
AcDbLine
 10
1829.3492264483
 20
466.6639309054
 30
0.0
 11
1856.604850981
 21
215.5852060442
 31
0.0
  0
LINE
  5
1E7
330
1F
100
AcDbEntity
  8
0
  6
Continuous
 62
     7
370
    15
100
AcDbLine
 10
1785.0285238955
 20
874.9462853795
 30
0.0
 11
1829.3492264483
 21
466.6639309054
 31
0.0
  0
LWPOLYLINE
  5
1E8
330
1F
100
AcDbEntity
  8
0
  6
Continuous
 62
     7
370
    15
100
AcDbPolyline
 90
       15
 70
   128
 43
0.0
 10
1511.4909327958
 20
900.8000831728
 10
1510.0027612779
 20
900.731224907
 10
1507.7797017429
 20
900.3710563903
 10
1505.6004441712
 20
899.7103240018
 10
1503.4796140525
 20
898.754898799
 10
1501.4365232918
 20
897.5111957317
 10
1499.4927189681
 20
895.9880288368
 10
1497.6721099946
 20
894.1991891389
 10
1495.9995254311
 20
892.1649645691
 10
1494.4985016618
 20
889.9118642931
 10
1493.1893489692
 20
887.470815671
 10
1492.0885405872
 20
884.875443173
 10
1491.2085078094
 20
882.1597214466
 10
1490.585851613
 20
879.5014436965
 10
1490.525665823
 20
879.1803013211
  0
LWPOLYLINE
  5
1E9
330
1F
100
AcDbEntity
  8
0
  6
Continuous
 62
     7
370
    15
100
AcDbPolyline
 90
       12
 70
   128
 43
0.0
 10
1502.3307345245
 20
877.0261298542
 10
1502.5404087636
 20
878.0406754141
 10
1503.0952236984
 20
880.0116594558
 10
1503.8135788772
 20
881.8583603626
 10
1504.6694941256
 20
883.5357021218
 10
1505.6308872435
 20
885.006901217
 10
1506.6606170866
 20
886.2443457966
 10
1507.7185771797
 20
887.2316445833
 10
1508.7636030648
 20
887.9645879989
 10
1509.764126632
 20
888.4553130393
 10
1510.7085622284
 20
888.7267749434
 10
1511.4909327958
 20
888.8000812059
  0
LWPOLYLINE
  5
1EA
330
1F
100
AcDbEntity
  8
0
  6
Continuous
 62
     7
370
    15
100
AcDbPolyline
 90
       12
 70
   128
 43
0.0
 10
1796.9584531519
 20
876.2413229471
 10
1796.658760998
 20
879.0018599158
 10
1796.3663704131
 20
881.6954161649
 10
1796.0869438383
 20
884.2695098048
 10
1795.8259350989
 20
886.6739760762
 10
1795.5884105894
 20
888.8619657283
 10
1795.3790194723
 20
890.7908465391
 10
1795.2018446658
 20
892.4230377799
 10
1795.0603432391
 20
893.7267254715
 10
1794.9572272036
 20
894.6765105849
 10
1794.8945529196
 20
895.2538858777
 10
1794.87351248
 20
895.4476009732
  0
LWPOLYLINE
  5
1EB
330
1F
100
AcDbEntity
  8
0
  6
Continuous
 62
     7
370
    15
100
AcDbPolyline
 90
       12
 70
   128
 43
0.0
 10
1782.9436130259
 20
894.1525634056
 10
1782.9646236632
 20
893.95884831
 10
1783.0273277495
 20
893.3814655667
 10
1783.1304139826
 20
892.4316804533
 10
1783.2719452116
 20
891.1279927617
 10
1783.4491200182
 20
889.4958089714
 10
1783.6585111353
 20
887.5669281607
 10
1783.8960356448
 20
885.378931058
 10
1784.1570443842
 20
882.9744647866
 10
1784.4364709589
 20
880.4003785973
 10
1784.7288615439
 20
877.7068223482
 10
1785.0285238955
 20
874.9462853795
  0
LINE
  5
1EC
330
1F
100
AcDbEntity
  8
0
  6
Continuous
 62
     7
370
    15
100
AcDbLine
 10
1533.6171529624
 20
900.8000831728
 30
0.0
 11
1511.4909327958
 21
900.8000831728
 31
0.0
  0
LINE
  5
1ED
330
1F
100
AcDbEntity
  8
0
  6
Continuous
 62
     7
370
    15
100
AcDbLine
 10
1511.4909327958
 20
888.8000812059
 30
0.0
 11
1533.6171529624
 21
888.8000812059
 31
0.0
  0
LINE
  5
1EE
330
1F
100
AcDbEntity
  8
0
  6
Continuous
 62
     7
370
    15
100
AcDbLine
 10
1539.4750154946
 20
900.8000831728
 30
0.0
 11
1533.6171529624
 21
900.8000831728
 31
0.0
  0
LINE
  5
1EF
330
1F
100
AcDbEntity
  8
0
  6
Continuous
 62
     7
370
    15
100
AcDbLine
 10
1533.6171529624
 20
888.8000812059
 30
0.0
 11
1539.4750154946
 21
888.8000812059
 31
0.0
  0
LWPOLYLINE
  5
1F0
330
1F
100
AcDbEntity
  8
0
  6
Continuous
 62
     7
370
    15
100
AcDbPolyline
 90
        3
 70
   128
 43
0.0
 10
1727.8564340803
 20
923.9154722219
 10
1743.7568373415
 20
923.6332218771
 10
1759.6504158709
 20
923.1303300386
  0
LINE
  5
1F1
330
1F
100
AcDbEntity
  8
0
  6
Continuous
 62
     7
370
    15
100
AcDbLine
 10
1727.7771897051
 20
914.0087183242
 30
0.0
 11
1759.2802710268
 21
913.2022451287
 31
0.0
  0
LWPOLYLINE
  5
1F2
330
1F
100
AcDbEntity
  8
0
  6
Continuous
 62
     7
370
    15
100
AcDbPolyline
 90
       17
 70
   128
 43
0.0
 10
1452.3093990419
 20
1165.9917872076
 10
1450.6460010443
 20
1175.2666573649
 10
1448.7606670145
 20
1184.2703561907
 10
1446.6776672188
 20
1193.0132846957
 10
1444.414017852
 20
1201.4820914393
 10
1442.0312900465
 20
1209.4973068362
 10
1439.5596064996
 20
1217.0188467627
 10
1437.0155948117
 20
1224.0551452761
 10
1434.442237295
 20
1230.5571179514
 10
1431.9264862124
 20
1236.4000122672
 10
1429.4983657445
 20
1241.5841262465
 10
1427.179549485
 20
1246.104244483
 10
1425.017401706
 20
1249.8869042521
 10
1423.0627986971
 20
1252.8605501776
 10
1421.3224967379
 20
1255.0216059809
 10
1419.8045964721
 20
1256.3486139899
 10
1418.5315586064
 20
1256.8000893717
  0
LINE
  5
1F3
330
1F
100
AcDbEntity
  8
0
  6
Continuous
 62
     7
370
    15
100
AcDbLine
 10
1418.5315586064
 20
1256.8000893717
 30
0.0
 11
1413.8953565988
 21
1256.8000893717
 31
0.0
  0
LINE
  5
1F4
330
1F
100
AcDbEntity
  8
0
  6
Continuous
 62
     7
370
    15
100
AcDbLine
 10
1418.5312792096
 20
1256.8000893717
 30
0.0
 11
1418.5573059503
 21
1256.7909400588
 31
0.0
  0
LINE
  5
1F5
330
1F
100
AcDbEntity
  8
0
  6
Continuous
 62
     7
370
    15
100
AcDbLine
 10
1534.6071414087
 20
921.2507348185
 30
0.0
 11
1525.9050793383
 21
921.5507249957
 31
0.0
  0
LINE
  5
1F6
330
1F
100
AcDbEntity
  8
0
  6
Continuous
 62
     7
370
    15
100
AcDbLine
 10
1836.8417091105
 20
906.0755412703
 30
0.0
 11
1836.8417091105
 21
904.8249464159
 31
0.0
  0
LWPOLYLINE
  5
1F7
330
1F
100
AcDbEntity
  8
0
  6
Continuous
 62
     7
370
    15
100
AcDbPolyline
 90
       15
 70
   128
 43
0.0
 10
1759.6504158709
 20
923.1303300386
 10
1767.3882908556
 20
922.7162416702
 10
1774.961120579
 20
922.1130277639
 10
1782.3702163432
 20
921.3113378411
 10
1789.5726031992
 20
920.3103746896
 10
1798.5834247801
 20
918.7177683835
 10
1806.9084055159
 20
916.8826829319
 10
1814.4202596876
 20
914.8944060927
 10
1820.957548115
 20
912.8588851219
 10
1826.5130288336
 20
910.8596782809
 10
1830.93292186
 20
909.0501036172
 10
1833.471394274
 20
907.8991751795
 10
1835.3291518423
 20
906.9843481904
 10
1836.4625639651
 20
906.3664044862
 10
1836.8417091105
 20
906.0755412703
  0
LWPOLYLINE
  5
1F8
330
1F
100
AcDbEntity
  8
0
  6
Continuous
 62
     7
370
    15
100
AcDbPolyline
 90
       10
 70
   128
 43
0.0
 10
1525.9050793383
 20
921.5476330047
 10
1542.7305168841
 20
920.9679033285
 10
1559.5521099303
 20
921.1134802227
 10
1576.3754762146
 20
921.4795645004
 10
1593.2019419405
 20
921.9462241655
 10
1610.0318498347
 20
922.4758561378
 10
1626.8633968565
 20
923.0240251546
 10
1660.5257905457
 20
923.8724525695
 10
1694.1908664439
 20
924.1089861517
 10
1727.8564340803
 20
923.9154722219
  0
LWPOLYLINE
  5
1F9
330
1F
100
AcDbEntity
  8
0
  6
Continuous
 62
     7
370
    15
100
AcDbPolyline
 90
        6
 70
   128
 43
0.0
 10
1487.0362124774
 20
931.8000863915
 10
1493.1076161001
 20
928.7587593918
 10
1499.3789113495
 20
926.3551946407
 10
1505.8224863741
 20
924.5017658596
 10
1515.7661653492
 20
922.6045127635
 10
1525.9050793383
 20
921.5476330047
  0
LWPOLYLINE
  5
1FA
330
1F
100
AcDbEntity
  8
0
  6
Continuous
 62
     7
370
    15
100
AcDbPolyline
 90
       20
 70
   128
 43
0.0
 10
1487.0362124774
 20
931.8000863915
 10
1480.5808953378
 20
936.0666017657
 10
1474.8110874925
 20
941.1779980784
 10
1469.8464527163
 20
947.1310566788
 10
1465.8759675357
 20
953.7098299389
 10
1462.85952175
 20
960.8398418551
 10
1460.7724986408
 20
968.2387005215
 10
1459.4221721772
 20
975.7922034388
 10
1458.6429755572
 20
983.4644686108
 10
1458.2949123714
 20
995.7759122973
 10
1458.7342507574
 20
1008.0533664351
 10
1459.6409864161
 20
1020.3106294995
 10
1460.7202775214
 20
1032.5606207972
 10
1461.7188974652
 20
1044.8086600428
 10
1462.7064942751
 20
1065.1782493716
 10
1462.5681314055
 20
1085.4719023829
 10
1461.0844619009
 20
1105.6747775202
 10
1458.559201229
 20
1125.8074085837
 10
1455.5372233871
 20
1145.9065716391
 10
1452.3093990419
 20
1165.9917872076
  0
LWPOLYLINE
  5
1FB
330
1F
100
AcDbEntity
  8
0
  6
Continuous
 62
     7
370
    15
100
AcDbPolyline
 90
       11
 70
   128
 43
0.0
 10
1525.1669726703
 20
911.5928377634
 10
1540.1604018543
 20
911.0268022542
 10
1554.8480219576
 20
911.0891189104
 10
1569.3468368981
 20
911.3797139054
 10
1583.8234789107
 20
911.7571379667
 10
1598.2863671515
 20
912.1912907486
 10
1612.7383477423
 20
912.6623090034
 10
1627.1637297604
 20
913.1382073884
 10
1660.694620702
 20
913.9897193437
 10
1694.2178375456
 20
914.2186905866
 10
1727.7771897051
 20
914.0087183242
  0
LWPOLYLINE
  5
1FC
330
1F
100
AcDbEntity
  8
0
  6
Continuous
 62
     7
370
    15
100
AcDbPolyline
 90
       20
 70
   128
 43
0.0
 10
1562.3110748265
 20
903.4477289443
 10
1562.5370807383
 20
903.3650274997
 10
1563.1885744068
 20
903.2617550021
 10
1564.1941643689
 20
903.1498472815
 10
1565.4418236945
 20
903.0433188801
 10
1566.7882926199
 20
902.9560278779
 10
1568.0782116387
 20
902.8989936834
 10
1569.165459964
 20
902.878571642
 10
1569.9302173588
 20
902.8959687477
 10
1570.2895141575
 20
902.9478098875
 10
1570.2033854458
 20
903.0270989662
 10
1569.6791774962
 20
903.1243364935
 10
1568.7732017968
 20
903.228696776
 10
1567.5868607495
 20
903.329190207
 10
1566.2555910084
 20
903.4157287007
 10
1564.9319953654
 20
903.4798036938
 10
1563.7664861414
 20
903.5149257307
 10
1562.8894782994
 20
903.5169224863
 10
1562.3974270556
 20
903.4844156032
 10
1562.3110748265
 20
903.4477289443
  0
LWPOLYLINE
  5
1FD
330
1F
100
AcDbEntity
  8
0
  6
Continuous
 62
     7
370
    15
100
AcDbPolyline
 90
        6
 70
   128
 43
0.0
 10
1482.0846720967
 20
923.1120314126
 10
1489.0925019417
 20
919.6003045564
 10
1496.2149664197
 20
916.8701808577
 10
1503.4250981543
 20
914.7969450479
 10
1514.3348641131
 20
912.7162661081
 10
1525.1669726703
 20
911.5928377634
  0
LWPOLYLINE
  5
1FE
330
1F
100
AcDbEntity
  8
0
  6
Continuous
 62
     7
370
    15
100
AcDbPolyline
 90
       14
 70
   128
 43
0.0
 10
1759.2802710268
 20
913.2022451287
 10
1766.8727106783
 20
912.7866815453
 10
1774.2619580958
 20
912.1867235427
 10
1781.4531988833
 20
911.3948832875
 10
1788.4041435454
 20
910.4127254014
 10
1797.0484561655
 20
908.8608663207
 10
1804.9880332682
 20
907.085311008
 10
1812.0842642519
 20
905.1813449388
 10
1818.188435528
 20
903.2560478573
 10
1823.3169681761
 20
901.3876583105
 10
1827.3571200106
 20
899.7134234434
 10
1830.309218857
 20
898.3410488492
 10
1832.1557111475
 20
897.3779495483
 10
1832.8345484469
 20
896.9146575456
  0
LWPOLYLINE
  5
1FF
330
1F
100
AcDbEntity
  8
0
  6
Continuous
 62
     7
370
    15
100
AcDbPolyline
 90
        3
 70
   128
 43
0.0
 10
1832.8345484469
 20
896.9146575456
 10
1833.3162135813
 20
895.8195041542
 10
1833.4991998408
 20
895.4001258736
  0
LINE
  5
200
330
1F
100
AcDbEntity
  8
0
  6
Continuous
 62
     7
370
    15
100
AcDbLine
 10
1482.3247335288
 20
922.9963835006
 30
0.0
 11
1482.0947378311
 21
923.1115769272
 31
0.0
  0
LINE
  5
201
330
1F
100
AcDbEntity
  8
0
  6
Continuous
 62
     7
370
    15
100
AcDbLine
 10
1467.4576661918
 20
934.4306479817
 30
0.0
 11
1467.636286411
 21
934.2278655296
 31
0.0
  0
LWPOLYLINE
  5
202
330
1F
100
AcDbEntity
  8
0
  6
Continuous
 62
     7
370
    15
100
AcDbPolyline
 90
        4
 70
   128
 43
0.0
 10
1408.6810938451
 20
1255.5478553896
 10
1406.0430388335
 20
1255.5425207739
 10
1404.4866013709
 20
1255.5385570651
 10
1403.9754691902
 20
1255.5370371466
  0
LWPOLYLINE
  5
203
330
1F
100
AcDbEntity
  8
0
  6
Continuous
 62
     7
370
    15
100
AcDbPolyline
 90
       17
 70
   128
 43
0.0
 10
1442.8326786864
 20
1164.7080521708
 10
1441.1661360781
 20
1173.9670078879
 10
1439.2720145542
 20
1182.9664449816
 10
1437.1760495841
 20
1191.7129795676
 10
1434.8969935153
 20
1200.1858990317
 10
1432.4969857834
 20
1208.203558219
 10
1430.0055775229
 20
1215.7251279479
 10
1427.4378708932
 20
1222.7609496241
 10
1424.8345951918
 20
1229.2671244269
 10
1422.283933628
 20
1235.1193766718
 10
1419.8193635229
 20
1240.3141598826
 10
1417.4647323224
 20
1244.8438148623
 10
1415.2687519226
 20
1248.6334781771
 10
1413.2834720794
 20
1251.6110580092
 10
1411.5158814374
 20
1253.7731568938
 10
1409.9742967073
 20
1255.0987641936
 10
1408.6810938451
 20
1255.5478553896
  0
LWPOLYLINE
  5
204
330
1F
100
AcDbEntity
  8
0
  6
Continuous
 62
     7
370
    15
100
AcDbPolyline
 90
       22
 70
   128
 43
0.0
 10
1482.0846720967
 20
923.1120314126
 10
1476.9628114436
 20
926.3350035673
 10
1472.1372901831
 20
930.0235401516
 10
1467.6401346359
 20
934.2082481509
 10
1463.5491176877
 20
938.8694207793
 10
1459.9785778109
 20
943.8875805264
 10
1456.9514739696
 20
949.2037187939
 10
1453.4061096046
 20
957.6014618998
 10
1451.0205454562
 20
966.0950641757
 10
1449.531509671
 20
974.5045046931
 10
1448.6998935599
 20
982.8536998158
 10
1448.3563165549
 20
995.9583174115
 10
1448.8417181555
 20
1008.7564479237
 10
1449.7968360219
 20
1021.2810527211
 10
1450.9115825776
 20
1033.5775505429
 10
1451.9332043264
 20
1045.6824194317
 10
1452.9612372998
 20
1065.6060617094
 10
1452.8883110169
 20
1085.3259008055
 10
1451.500297654
 20
1104.9258749609
 10
1449.0455157492
 20
1124.7279684668
 10
1446.0532377843
 20
1144.6901600485
 10
1442.8326786864
 20
1164.7080521708
  0
LWPOLYLINE
  5
205
330
1F
100
AcDbEntity
  8
0
  6
Continuous
 62
   144
370
     0
100
AcDbPolyline
 90
       20
 70
   128
 43
0.0
 10
1760.9085805151
 20
904.0892164832
 10
1761.1346311304
 20
903.9876278167
 10
1761.7883152697
 20
903.9077575927
 10
1762.7940542433
 20
903.8581143742
 10
1764.0355593893
 20
903.8428481346
 10
1765.3729684088
 20
903.8620929842
 10
1766.6579253409
 20
903.9127494817
 10
1767.7477962706
 20
903.9893116479
 10
1768.5200638506
 20
904.0843587046
 10
1768.8858873579
 20
904.1888381963
 10
1768.8015467856
 20
904.2922969585
 10
1768.2753271792
 20
904.3834101086
 10
1767.3678762648
 20
904.4511433368
 10
1766.1845452521
 20
904.4864516383
 10
1764.8608751032
 20
904.4840451007
 10
1763.5448343489
 20
904.4434543376
 10
1762.381172869
 20
904.3692465549
 10
1761.4987559054
 20
904.2703922515
 10
1760.9984643195
 20
904.1591550832
 10
1760.9085805151
 20
904.0892164832
  0
LINE
  5
206
330
1F
100
AcDbEntity
  8
0
  6
Continuous
 62
     7
370
    15
100
AcDbLine
 10
1527.0633316967
 20
933.0142181044
 30
0.0
 11
1521.5556017492
 21
933.7745573049
 31
0.0
  0
LWPOLYLINE
  5
207
330
1F
100
AcDbEntity
  8
0
  6
Continuous
 62
     7
370
    15
100
AcDbPolyline
 90
       11
 70
   128
 43
0.0
 10
1476.2741766307
 20
960.0827138548
 10
1478.3003955517
 20
956.6526006585
 10
1482.8761733506
 20
950.8711885338
 10
1488.5612718198
 20
945.8152990466
 10
1492.0566558275
 20
943.423021925
 10
1495.7616507444
 20
941.3090984946
 10
1500.65050194
 20
939.039487732
 10
1505.7480327222
 20
937.1692131882
 10
1511.1016474101
 20
935.6420155292
 10
1516.5676988098
 20
934.4603608971
 10
1522.6523421142
 20
933.6212392574
  0
ARC
  5
208
330
1F
100
AcDbEntity
  8
0
  6
Continuous
 62
     7
370
    15
100
AcDbCircle
 10
1821.2080661808
 20
916.0050170477
 30
0.0
 40
7.1071345921549
100
AcDbArc
 50
346.3243601164
 51
20.0519189907
  0
LINE
  5
209
330
1F
100
AcDbEntity
  8
0
  6
Continuous
 62
   144
370
     0
100
AcDbLine
 10
1488.9442055855
 20
931.3208352452
 30
0.0
 11
1490.9683755967
 21
935.0681792622
 31
0.0
  0
ARC
  5
20A
330
1F
100
AcDbEntity
  8
0
  6
Continuous
 62
   144
370
     0
100
AcDbCircle
 10
1513.9268168849
 20
979.4035606068
 30
0.0
 40
54.18560090590978
100
AcDbArc
 50
196.1704383133
 51
242.5447119916
  0
LINE
  5
20B
330
1F
100
AcDbEntity
  8
0
  6
Continuous
 62
   144
370
     0
100
AcDbLine
 10
1488.9387294087
 20
931.323733521
 30
0.0
 11
1490.8442973528
 21
934.8509054308
 31
0.0
  0
LWPOLYLINE
  5
20C
330
1F
100
AcDbEntity
  8
0
  6
Continuous
 62
   144
370
     0
100
AcDbPolyline
 90
       11
 70
   128
 43
0.0
 10
1488.9387294087
 20
931.323733521
 10
1491.4238370392
 20
930.0481047159
 10
1494.1247768137
 20
928.8022409802
 10
1497.0431953106
 20
927.6032786494
 10
1500.1795432899
 20
926.4680411344
 10
1503.5331613753
 20
925.4118840819
 10
1507.1032709811
 20
924.4488220339
 10
1511.5979305837
 20
923.4475012546
 10
1516.6843674514
 20
922.5604276782
 10
1521.1438677642
 20
921.9622056609
 10
1526.475741658
 20
921.4240949278
  0
ARC
  5
20D
330
1F
100
AcDbEntity
  8
0
  6
Continuous
 62
   144
370
     0
100
AcDbCircle
 10
1529.0658401723
 20
914.2020586241
 30
0.0
 40
43.44261974088585
100
AcDbArc
 50
148.9738714996
 51
151.6202612886
  0
LWPOLYLINE
  5
20E
330
1F
100
AcDbEntity
  8
0
  6
Continuous
 62
   144
370
     0
100
AcDbPolyline
 90
        3
 70
   128
 43
0.0
 10
1491.8384543989
 20
936.5936409359
 10
1491.4283520911
 20
935.8949999934
 10
1490.9683755967
 20
935.0681792622
  0
LINE
  5
20F
330
1F
100
AcDbEntity
  8
0
  6
Continuous
 62
     7
370
    15
100
AcDbLine
 10
1427.284465767
 20
1247.3366897231
 30
0.0
 11
1426.4439047683
 21
1247.3972182398
 31
0.0
  0
LWPOLYLINE
  5
210
330
1F
100
AcDbEntity
  8
0
  6
Continuous
 62
     7
370
    15
100
AcDbPolyline
 90
        3
 70
   128
 43
0.0
 10
1827.697343323
 20
911.6923030143
 10
1827.696508858
 20
911.6864915615
 10
1827.7405864928
 20
911.9931351071
  0
LWPOLYLINE
  5
211
330
1F
100
AcDbEntity
  8
0
  6
Continuous
 62
     7
370
    15
100
AcDbPolyline
 90
        3
 70
   128
 43
0.0
 10
1828.2420999739
 20
916.9459234601
 10
1828.2420701716
 20
916.9470633989
 10
1827.8823859427
 20
918.4512164121
  0
ARC
  5
212
330
1F
100
AcDbEntity
  8
0
  6
Continuous
 62
     7
370
    15
100
AcDbCircle
 10
1788.908566224
 20
894.8000826709
 30
0.0
 40
5.999999999999976
100
AcDbArc
 50
6.1954301776
 51
186.1954301776
  0
ARC
  5
213
330
1F
100
AcDbEntity
  8
0
  6
Continuous
 62
     7
370
    15
100
AcDbCircle
 10
1539.4750143937
 20
894.8000826709
 30
0.0
 40
6.0
100
AcDbArc
 50
301.5371250693
 51
90.0
  0
ARC
  5
214
330
1F
100
AcDbEntity
  8
0
  6
Continuous
 62
     7
370
    15
100
AcDbCircle
 10
1539.4750143937
 20
894.8000826709
 30
0.0
 40
5.999999999999886
100
AcDbArc
 50
270.0
 51
301.5371250693
  0
LINE
  5
215
330
1F
100
AcDbEntity
  8
0
  6
Continuous
 62
     7
370
    15
100
AcDbLine
 10
1783.7124235365
 20
897.8000845437
 30
0.0
 11
1760.9085805151
 21
897.8000845437
 31
0.0
  0
LINE
  5
216
330
1F
100
AcDbEntity
  8
0
  6
Continuous
 62
   144
370
     0
100
AcDbLine
 10
1788.9085776541
 20
900.8000831728
 30
0.0
 11
1760.9085805151
 21
900.8000831728
 31
0.0
  0
LINE
  5
217
330
1F
100
AcDbEntity
  8
0
  6
Continuous
 62
     7
370
    15
100
AcDbLine
 10
1760.9085805151
 20
897.8000845437
 30
0.0
 11
1748.9085561964
 21
897.8000845437
 31
0.0
  0
LINE
  5
218
330
1F
100
AcDbEntity
  8
0
  6
Continuous
 62
     7
370
    15
100
AcDbLine
 10
1748.9085561964
 20
897.8000845437
 30
0.0
 11
1748.9085561964
 21
900.8000831728
 31
0.0
  0
LINE
  5
219
330
1F
100
AcDbEntity
  8
0
  6
Continuous
 62
   144
370
     0
100
AcDbLine
 10
1760.9085805151
 20
900.8000831728
 30
0.0
 11
1748.9085561964
 21
900.8000831728
 31
0.0
  0
LINE
  5
21A
330
1F
100
AcDbEntity
  8
0
  6
Continuous
 62
     7
370
    15
100
AcDbLine
 10
1579.4750071499
 20
897.8000845437
 30
0.0
 11
1579.4750071499
 21
900.8000831728
 31
0.0
  0
LINE
  5
21B
330
1F
100
AcDbEntity
  8
0
  6
Continuous
 62
     7
370
    15
100
AcDbLine
 10
1579.4750071499
 20
897.8000845437
 30
0.0
 11
1567.4750126335
 21
897.8000845437
 31
0.0
  0
LINE
  5
21C
330
1F
100
AcDbEntity
  8
0
  6
Continuous
 62
   144
370
     0
100
AcDbLine
 10
1579.4750071499
 20
900.8000831728
 30
0.0
 11
1567.4750126335
 21
900.8000831728
 31
0.0
  0
LINE
  5
21D
330
1F
100
AcDbEntity
  8
0
  6
Continuous
 62
     7
370
    15
100
AcDbLine
 10
1567.4750126335
 20
897.8000845437
 30
0.0
 11
1544.6711696122
 21
897.8000845437
 31
0.0
  0
LINE
  5
21E
330
1F
100
AcDbEntity
  8
0
  6
Continuous
 62
   144
370
     0
100
AcDbLine
 10
1567.4750126335
 20
900.8000831728
 30
0.0
 11
1539.4750154946
 21
900.8000831728
 31
0.0
  0
LINE
  5
21F
330
1F
100
AcDbEntity
  8
0
  6
Continuous
 62
     7
370
    15
100
AcDbLine
 10
1800.7634944651
 20
181.8638782626
 30
0.0
 11
1839.4184179041
 21
181.8638782626
 31
0.0
  0
ARC
  5
220
330
1F
100
AcDbEntity
  8
0
  6
Continuous
 62
     7
370
    15
100
AcDbCircle
 10
1799.8554660176
 20
182.6304336162
 30
0.0
 40
1.188327720628867
100
AcDbArc
 50
319.8290260665
 51
11.3316241253
  0
ARC
  5
221
330
1F
100
AcDbEntity
  8
0
  6
Continuous
 62
     7
370
    15
100
AcDbCircle
 10
1838.5104285914
 20
182.630458276
 30
0.0
 40
1.188313725008625
100
AcDbArc
 50
319.8269003281
 51
11.3305467193
  0
LINE
  5
222
330
1F
100
AcDbEntity
  8
0
  6
Continuous
 62
     7
370
    15
100
AcDbLine
 10
1801.0206289027
 20
182.8639249926
 30
0.0
 11
1801.0206289027
 21
184.3242387896
 31
0.0
  0
LINE
  5
223
330
1F
100
AcDbEntity
  8
0
  6
Continuous
 62
   144
370
     0
100
AcDbLine
 10
1801.0206289027
 20
184.3242387896
 30
0.0
 11
1839.675582144
 21
184.3242387896
 31
0.0
  0
LINE
  5
224
330
1F
100
AcDbEntity
  8
0
  6
Continuous
 62
     7
370
    15
100
AcDbLine
 10
1839.675582144
 20
182.8639249926
 30
0.0
 11
1839.675582144
 21
184.3242387896
 31
0.0
  0
LINE
  5
225
330
1F
100
AcDbEntity
  8
0
  6
Continuous
 62
     7
370
    15
100
AcDbLine
 10
1801.01982424
 20
184.4034533625
 30
0.0
 11
1800.8469409678
 21
192.8639154559
 31
0.0
  0
ARC
  5
226
330
1F
100
AcDbEntity
  8
0
  6
Continuous
 62
   144
370
     0
100
AcDbCircle
 10
1797.034861864
 20
184.3233626874
 30
0.0
 40
3.985767134929278
100
AcDbArc
 50
0.0125940524
 51
1.1513885221
  0
LINE
  5
227
330
1F
100
AcDbEntity
  8
0
  6
Continuous
 62
     7
370
    15
100
AcDbLine
 10
1797.6777620051
 20
181.8638782626
 30
0.0
 11
1800.7634944651
 21
181.8638782626
 31
0.0
  0
ARC
  5
228
330
1F
100
AcDbEntity
  8
0
  6
Continuous
 62
     7
370
    15
100
AcDbCircle
 10
1798.5858553606
 20
182.6304503055
 30
0.0
 40
1.188388084449193
100
AcDbArc
 50
168.6697797205
 51
220.1695700877
  0
LINE
  5
229
330
1F
100
AcDbEntity
  8
0
  6
Continuous
 62
     7
370
    15
100
AcDbLine
 10
1797.4206275675
 20
184.3242387896
 30
0.0
 11
1797.4206275675
 21
182.8639249926
 31
0.0
  0
ARC
  5
22A
330
1F
100
AcDbEntity
  8
0
  6
Continuous
 62
     7
370
    15
100
AcDbCircle
 10
1801.4063946062
 20
184.3233626874
 30
0.0
 40
3.985767134929506
100
AcDbArc
 50
178.8486114779
 51
179.9874059476
  0
LINE
  5
22B
330
1F
100
AcDbEntity
  8
0
  6
Continuous
 62
     7
370
    15
100
AcDbLine
 10
1797.5023753378
 20
188.3638839846
 30
0.0
 11
1797.4214322302
 21
184.4034533625
 31
0.0
  0
LWPOLYLINE
  5
22C
330
1F
100
AcDbEntity
  8
0
  6
Continuous
 62
   144
370
     0
100
AcDbPolyline
 90
        9
 70
   128
 43
0.0
 10
1800.8469409678
 20
192.8639154559
 10
1800.7061547968
 20
191.3847069865
 10
1800.4778988097
 20
190.0809149867
 10
1800.1756138537
 20
189.0293102389
 10
1799.817062113
 20
188.2918219691
 10
1799.4234330389
 20
187.9119019633
 10
1799.0178532336
 20
187.9119019633
 10
1798.6241943571
 20
188.2918219691
 10
1798.5777623389
 20
188.3638839846
  0
LINE
  5
22D
330
1F
100
AcDbEntity
  8
0
  6
Continuous
 62
     7
370
    15
100
AcDbLine
 10
1839.674747679
 20
184.4034533625
 30
0.0
 11
1839.5018942091
 21
192.8639154559
 31
0.0
  0
LINE
  5
22E
330
1F
100
AcDbEntity
  8
0
  6
Continuous
 62
   144
370
     0
100
AcDbLine
 10
1800.8469409678
 20
192.8639154559
 30
0.0
 11
1839.5018942091
 21
192.8639154559
 31
0.0
  0
LINE
  5
22F
330
1F
100
AcDbEntity
  8
0
  6
Continuous
 62
   144
370
     0
100
AcDbLine
 10
1801.01982424
 20
184.4034533625
 30
0.0
 11
1839.674747679
 21
184.4034533625
 31
0.0
  0
ARC
  5
230
330
1F
100
AcDbEntity
  8
0
  6
Continuous
 62
     7
370
    15
100
AcDbCircle
 10
1839.6406026569
 20
184.3276366227
 30
0.0
 40
3.565023467273092
100
AcDbArc
 50
178.7814086611
 51
180.0546087645
  0
ARC
  5
231
330
1F
100
AcDbEntity
  8
0
  6
Continuous
 62
   144
370
     0
100
AcDbCircle
 10
1835.7928283784
 20
184.3229486257
 30
0.0
 40
3.882753979968686
100
AcDbArc
 50
0.0190382769
 51
1.1880516312
  0
LINE
  5
232
330
1F
100
AcDbEntity
  8
0
  6
Continuous
 62
     7
370
    15
100
AcDbLine
 10
1440.6979360055
 20
185.4541640406
 30
0.0
 11
1440.6948393579
 21
188.3638839846
 31
0.0
  0
ARC
  5
233
330
1F
100
AcDbEntity
  8
0
  6
Continuous
 62
   144
370
     0
100
AcDbCircle
 10
1354.6883957154
 20
185.3633294399
 30
0.0
 40
86.00958825527182
100
AcDbArc
 50
0.0003951426
 51
0.0605100004
  0
LINE
  5
234
330
1F
100
AcDbEntity
  8
0
  6
Continuous
 62
     7
370
    15
100
AcDbLine
 10
1440.6979839686
 20
182.8639249926
 30
0.0
 11
1440.6979839686
 21
185.3639226084
 31
0.0
  0
ARC
  5
235
330
1F
100
AcDbEntity
  8
0
  6
Continuous
 62
     7
370
    15
100
AcDbCircle
 10
1419.4054173097
 20
182.6139299588
 30
0.0
 40
21.29403419835732
100
AcDbArc
 50
357.981421104
 51
0.6726761713
  0
LINE
  5
236
330
1F
100
AcDbEntity
  8
0
  6
Continuous
 62
     7
370
    15
100
AcDbLine
 10
1440.545281991
 20
181.8638782626
 30
0.0
 11
1440.6862376626
 21
181.8638782626
 31
0.0
  0
ARC
  5
237
330
1F
100
AcDbEntity
  8
0
  6
Continuous
 62
     7
370
    15
100
AcDbCircle
 10
1461.828195855
 20
182.6139545487
 30
0.0
 40
21.29612727652434
100
AcDbArc
 50
179.3274561072
 51
182.0184466174
  0
LINE
  5
238
330
1F
100
AcDbEntity
  8
0
  6
Continuous
 62
     7
370
    15
100
AcDbLine
 10
1440.533535685
 20
185.3639226084
 30
0.0
 11
1440.533535685
 21
182.8639249926
 31
0.0
  0
ARC
  5
239
330
1F
100
AcDbEntity
  8
0
  6
Continuous
 62
   144
370
     0
100
AcDbCircle
 10
1526.5431239382
 20
185.3633294399
 30
0.0
 40
86.00958825527182
100
AcDbArc
 50
179.9394899996
 51
179.9996048574
  0
LINE
  5
23A
330
1F
100
AcDbEntity
  8
0
  6
Continuous
 62
     7
370
    15
100
AcDbLine
 10
1440.5414700877
 20
192.8639154559
 30
0.0
 11
1440.5335836481
 21
185.4541640406
 31
0.0
  0
LWPOLYLINE
  5
23B
330
1F
100
AcDbEntity
  8
0
  6
Continuous
 62
     7
370
    15
100
AcDbPolyline
 90
        9
 70
   128
 43
0.0
 10
1440.6451258246
 20
188.3638839846
 10
1440.6430052031
 20
188.2918219691
 10
1440.6250236924
 20
187.9119019633
 10
1440.6064964268
 20
187.9119019633
 10
1440.5885144505
 20
188.2918219691
 10
1440.5721366774
 20
189.0293102389
 10
1440.5583279576
 20
190.0809149867
 10
1440.54790087
 20
191.3847069865
 10
1440.5414700877
 20
192.8639154559
  0
LINE
  5
23C
330
1F
100
AcDbEntity
  8
0
  6
Continuous
 62
     7
370
    15
100
AcDbLine
 10
1440.545281991
 20
181.8638782626
 30
0.0
 11
1400.5480400655
 21
181.8638782626
 31
0.0
  0
ARC
  5
23D
330
1F
100
AcDbEntity
  8
0
  6
Continuous
 62
     7
370
    15
100
AcDbCircle
 10
1421.8346742964
 20
182.6139883298
 30
0.0
 40
21.29984652509212
100
AcDbArc
 50
179.3276644244
 51
182.0181849492
  0
LINE
  5
23E
330
1F
100
AcDbEntity
  8
0
  6
Continuous
 62
   144
370
     0
100
AcDbLine
 10
1440.533535685
 20
185.3639226084
 30
0.0
 11
1400.5362942252
 21
185.3639226084
 31
0.0
  0
LINE
  5
23F
330
1F
100
AcDbEntity
  8
0
  6
Continuous
 62
     7
370
    15
100
AcDbLine
 10
1400.5362942252
 20
185.3639226084
 30
0.0
 11
1400.5362942252
 21
182.8639249926
 31
0.0
  0
LINE
  5
240
330
1F
100
AcDbEntity
  8
0
  6
Continuous
 62
     7
370
    15
100
AcDbLine
 10
1440.5414700877
 20
192.8639154559
 30
0.0
 11
1400.5442290935
 21
192.8639154559
 31
0.0
  0
LINE
  5
241
330
1F
100
AcDbEntity
  8
0
  6
Continuous
 62
     7
370
    15
100
AcDbLine
 10
1400.5442290935
 20
192.8639154559
 30
0.0
 11
1400.536342654
 21
185.4541640406
 31
0.0
  0
LINE
  5
242
330
1F
100
AcDbEntity
  8
0
  6
Continuous
 62
   144
370
     0
100
AcDbLine
 10
1440.5335836481
 20
185.4541640406
 30
0.0
 11
1400.536342654
 21
185.4541640406
 31
0.0
  0
ARC
  5
243
330
1F
100
AcDbEntity
  8
0
  6
Continuous
 62
   144
370
     0
100
AcDbCircle
 10
1319.5662881164
 20
185.3655018943
 30
0.0
 40
81.13445533912612
100
AcDbArc
 50
359.998884735
 51
0.0626117199
  0
LINE
  5
244
330
1F
100
AcDbEntity
  8
0
  6
Continuous
 62
   144
370
     0
100
AcDbLine
 10
1400.536342654
 20
185.4541640406
 30
0.0
 11
1400.5362942252
 21
185.3639226084
 31
0.0
  0
ENDSEC
  0
SECTION
  2
OBJECTS
  0
DICTIONARY
  5
C
330
0
100
AcDbDictionary
281
     1
  3
ACAD_GROUP
350
D
  3
ACAD_LAYOUT
350
1A
  3
ACAD_MLINESTYLE
350
17
  3
ACAD_PLOTSETTINGS
350
19
  3
ACAD_PLOTSTYLENAME
350
E
  3
ACAD_SCALELIST
350
47
  0
DICTIONARY
  5
D
102
{ACAD_REACTORS
330
C
102
}
330
C
100
AcDbDictionary
281
     1
  0
DICTIONARY
  5
1A
102
{ACAD_REACTORS
330
C
102
}
330
C
100
AcDbDictionary
281
     1
  3
Layout1
350
1E
  3
Layout2
350
26
  3
Model
350
22
  0
DICTIONARY
  5
17
102
{ACAD_REACTORS
330
C
102
}
330
C
100
AcDbDictionary
281
     1
  3
Standard
350
18
  0
DICTIONARY
  5
19
102
{ACAD_REACTORS
330
C
102
}
330
C
100
AcDbDictionary
281
     1
  0
ACDBDICTIONARYWDFLT
  5
E
102
{ACAD_REACTORS
330
C
102
}
330
C
100
AcDbDictionary
281
     1
  3
Normal
350
F
100
AcDbDictionaryWithDefault
340
F
  0
DICTIONARY
  5
47
102
{ACAD_REACTORS
330
C
102
}
330
C
100
AcDbDictionary
281
     1
  3
A0
350
48
  3
A1
350
49
  3
A2
350
4A
  3
A3
350
4B
  3
A4
350
4C
  3
A5
350
4D
  3
A6
350
4E
  3
A7
350
4F
  3
A8
350
50
  3
A9
350
51
  3
B0
350
52
  3
B1
350
53
  3
B2
350
54
  3
B3
350
55
  3
B4
350
56
  3
B5
350
57
  3
B6
350
58
  3
B7
350
59
  3
B8
350
5A
  3
B9
350
5B
  3
C0
350
5C
  3
C1
350
5D
  3
C2
350
5E
  3
C3
350
5F
  3
C4
350
60
  3
C5
350
61
  3
C6
350
62
  3
C7
350
63
  3
C8
350
64
  3
C9
350
65
  3
D0
350
66
  3
D1
350
67
  3
D2
350
68
  0
LAYOUT
  5
1E
102
{ACAD_REACTORS
330
1A
102
}
330
1A
100
AcDbPlotSettings
  1

  2
none_device
  4

  6

 40
0.0
 41
0.0
 42
0.0
 43
0.0
 44
0.0
 45
0.0
 46
0.0
 47
0.0
 48
0.0
 49
0.0
140
0.0
141
0.0
142
1.0
143
1.0
 70
   688
 72
     1
 73
     0
 74
     5
  7

 75
    16
147
1.0
148
0.0
149
0.0
100
AcDbLayout
  1
Layout1
 70
     1
 71
     1
 10
0.0
 20
0.0
 11
420.0
 21
297.0
 12
0.0
 22
0.0
 32
0.0
 14
1.0000000000E+20
 24
1.0000000000E+20
 34
1.0000000000E+20
 15
-1.0000000000E+20
 25
-1.0000000000E+20
 35
-1.0000000000E+20
146
0.0
 13
0.0
 23
0.0
 33
0.0
 16
1.0
 26
0.0
 36
0.0
 17
0.0
 27
1.0
 37
0.0
 76
     0
330
1B
  0
LAYOUT
  5
26
102
{ACAD_REACTORS
330
1A
102
}
330
1A
100
AcDbPlotSettings
  1

  2
none_device
  4

  6

 40
0.0
 41
0.0
 42
0.0
 43
0.0
 44
0.0
 45
0.0
 46
0.0
 47
0.0
 48
0.0
 49
0.0
140
0.0
141
0.0
142
1.0
143
1.0
 70
   688
 72
     1
 73
     0
 74
     5
  7

 75
    16
147
1.0
148
0.0
149
0.0
100
AcDbLayout
  1
Layout2
 70
     1
 71
     2
 10
0.0
 20
0.0
 11
0.0
 21
0.0
 12
0.0
 22
0.0
 32
0.0
 14
0.0
 24
0.0
 34
0.0
 15
0.0
 25
0.0
 35
0.0
146
0.0
 13
0.0
 23
0.0
 33
0.0
 16
1.0
 26
0.0
 36
0.0
 17
0.0
 27
1.0
 37
0.0
 76
     0
330
23
  0
LAYOUT
  5
22
102
{ACAD_REACTORS
330
1A
102
}
330
1A
100
AcDbPlotSettings
  1

  2
none_device
  4
Letter_(8.50_x_11.00_Inches)
  6

 40
6.35
 41
6.35
 42
6.35000508
 43
6.35000508
 44
215.9
 45
279.4
 46
0.0
 47
0.0
 48
0.0
 49
0.0
140
0.0
141
0.0
142
1.0
143
1.0
 70
  1712
 72
     1
 73
     0
 74
     0
  7

 75
     0
147
1.0
148
0.0
149
0.0
100
AcDbLayout
  1
Model
 70
     1
 71
     0
 10
0.0
 20
0.0
 11
4000.0
 21
4000.0
 12
0.0
 22
0.0
 32
0.0
 14
0.0
 24
0.0
 34
0.0
 15
4000.0
 25
4000.0
 35
0.0
146
0.0
 13
0.0
 23
0.0
 33
0.0
 16
1.0
 26
0.0
 36
0.0
 17
0.0
 27
1.0
 37
0.0
 76
     0
330
1F
331
29
  0
MLINESTYLE
  5
18
102
{ACAD_REACTORS
330
17
102
}
330
17
100
AcDbMlineStyle
  2
Standard
 70
     0
  3

 62
   256
 51
90.0
 52
90.0
 71
     2
 49
0.5
 62
   256
  6
BYLAYER
 49
-0.5
 62
   256
  6
BYLAYER
  0
ACDBPLACEHOLDER
  5
F
102
{ACAD_REACTORS
330
E
102
}
330
E
  0
SCALE
  5
48
102
{ACAD_REACTORS
330
47
102
}
330
47
100
AcDbScale
 70
     0
300
1:1
140
1.0
141
1.0
290
     1
  0
SCALE
  5
49
102
{ACAD_REACTORS
330
47
102
}
330
47
100
AcDbScale
 70
     0
300
1:2
140
1.0
141
2.0
290
     0
  0
SCALE
  5
4A
102
{ACAD_REACTORS
330
47
102
}
330
47
100
AcDbScale
 70
     0
300
1:4
140
1.0
141
4.0
290
     0
  0
SCALE
  5
4B
102
{ACAD_REACTORS
330
47
102
}
330
47
100
AcDbScale
 70
     0
300
1:5
140
1.0
141
5.0
290
     0
  0
SCALE
  5
4C
102
{ACAD_REACTORS
330
47
102
}
330
47
100
AcDbScale
 70
     0
300
1:8
140
1.0
141
8.0
290
     0
  0
SCALE
  5
4D
102
{ACAD_REACTORS
330
47
102
}
330
47
100
AcDbScale
 70
     0
300
1:10
140
1.0
141
10.0
290
     0
  0
SCALE
  5
4E
102
{ACAD_REACTORS
330
47
102
}
330
47
100
AcDbScale
 70
     0
300
1:16
140
1.0
141
16.0
290
     0
  0
SCALE
  5
4F
102
{ACAD_REACTORS
330
47
102
}
330
47
100
AcDbScale
 70
     0
300
1:20
140
1.0
141
20.0
290
     0
  0
SCALE
  5
50
102
{ACAD_REACTORS
330
47
102
}
330
47
100
AcDbScale
 70
     0
300
1:30
140
1.0
141
30.0
290
     0
  0
SCALE
  5
51
102
{ACAD_REACTORS
330
47
102
}
330
47
100
AcDbScale
 70
     0
300
1:40
140
1.0
141
40.0
290
     0
  0
SCALE
  5
52
102
{ACAD_REACTORS
330
47
102
}
330
47
100
AcDbScale
 70
     0
300
1:50
140
1.0
141
50.0
290
     0
  0
SCALE
  5
53
102
{ACAD_REACTORS
330
47
102
}
330
47
100
AcDbScale
 70
     0
300
1:100
140
1.0
141
100.0
290
     0
  0
SCALE
  5
54
102
{ACAD_REACTORS
330
47
102
}
330
47
100
AcDbScale
 70
     0
300
2:1
140
2.0
141
1.0
290
     0
  0
SCALE
  5
55
102
{ACAD_REACTORS
330
47
102
}
330
47
100
AcDbScale
 70
     0
300
4:1
140
4.0
141
1.0
290
     0
  0
SCALE
  5
56
102
{ACAD_REACTORS
330
47
102
}
330
47
100
AcDbScale
 70
     0
300
8:1
140
8.0
141
1.0
290
     0
  0
SCALE
  5
57
102
{ACAD_REACTORS
330
47
102
}
330
47
100
AcDbScale
 70
     0
300
10:1
140
10.0
141
1.0
290
     0
  0
SCALE
  5
58
102
{ACAD_REACTORS
330
47
102
}
330
47
100
AcDbScale
 70
     0
300
100:1
140
100.0
141
1.0
290
     0
  0
SCALE
  5
59
102
{ACAD_REACTORS
330
47
102
}
330
47
100
AcDbScale
 70
     0
300
1/128" = 1'-0"
140
0.0078125
141
12.0
290
     0
  0
SCALE
  5
5A
102
{ACAD_REACTORS
330
47
102
}
330
47
100
AcDbScale
 70
     0
300
1/64" = 1'-0"
140
0.015625
141
12.0
290
     0
  0
SCALE
  5
5B
102
{ACAD_REACTORS
330
47
102
}
330
47
100
AcDbScale
 70
     0
300
1/32" = 1'-0"
140
0.03125
141
12.0
290
     0
  0
SCALE
  5
5C
102
{ACAD_REACTORS
330
47
102
}
330
47
100
AcDbScale
 70
     0
300
1/16" = 1'-0"
140
0.0625
141
12.0
290
     0
  0
SCALE
  5
5D
102
{ACAD_REACTORS
330
47
102
}
330
47
100
AcDbScale
 70
     0
300
3/32" = 1'-0"
140
0.09375
141
12.0
290
     0
  0
SCALE
  5
5E
102
{ACAD_REACTORS
330
47
102
}
330
47
100
AcDbScale
 70
     0
300
1/8" = 1'-0"
140
0.125
141
12.0
290
     0
  0
SCALE
  5
5F
102
{ACAD_REACTORS
330
47
102
}
330
47
100
AcDbScale
 70
     0
300
3/16" = 1'-0"
140
0.1875
141
12.0
290
     0
  0
SCALE
  5
60
102
{ACAD_REACTORS
330
47
102
}
330
47
100
AcDbScale
 70
     0
300
1/4" = 1'-0"
140
0.25
141
12.0
290
     0
  0
SCALE
  5
61
102
{ACAD_REACTORS
330
47
102
}
330
47
100
AcDbScale
 70
     0
300
3/8" = 1'-0"
140
0.375
141
12.0
290
     0
  0
SCALE
  5
62
102
{ACAD_REACTORS
330
47
102
}
330
47
100
AcDbScale
 70
     0
300
1/2" = 1'-0"
140
0.5
141
12.0
290
     0
  0
SCALE
  5
63
102
{ACAD_REACTORS
330
47
102
}
330
47
100
AcDbScale
 70
     0
300
3/4" = 1'-0"
140
0.75
141
12.0
290
     0
  0
SCALE
  5
64
102
{ACAD_REACTORS
330
47
102
}
330
47
100
AcDbScale
 70
     0
300
1" = 1'-0"
140
1.0
141
12.0
290
     0
  0
SCALE
  5
65
102
{ACAD_REACTORS
330
47
102
}
330
47
100
AcDbScale
 70
     0
300
1-1/2" = 1'-0"
140
1.5
141
12.0
290
     0
  0
SCALE
  5
66
102
{ACAD_REACTORS
330
47
102
}
330
47
100
AcDbScale
 70
     0
300
3" = 1'-0"
140
3.0
141
12.0
290
     0
  0
SCALE
  5
67
102
{ACAD_REACTORS
330
47
102
}
330
47
100
AcDbScale
 70
     0
300
6" = 1'-0"
140
6.0
141
12.0
290
     0
  0
SCALE
  5
68
102
{ACAD_REACTORS
330
47
102
}
330
47
100
AcDbScale
 70
     0
300
1'-0" = 1'-0"
140
12.0
141
12.0
290
     0
  0
ENDSEC
  0
EOF
