  0
SECTION
  2
HEADER
  9
$ACADVER
  1
AC1012
  9
$DWGCODEPAGE
  3
ansi_1252
  9
$INSBASE
 10
0.0
 20
0.0
 30
0.0
  9
$EXTMIN
 10
0.0
 20
0.0
 30
0.0
  9
$EXTMAX
 10
2000.0
 20
2000.0
 30
0.0
  9
$LIMMIN
 10
0.0
 20
0.0
  9
$LIMMAX
 10
2000.0
 20
2000.0
  9
$ORTHOMODE
 70
     0
  9
$REGENMODE
 70
     1
  9
$FILLMODE
 70
     1
  9
$QTEXTMODE
 70
     0
  9
$MIRRTEXT
 70
     1
  9
$DRAGMODE
 70
     2
  9
$LTSCALE
 40
1.0
  9
$OSMODE
 70
    37
  9
$ATTMODE
 70
     1
  9
$TEXTSIZE
 40
3.5
  9
$TRACEWID
 40
1.0
  9
$TEXTSTYLE
  7
STANDARD
  9
$CLAYER
  8
0
  9
$CELTYPE
  6
BYLAYER
  9
$CECOLOR
 62
   256
  9
$CELTSCALE
 40
1.0
  9
$DELOBJ
 70
     1
  9
$DISPSILH
 70
     0
  9
$DIMSCALE
 40
1.0
  9
$DIMASZ
 40
3.556
  9
$DIMEXO
 40
1.0
  9
$DIMDLI
 40
3.75
  9
$DIMRND
 40
0.0
  9
$DIMDLE
 40
0.0
  9
$DIMEXE
 40
1.0
  9
$DIMTP
 40
0.0
  9
$DIMTM
 40
0.0
  9
$DIMTXT
 40
3.5
  9
$DIMCEN
 40
2.5
  9
$DIMTSZ
 40
0.0
  9
$DIMTOL
 70
     0
  9
$DIMLIM
 70
     0
  9
$DIMTIH
 70
     1
  9
$DIMTOH
 70
     1
  9
$DIMSE1
 70
     0
  9
$DIMSE2
 70
     0
  9
$DIMTAD
 70
     1
  9
$DIMZIN
 70
     0
  9
$DIMBLK
  1

  9
$DIMASO
 70
     1
  9
$DIMSHO
 70
     1
  9
$DIMPOST
  1

  9
$DIMAPOST
  1

  9
$DIMALT
 70
     0
  9
$DIMALTD
 70
     3
  9
$DIMALTF
 40
0.0393700787
  9
$DIMLFAC
 40
1.0
  9
$DIMTOFL
 70
     1
  9
$DIMTVP
 40
0.0
  9
$DIMTIX
 70
     0
  9
$DIMSOXD
 70
     0
  9
$DIMSAH
 70
     0
  9
$DIMBLK1
  1

  9
$DIMBLK2
  1

  9
$DIMSTYLE
  2
ISO-25
  9
$DIMCLRD
 70
     0
  9
$DIMCLRE
 70
     0
  9
$DIMCLRT
 70
     0
  9
$DIMTFAC
 40
1.0
  9
$DIMGAP
 40
1.524
  9
$DIMJUST
 70
     0
  9
$DIMSD1
 70
     0
  9
$DIMSD2
 70
     0
  9
$DIMTOLJ
 70
     0
  9
$DIMTZIN
 70
     0
  9
$DIMALTZ
 70
     0
  9
$DIMALTTZ
 70
     0
  9
$DIMFIT
 70
     3
  9
$DIMUPT
 70
     0
  9
$DIMUNIT
 70
     2
  9
$DIMDEC
 70
     2
  9
$DIMTDEC
 70
     2
  9
$DIMALTU
 70
     2
  9
$DIMALTTD
 70
     3
  9
$DIMTXSTY
  7
STANDARD
  9
$DIMAUNIT
 70
     0
  9
$LUNITS
 70
     2
  9
$LUPREC
 70
     2
  9
$SKETCHINC
 40
1.0
  9
$FILLETRAD
 40
10.0
  9
$AUNITS
 70
     0
  9
$AUPREC
 70
     2
  9
$MENU
  1
.
  9
$ELEVATION
 40
0.0
  9
$PELEVATION
 40
0.0
  9
$THICKNESS
 40
0.0
  9
$LIMCHECK
 70
     0
  9
$CHAMFERA
 40
0.0
  9
$CHAMFERB
 40
0.0
  9
$CHAMFERC
 40
0.0
  9
$CHAMFERD
 40
0.0
  9
$SKPOLY
 70
     0
  9
$TDCREATE
 40
2458597.572876794
  9
$TDUPDATE
 40
2458597.572877014
  9
$TDINDWG
 40
0.0000000116
  9
$TDUSRTIMER
 40
0.0000000116
  9
$USRTIMER
 70
     1
  9
$ANGBASE
 50
0.0
  9
$ANGDIR
 70
     0
  9
$PDMODE
 70
     0
  9
$PDSIZE
 40
-1.0
  9
$PLINEWID
 40
0.0
  9
$COORDS
 70
     1
  9
$SPLFRAME
 70
     0
  9
$SPLINETYPE
 70
     6
  9
$SPLINESEGS
 70
     8
  9
$ATTDIA
 70
     0
  9
$ATTREQ
 70
     1
  9
$HANDLING
 70
     1
  9
$HANDSEED
  5
691
  9
$SURFTAB1
 70
     6
  9
$SURFTAB2
 70
     6
  9
$SURFTYPE
 70
     6
  9
$SURFU
 70
     6
  9
$SURFV
 70
     6
  9
$UCSNAME
  2

  9
$UCSORG
 10
0.0
 20
0.0
 30
0.0
  9
$UCSXDIR
 10
1.0
 20
0.0
 30
0.0
  9
$UCSYDIR
 10
0.0
 20
1.0
 30
0.0
  9
$PUCSNAME
  2

  9
$PUCSORG
 10
0.0
 20
0.0
 30
0.0
  9
$PUCSXDIR
 10
1.0
 20
0.0
 30
0.0
  9
$PUCSYDIR
 10
0.0
 20
1.0
 30
0.0
  9
$USERI1
 70
     0
  9
$USERI2
 70
     0
  9
$USERI3
 70
     0
  9
$USERI4
 70
     0
  9
$USERI5
 70
     0
  9
$USERR1
 40
0.0
  9
$USERR2
 40
0.0
  9
$USERR3
 40
0.0
  9
$USERR4
 40
0.0
  9
$USERR5
 40
0.0
  9
$WORLDVIEW
 70
     1
  9
$SHADEDGE
 70
     3
  9
$SHADEDIF
 70
    70
  9
$TILEMODE
 70
     1
  9
$MAXACTVP
 70
    64
  9
$PINSBASE
 10
0.0
 20
0.0
 30
0.0
  9
$PLIMCHECK
 70
     0
  9
$PEXTMIN
 10
1.0000000000E+20
 20
1.0000000000E+20
 30
1.0000000000E+20
  9
$PEXTMAX
 10
-1.0000000000E+20
 20
-1.0000000000E+20
 30
-1.0000000000E+20
  9
$PLIMMIN
 10
0.0
 20
0.0
  9
$PLIMMAX
 10
420.0
 20
297.0
  9
$UNITMODE
 70
     0
  9
$VISRETAIN
 70
     1
  9
$PLINEGEN
 70
     0
  9
$PSLTSCALE
 70
     1
  9
$TREEDEPTH
 70
  3020
  9
$PICKSTYLE
 70
     1
  9
$CMLSTYLE
  2
STANDARD
  9
$CMLJUST
 70
     0
  9
$CMLSCALE
 40
20.0
  9
$SAVEIMAGES
 70
     1
  0
ENDSEC
  0
SECTION
  2
CLASSES
  0
CLASS
  1
ACDBDICTIONARYWDFLT
  2
AcDbDictionaryWithDefault
  3
ObjectDBX Classes
 90
    32768
280
     0
281
     0
  0
CLASS
  1
VISUALSTYLE
  2
AcDbVisualStyle
  3
ObjectDBX Classes
 90
     4095
280
     0
281
     0
  0
CLASS
  1
MATERIAL
  2
AcDbMaterial
  3
ObjectDBX Classes
 90
     1153
280
     0
281
     0
  0
CLASS
  1
SCALE
  2
AcDbScale
  3
ObjectDBX Classes
 90
     1153
280
     0
281
     0
  0
CLASS
  1
TABLESTYLE
  2
AcDbTableStyle
  3
ObjectDBX Classes
 90
     4095
280
     0
281
     0
  0
CLASS
  1
MLEADERSTYLE
  2
AcDbMLeaderStyle
  3
ACDB_MLEADERSTYLE_CLASS
 90
     4095
280
     0
281
     0
  0
CLASS
  1
SUN
  2
AcDbSun
  3
SCENEOE
 90
     1153
280
     0
281
     0
  0
CLASS
  1
XRECORD
  2
AcDbXrecord
  3
ObjectDBX Classes
 90
    32768
280
     0
281
     0
  0
ENDSEC
  0
SECTION
  2
TABLES
  0
TABLE
  2
VPORT
  5
8
330
0
100
AcDbSymbolTable
 70
     1
  0
VPORT
  5
29
330
8
100
AcDbSymbolTableRecord
100
AcDbViewportTableRecord
  2
*ACTIVE
 70
     0
 10
0.0
 20
0.0
 11
1.0
 21
1.0
 12
1000.0
 22
1000.0
 13
0.0
 23
0.0
 14
10.0
 24
10.0
 15
10.0
 25
10.0
 16
0.0
 26
0.0
 36
1.0
 17
0.0
 27
0.0
 37
0.0
 40
2000.0
 41
1.0
 42
50.0
 43
0.0
 44
0.0
 50
0.0
 51
0.0
 71
     0
 72
  2000
 73
     1
 74
     3
 75
     0
 76
     0
 77
     0
 78
     0
  0
ENDTAB
  0
TABLE
  2
LTYPE
  5
5
330
0
100
AcDbSymbolTable
 70
     6
  0
LTYPE
  5
14
330
5
100
AcDbSymbolTableRecord
100
AcDbLinetypeTableRecord
  2
BYBLOCK
 70
     0
  3

 72
    65
 73
     0
 40
0.0
  0
LTYPE
  5
15
330
5
100
AcDbSymbolTableRecord
100
AcDbLinetypeTableRecord
  2
BYLAYER
 70
     0
  3

 72
    65
 73
     0
 40
0.0
  0
LTYPE
  5
16
330
5
100
AcDbSymbolTableRecord
100
AcDbLinetypeTableRecord
  2
CONTINUOUS
 70
     0
  3
Solid line
 72
    65
 73
     0
 40
0.0
  0
LTYPE
  5
6E
330
5
100
AcDbSymbolTableRecord
100
AcDbLinetypeTableRecord
  2
HIDDEN
 70
     0
  3
Hidden __ __ __ __ __ __ __ __ __ __ __ __ __ __
 72
    65
 73
     2
 40
1.905
 49
1.27
 74
     0
 49
-0.635
 74
     0
  0
LTYPE
  5
6F
330
5
100
AcDbSymbolTableRecord
100
AcDbLinetypeTableRecord
  2
PHANTOM
 70
     0
  3
Phantom ______  __  __  ______  __  __  ______
 72
    65
 73
     6
 40
12.7
 49
6.35
 74
     0
 49
-1.27
 74
     0
 49
1.27
 74
     0
 49
-1.27
 74
     0
 49
1.27
 74
     0
 49
-1.27
 74
     0
  0
LTYPE
  5
70
330
5
100
AcDbSymbolTableRecord
100
AcDbLinetypeTableRecord
  2
CENTER
 70
     0
  3
Center ____ _ ____ _ ____ _ ____ _ ____ _ ____
 72
    65
 73
     4
 40
10.16
 49
6.35
 74
     0
 49
-1.27
 74
     0
 49
1.27
 74
     0
 49
-1.27
 74
     0
  0
LTYPE
  5
71
330
5
100
AcDbSymbolTableRecord
100
AcDbLinetypeTableRecord
  2
CENTERX2
 70
     0
  3
Center (2x) ________  __  ________  __  _____
 72
    65
 73
     4
 40
20.32
 49
12.7
 74
     0
 49
-2.54
 74
     0
 49
2.54
 74
     0
 49
-2.54
 74
     0
  0
LTYPE
  5
72
330
5
100
AcDbSymbolTableRecord
100
AcDbLinetypeTableRecord
  2
DOT2
 70
     0
  3
Dot (.5x) ........................................
 72
    65
 73
     2
 40
0.635
 49
0.0
 74
     0
 49
-0.635
 74
     0
  0
ENDTAB
  0
TABLE
  2
LAYER
  5
2
330
0
100
AcDbSymbolTable
 70
     1
  0
LAYER
  5
10
330
2
100
AcDbSymbolTableRecord
100
AcDbLayerTableRecord
  2
0
 70
     0
 62
     7
  6
CONTINUOUS
  0
ENDTAB
  0
TABLE
  2
STYLE
  5
3
330
0
100
AcDbSymbolTable
 70
     1
  0
STYLE
  5
11
330
3
100
AcDbSymbolTableRecord
100
AcDbTextStyleTableRecord
  2
STANDARD
 70
     0
 40
0.0
 41
1.0
 50
0.0
 71
     0
 42
3.5
  3
txt
  4

  0
ENDTAB
  0
TABLE
  2
VIEW
  5
6
330
0
100
AcDbSymbolTable
 70
     0
  0
ENDTAB
  0
TABLE
  2
UCS
  5
7
330
0
100
AcDbSymbolTable
 70
     0
  0
ENDTAB
  0
TABLE
  2
APPID
  5
9
330
0
100
AcDbSymbolTable
 70
     1
  0
APPID
  5
12
330
9
100
AcDbSymbolTableRecord
100
AcDbRegAppTableRecord
  2
ACAD
 70
     0
  0
ENDTAB
  0
TABLE
  2
DIMSTYLE
  5
A
330
0
100
AcDbSymbolTable
 70
     1
  0
DIMSTYLE
105
27
330
A
100
AcDbSymbolTableRecord
100
AcDbDimStyleTableRecord
  2
ISO-25
 70
     0
  3

  4

  5

  6

  7

 40
1.0
 41
2.5
 42
0.625
 43
3.75
 44
1.25
 45
0.0
 46
0.0
 47
0.0
 48
0.0
140
2.5
141
2.5
142
0.0
143
0.0393700787
144
1.0
145
0.0
146
1.0
147
0.625
 71
     0
 72
     0
 73
     0
 74
     0
 75
     0
 76
     0
 77
     1
 78
     8
170
     0
171
     3
172
     1
173
     0
174
     0
175
     0
176
     0
177
     0
178
     0
270
     2
271
     2
272
     2
273
     2
274
     3
340
11
275
     0
280
     0
281
     0
282
     0
283
     0
284
     8
285
     0
286
     0
287
     3
288
     0
  0
ENDTAB
  0
TABLE
  2
BLOCK_RECORD
  5
1
330
0
100
AcDbSymbolTable
 70
     1
  0
BLOCK_RECORD
  5
1F
330
1
100
AcDbSymbolTableRecord
100
AcDbBlockTableRecord
  2
*MODEL_SPACE
  0
BLOCK_RECORD
  5
1B
330
1
100
AcDbSymbolTableRecord
100
AcDbBlockTableRecord
  2
*PAPER_SPACE
  0
BLOCK_RECORD
  5
23
330
1
100
AcDbSymbolTableRecord
100
AcDbBlockTableRecord
  2
*PAPER_SPACE0
  0
ENDTAB
  0
ENDSEC
  0
SECTION
  2
BLOCKS
  0
BLOCK
  5
20
330
1F
100
AcDbEntity
  8
0
100
AcDbBlockBegin
  2
*MODEL_SPACE
 70
     0
 10
0.0
 20
0.0
 30
0.0
  3
*MODEL_SPACE
  1

  0
ENDBLK
  5
21
330
1F
100
AcDbEntity
  8
0
100
AcDbBlockEnd
  0
BLOCK
  5
1C
330
1B
100
AcDbEntity
 67
     1
  8
0
100
AcDbBlockBegin
  2
*PAPER_SPACE
 70
     0
 10
0.0
 20
0.0
 30
0.0
  3
*PAPER_SPACE
  1

  0
ENDBLK
  5
1D
330
1B
100
AcDbEntity
 67
     1
  8
0
100
AcDbBlockEnd
  0
BLOCK
  5
24
330
23
100
AcDbEntity
  8
0
100
AcDbBlockBegin
  2
*PAPER_SPACE0
 70
     0
 10
0.0
 20
0.0
 30
0.0
  3
*PAPER_SPACE0
  1

  0
ENDBLK
  5
25
330
23
100
AcDbEntity
  8
0
100
AcDbBlockEnd
  0
ENDSEC
  0
SECTION
  2
ENTITIES
  0
POLYLINE
  5
73
330
1F
100
AcDbEntity
  8
0
  6
CONTINUOUS
 62
     7
100
AcDb2dPolyline
 66
     1
 10
0.0
 20
0.0
 30
0.0
 70
   128
  0
VERTEX
  5
1DE
330
73
100
AcDbEntity
  8
0
  6
CONTINUOUS
 62
     7
100
AcDbVertex
100
AcDb2dVertex
 10
752.5000063723
 20
569.7128816476
 30
0.0
  0
VERTEX
  5
1DF
330
73
100
AcDbEntity
  8
0
  6
CONTINUOUS
 62
     7
100
AcDbVertex
100
AcDb2dVertex
 10
749.1390693397
 20
569.2234112984
 30
0.0
  0
VERTEX
  5
1E0
330
73
100
AcDbEntity
  8
0
  6
CONTINUOUS
 62
     7
100
AcDbVertex
100
AcDb2dVertex
 10
743.0994635132
 20
568.3642398444
 30
0.0
  0
VERTEX
  5
1E1
330
73
100
AcDbEntity
  8
0
  6
CONTINUOUS
 62
     7
100
AcDbVertex
100
AcDb2dVertex
 10
737.6235056557
 20
567.6043571851
 30
0.0
  0
VERTEX
  5
1E2
330
73
100
AcDbEntity
  8
0
  6
CONTINUOUS
 62
     7
100
AcDbVertex
100
AcDb2dVertex
 10
732.7083795362
 20
566.9412438432
 30
0.0
  0
VERTEX
  5
1E3
330
73
100
AcDbEntity
  8
0
  6
CONTINUOUS
 62
     7
100
AcDbVertex
100
AcDb2dVertex
 10
728.3524109076
 20
566.3720146191
 30
0.0
  0
VERTEX
  5
1E4
330
73
100
AcDbEntity
  8
0
  6
CONTINUOUS
 62
     7
100
AcDbVertex
100
AcDb2dVertex
 10
725.1489978542
 20
565.9651292164
 30
0.0
  0
VERTEX
  5
1E5
330
73
100
AcDbEntity
  8
0
  6
CONTINUOUS
 62
     7
100
AcDbVertex
100
AcDb2dVertex
 10
722.3332270592
 20
565.616003939
 30
0.0
  0
VERTEX
  5
1E6
330
73
100
AcDbEntity
  8
0
  6
CONTINUOUS
 62
     7
100
AcDbVertex
100
AcDb2dVertex
 10
719.9051669415
 20
565.3216380506
 30
0.0
  0
VERTEX
  5
1E7
330
73
100
AcDbEntity
  8
0
  6
CONTINUOUS
 62
     7
100
AcDbVertex
100
AcDb2dVertex
 10
718.338666796
 20
565.1351545442
 30
0.0
  0
VERTEX
  5
1E8
330
73
100
AcDbEntity
  8
0
  6
CONTINUOUS
 62
     7
100
AcDbVertex
100
AcDb2dVertex
 10
716.9904630133
 20
564.9768809971
 30
0.0
  0
VERTEX
  5
1E9
330
73
100
AcDbEntity
  8
0
  6
CONTINUOUS
 62
     7
100
AcDbVertex
100
AcDb2dVertex
 10
715.3645585866
 20
564.7886486236
 30
0.0
  0
VERTEX
  5
1EA
330
73
100
AcDbEntity
  8
0
  6
CONTINUOUS
 62
     7
100
AcDbVertex
100
AcDb2dVertex
 10
713.2860642143
 20
564.5513700757
 30
0.0
  0
VERTEX
  5
1EB
330
73
100
AcDbEntity
  8
0
  6
CONTINUOUS
 62
     7
100
AcDbVertex
100
AcDb2dVertex
 10
710.576279155
 20
564.2472560899
 30
0.0
  0
VERTEX
  5
1EC
330
73
100
AcDbEntity
  8
0
  6
CONTINUOUS
 62
     7
100
AcDbVertex
100
AcDb2dVertex
 10
707.2338381317
 20
563.8802039311
 30
0.0
  0
VERTEX
  5
1ED
330
73
100
AcDbEntity
  8
0
  6
CONTINUOUS
 62
     7
100
AcDbVertex
100
AcDb2dVertex
 10
703.0529951062
 20
563.4336343768
 30
0.0
  0
VERTEX
  5
1EE
330
73
100
AcDbEntity
  8
0
  6
CONTINUOUS
 62
     7
100
AcDbVertex
100
AcDb2dVertex
 10
698.5515993008
 20
562.9685552538
 30
0.0
  0
VERTEX
  5
1EF
330
73
100
AcDbEntity
  8
0
  6
CONTINUOUS
 62
     7
100
AcDbVertex
100
AcDb2dVertex
 10
694.019151239
 20
562.5169158827
 30
0.0
  0
VERTEX
  5
1F0
330
73
100
AcDbEntity
  8
0
  6
CONTINUOUS
 62
     7
100
AcDbVertex
100
AcDb2dVertex
 10
669.1864708826
 20
560.3250766176
 30
0.0
  0
VERTEX
  5
1F1
330
73
100
AcDbEntity
  8
0
  6
CONTINUOUS
 62
     7
100
AcDbVertex
100
AcDb2dVertex
 10
654.7300786871
 20
559.2428796095
 30
0.0
  0
VERTEX
  5
1F2
330
73
100
AcDbEntity
  8
0
  6
CONTINUOUS
 62
     7
100
AcDbVertex
100
AcDb2dVertex
 10
639.6969163895
 20
558.2624662797
 30
0.0
  0
VERTEX
  5
1F3
330
73
100
AcDbEntity
  8
0
  6
CONTINUOUS
 62
     7
100
AcDbVertex
100
AcDb2dVertex
 10
623.6680303857
 20
557.3831386907
 30
0.0
  0
VERTEX
  5
1F4
330
73
100
AcDbEntity
  8
0
  6
CONTINUOUS
 62
     7
100
AcDbVertex
100
AcDb2dVertex
 10
606.6443334475
 20
556.643573699
 30
0.0
  0
VERTEX
  5
1F5
330
73
100
AcDbEntity
  8
0
  6
CONTINUOUS
 62
     7
100
AcDbVertex
100
AcDb2dVertex
 10
597.3320315452
 20
556.3293988101
 30
0.0
  0
VERTEX
  5
1F6
330
73
100
AcDbEntity
  8
0
  6
CONTINUOUS
 62
     7
100
AcDbVertex
100
AcDb2dVertex
 10
587.7497254333
 20
556.0750033588
 30
0.0
  0
VERTEX
  5
1F7
330
73
100
AcDbEntity
  8
0
  6
CONTINUOUS
 62
     7
100
AcDbVertex
100
AcDb2dVertex
 10
577.8989588938
 20
555.8836245033
 30
0.0
  0
VERTEX
  5
1F8
330
73
100
AcDbEntity
  8
0
  6
CONTINUOUS
 62
     7
100
AcDbVertex
100
AcDb2dVertex
 10
567.7813067505
 20
555.7568583185
 30
0.0
  0
VERTEX
  5
1F9
330
73
100
AcDbEntity
  8
0
  6
CONTINUOUS
 62
     7
100
AcDbVertex
100
AcDb2dVertex
 10
557.7154318291
 20
555.6927026305
 30
0.0
  0
VERTEX
  5
1FA
330
73
100
AcDbEntity
  8
0
  6
CONTINUOUS
 62
     7
100
AcDbVertex
100
AcDb2dVertex
 10
548.1294417226
 20
555.6814206692
 30
0.0
  0
VERTEX
  5
1FB
330
73
100
AcDbEntity
  8
0
  6
CONTINUOUS
 62
     7
100
AcDbVertex
100
AcDb2dVertex
 10
537.8241951002
 20
555.7221761325
 30
0.0
  0
VERTEX
  5
1FC
330
73
100
AcDbEntity
  8
0
  6
CONTINUOUS
 62
     7
100
AcDbVertex
100
AcDb2dVertex
 10
528.1465749897
 20
555.8126118358
 30
0.0
  0
VERTEX
  5
1FD
330
73
100
AcDbEntity
  8
0
  6
CONTINUOUS
 62
     7
100
AcDbVertex
100
AcDb2dVertex
 10
519.0980526148
 20
555.9455686345
 30
0.0
  0
VERTEX
  5
1FE
330
73
100
AcDbEntity
  8
0
  6
CONTINUOUS
 62
     7
100
AcDbVertex
100
AcDb2dVertex
 10
510.6145818816
 20
556.1138427238
 30
0.0
  0
VERTEX
  5
1FF
330
73
100
AcDbEntity
  8
0
  6
CONTINUOUS
 62
     7
100
AcDbVertex
100
AcDb2dVertex
 10
502.7712749318
 20
556.3061981166
 30
0.0
  0
VERTEX
  5
200
330
73
100
AcDbEntity
  8
0
  6
CONTINUOUS
 62
     7
100
AcDbVertex
100
AcDb2dVertex
 10
495.5678397471
 20
556.5111079928
 30
0.0
  0
VERTEX
  5
201
330
73
100
AcDbEntity
  8
0
  6
CONTINUOUS
 62
     7
100
AcDbVertex
100
AcDb2dVertex
 10
488.3595764546
 20
556.746606043
 30
0.0
  0
VERTEX
  5
202
330
73
100
AcDbEntity
  8
0
  6
CONTINUOUS
 62
     7
100
AcDbVertex
100
AcDb2dVertex
 10
480.3041228784
 20
557.0573212222
 30
0.0
  0
VERTEX
  5
203
330
73
100
AcDbEntity
  8
0
  6
CONTINUOUS
 62
     7
100
AcDbVertex
100
AcDb2dVertex
 10
471.5689371399
 20
557.4496139454
 30
0.0
  0
VERTEX
  5
204
330
73
100
AcDbEntity
  8
0
  6
CONTINUOUS
 62
     7
100
AcDbVertex
100
AcDb2dVertex
 10
462.0240218488
 20
557.9418345334
 30
0.0
  0
VERTEX
  5
205
330
73
100
AcDbEntity
  8
0
  6
CONTINUOUS
 62
     7
100
AcDbVertex
100
AcDb2dVertex
 10
451.6776790206
 20
558.5483465472
 30
0.0
  0
VERTEX
  5
206
330
73
100
AcDbEntity
  8
0
  6
CONTINUOUS
 62
     7
100
AcDbVertex
100
AcDb2dVertex
 10
440.540488974
 20
559.2840696682
 30
0.0
  0
VERTEX
  5
207
330
73
100
AcDbEntity
  8
0
  6
CONTINUOUS
 62
     7
100
AcDbVertex
100
AcDb2dVertex
 10
433.4112735595
 20
559.7996348246
 30
0.0
  0
VERTEX
  5
208
330
73
100
AcDbEntity
  8
0
  6
CONTINUOUS
 62
     7
100
AcDbVertex
100
AcDb2dVertex
 10
425.9999016462
 20
560.3728239784
 30
0.0
  0
VERTEX
  5
209
330
73
100
AcDbEntity
  8
0
  6
CONTINUOUS
 62
     7
100
AcDbVertex
100
AcDb2dVertex
 10
418.3102519481
 20
561.0086060507
 30
0.0
  0
VERTEX
  5
20A
330
73
100
AcDbEntity
  8
0
  6
CONTINUOUS
 62
     7
100
AcDbVertex
100
AcDb2dVertex
 10
410.8710711809
 20
561.6649443271
 30
0.0
  0
VERTEX
  5
20B
330
73
100
AcDbEntity
  8
0
  6
CONTINUOUS
 62
     7
100
AcDbVertex
100
AcDb2dVertex
 10
404.345467224
 20
562.2755831933
 30
0.0
  0
VERTEX
  5
20C
330
73
100
AcDbEntity
  8
0
  6
CONTINUOUS
 62
     7
100
AcDbVertex
100
AcDb2dVertex
 10
399.6019981878
 20
562.7408333878
 30
0.0
  0
VERTEX
  5
20D
330
73
100
AcDbEntity
  8
0
  6
CONTINUOUS
 62
     7
100
AcDbVertex
100
AcDb2dVertex
 10
395.4854047095
 20
563.1591222911
 30
0.0
  0
VERTEX
  5
20E
330
73
100
AcDbEntity
  8
0
  6
CONTINUOUS
 62
     7
100
AcDbVertex
100
AcDb2dVertex
 10
391.9922654181
 20
563.5244688435
 30
0.0
  0
VERTEX
  5
20F
330
73
100
AcDbEntity
  8
0
  6
CONTINUOUS
 62
     7
100
AcDbVertex
100
AcDb2dVertex
 10
389.1200596939
 20
563.8319341882
 30
0.0
  0
VERTEX
  5
210
330
73
100
AcDbEntity
  8
0
  6
CONTINUOUS
 62
     7
100
AcDbVertex
100
AcDb2dVertex
 10
386.8669831418
 20
564.077540976
 30
0.0
  0
VERTEX
  5
211
330
73
100
AcDbEntity
  8
0
  6
CONTINUOUS
 62
     7
100
AcDbVertex
100
AcDb2dVertex
 10
385.2317930096
 20
564.2582082232
 30
0.0
  0
VERTEX
  5
212
330
73
100
AcDbEntity
  8
0
  6
CONTINUOUS
 62
     7
100
AcDbVertex
100
AcDb2dVertex
 10
384.4103895272
 20
564.3497220982
 30
0.0
  0
VERTEX
  5
213
330
73
100
AcDbEntity
  8
0
  6
CONTINUOUS
 62
     7
100
AcDbVertex
100
AcDb2dVertex
 10
383.7061544119
 20
564.4284921392
 30
0.0
  0
VERTEX
  5
214
330
73
100
AcDbEntity
  8
0
  6
CONTINUOUS
 62
     7
100
AcDbVertex
100
AcDb2dVertex
 10
382.6890824918
 20
564.542860331
 30
0.0
  0
VERTEX
  5
215
330
73
100
AcDbEntity
  8
0
  6
CONTINUOUS
 62
     7
100
AcDbVertex
100
AcDb2dVertex
 10
381.3495085622
 20
564.6949381093
 30
0.0
  0
VERTEX
  5
216
330
73
100
AcDbEntity
  8
0
  6
CONTINUOUS
 62
     7
100
AcDbVertex
100
AcDb2dVertex
 10
379.0621564268
 20
564.9586698144
 30
0.0
  0
VERTEX
  5
217
330
73
100
AcDbEntity
  8
0
  6
CONTINUOUS
 62
     7
100
AcDbVertex
100
AcDb2dVertex
 10
376.2024828815
 20
565.2958396564
 30
0.0
  0
VERTEX
  5
218
330
73
100
AcDbEntity
  8
0
  6
CONTINUOUS
 62
     7
100
AcDbVertex
100
AcDb2dVertex
 10
372.7709851898
 20
565.7116497592
 30
0.0
  0
VERTEX
  5
219
330
73
100
AcDbEntity
  8
0
  6
CONTINUOUS
 62
     7
100
AcDbVertex
100
AcDb2dVertex
 10
368.7679160522
 20
566.212305987
 30
0.0
  0
VERTEX
  5
21A
330
73
100
AcDbEntity
  8
0
  6
CONTINUOUS
 62
     7
100
AcDbVertex
100
AcDb2dVertex
 10
364.1931020815
 20
566.8046761299
 30
0.0
  0
VERTEX
  5
21B
330
73
100
AcDbEntity
  8
0
  6
CONTINUOUS
 62
     7
100
AcDbVertex
100
AcDb2dVertex
 10
359.0457223763
 20
567.4945203465
 30
0.0
  0
VERTEX
  5
21C
330
73
100
AcDbEntity
  8
0
  6
CONTINUOUS
 62
     7
100
AcDbVertex
100
AcDb2dVertex
 10
353.3240588136
 20
568.2850618894
 30
0.0
  0
VERTEX
  5
21D
330
73
100
AcDbEntity
  8
0
  6
CONTINUOUS
 62
     7
100
AcDbVertex
100
AcDb2dVertex
 10
347.0252156768
 20
569.1803688522
 30
0.0
  0
VERTEX
  5
21E
330
73
100
AcDbEntity
  8
0
  6
CONTINUOUS
 62
     7
100
AcDbVertex
100
AcDb2dVertex
 10
343.369959208
 20
569.7139235676
 30
0.0
  0
SEQEND
  5
633
330
73
100
AcDbEntity
  8
0
  6
CONTINUOUS
 62
     7
  0
POLYLINE
  5
74
330
1F
100
AcDbEntity
  8
0
  6
CONTINUOUS
 62
     7
100
AcDb2dPolyline
 66
     1
 10
0.0
 20
0.0
 30
0.0
 70
   128
  0
VERTEX
  5
21F
330
74
100
AcDbEntity
  8
0
  6
CONTINUOUS
 62
     7
100
AcDbVertex
100
AcDb2dVertex
 10
343.2808795336
 20
556.7893151684
 30
0.0
  0
VERTEX
  5
220
330
74
100
AcDbEntity
  8
0
  6
CONTINUOUS
 62
     7
100
AcDbVertex
100
AcDb2dVertex
 10
346.8120790221
 20
556.4306374531
 30
0.0
  0
VERTEX
  5
221
330
74
100
AcDbEntity
  8
0
  6
CONTINUOUS
 62
     7
100
AcDbVertex
100
AcDb2dVertex
 10
351.7753388139
 20
555.9005826549
 30
0.0
  0
SEQEND
  5
634
330
74
100
AcDbEntity
  8
0
  6
CONTINUOUS
 62
     7
  0
POLYLINE
  5
75
330
1F
100
AcDbEntity
  8
0
  6
CONTINUOUS
 62
     7
100
AcDb2dPolyline
 66
     1
 10
0.0
 20
0.0
 30
0.0
 70
   128
  0
VERTEX
  5
222
330
75
100
AcDbEntity
  8
0
  6
CONTINUOUS
 62
     7
100
AcDbVertex
100
AcDb2dVertex
 10
744.1278129711
 20
555.9063036535
 30
0.0
  0
VERTEX
  5
223
330
75
100
AcDbEntity
  8
0
  6
CONTINUOUS
 62
     7
100
AcDbVertex
100
AcDb2dVertex
 10
747.2323885474
 20
556.2420893539
 30
0.0
  0
VERTEX
  5
224
330
75
100
AcDbEntity
  8
0
  6
CONTINUOUS
 62
     7
100
AcDbVertex
100
AcDb2dVertex
 10
752.614248245
 20
556.7899772475
 30
0.0
  0
SEQEND
  5
635
330
75
100
AcDbEntity
  8
0
  6
CONTINUOUS
 62
     7
  0
POLYLINE
  5
76
330
1F
100
AcDbEntity
  8
0
  6
CONTINUOUS
 62
     7
100
AcDb2dPolyline
 66
     1
 10
0.0
 20
0.0
 30
0.0
 70
   128
  0
VERTEX
  5
225
330
76
100
AcDbEntity
  8
0
  6
CONTINUOUS
 62
     7
100
AcDbVertex
100
AcDb2dVertex
 10
342.7099783688
 20
569.3780760507
 30
0.0
  0
VERTEX
  5
226
330
76
100
AcDbEntity
  8
0
  6
CONTINUOUS
 62
     7
100
AcDbVertex
100
AcDb2dVertex
 10
341.9523877638
 20
564.4426035295
 30
0.0
  0
VERTEX
  5
227
330
76
100
AcDbEntity
  8
0
  6
CONTINUOUS
 62
     7
100
AcDbVertex
100
AcDb2dVertex
 10
341.1947467222
 20
559.5070602375
 30
0.0
  0
SEQEND
  5
636
330
76
100
AcDbEntity
  8
0
  6
CONTINUOUS
 62
     7
  0
POLYLINE
  5
77
330
1F
100
AcDbEntity
  8
0
  6
CONTINUOUS
 62
     7
100
AcDb2dPolyline
 66
     1
 10
0.0
 20
0.0
 30
0.0
 70
   128
  0
VERTEX
  5
228
330
77
100
AcDbEntity
  8
0
  6
CONTINUOUS
 62
     7
100
AcDbVertex
100
AcDb2dVertex
 10
754.6938989476
 20
559.5083625096
 30
0.0
  0
VERTEX
  5
229
330
77
100
AcDbEntity
  8
0
  6
CONTINUOUS
 62
     7
100
AcDbVertex
100
AcDb2dVertex
 10
753.9374622499
 20
564.4440116375
 30
0.0
  0
VERTEX
  5
22A
330
77
100
AcDbEntity
  8
0
  6
CONTINUOUS
 62
     7
100
AcDbVertex
100
AcDb2dVertex
 10
753.1810773403
 20
569.3795884322
 30
0.0
  0
SEQEND
  5
637
330
77
100
AcDbEntity
  8
0
  6
CONTINUOUS
 62
     7
  0
POLYLINE
  5
78
330
1F
100
AcDbEntity
  8
0
  6
CONTINUOUS
 62
     7
100
AcDb2dPolyline
 66
     1
 10
0.0
 20
0.0
 30
0.0
 70
   128
  0
VERTEX
  5
22B
330
78
100
AcDbEntity
  8
0
  6
CONTINUOUS
 62
     7
100
AcDbVertex
100
AcDb2dVertex
 10
680.5295303898
 20
886.7850396929
 30
0.0
  0
VERTEX
  5
22C
330
78
100
AcDbEntity
  8
0
  6
CONTINUOUS
 62
     7
100
AcDbVertex
100
AcDb2dVertex
 10
679.2074144214
 20
887.569621867
 30
0.0
  0
VERTEX
  5
22D
330
78
100
AcDbEntity
  8
0
  6
CONTINUOUS
 62
     7
100
AcDbVertex
100
AcDb2dVertex
 10
677.889774755
 20
888.3531542234
 30
0.0
  0
SEQEND
  5
638
330
78
100
AcDbEntity
  8
0
  6
CONTINUOUS
 62
     7
  0
POLYLINE
  5
79
330
1F
100
AcDbEntity
  8
0
  6
CONTINUOUS
 62
     7
100
AcDb2dPolyline
 66
     1
 10
0.0
 20
0.0
 30
0.0
 70
   128
  0
VERTEX
  5
22E
330
79
100
AcDbEntity
  8
0
  6
CONTINUOUS
 62
     7
100
AcDbVertex
100
AcDb2dVertex
 10
418.0178778633
 20
888.3629050601
 30
0.0
  0
VERTEX
  5
22F
330
79
100
AcDbEntity
  8
0
  6
CONTINUOUS
 62
     7
100
AcDbVertex
100
AcDb2dVertex
 10
416.6958436046
 20
887.5773327313
 30
0.0
  0
VERTEX
  5
230
330
79
100
AcDbEntity
  8
0
  6
CONTINUOUS
 62
     7
100
AcDbVertex
100
AcDb2dVertex
 10
415.3692769994
 20
886.790741858
 30
0.0
  0
SEQEND
  5
639
330
79
100
AcDbEntity
  8
0
  6
CONTINUOUS
 62
     7
  0
POLYLINE
  5
7A
330
1F
100
AcDbEntity
  8
0
  6
CONTINUOUS
 62
     7
100
AcDb2dPolyline
 66
     1
 10
0.0
 20
0.0
 30
0.0
 70
   128
  0
VERTEX
  5
231
330
7A
100
AcDbEntity
  8
0
  6
CONTINUOUS
 62
     7
100
AcDbVertex
100
AcDb2dVertex
 10
772.5885149455
 20
153.013111958
 30
0.0
  0
VERTEX
  5
232
330
7A
100
AcDbEntity
  8
0
  6
CONTINUOUS
 62
     7
100
AcDbVertex
100
AcDb2dVertex
 10
772.6827996171
 20
151.6106978594
 30
0.0
  0
VERTEX
  5
233
330
7A
100
AcDbEntity
  8
0
  6
CONTINUOUS
 62
     7
100
AcDbVertex
100
AcDb2dVertex
 10
772.9304646253
 20
148.9259368214
 30
0.0
  0
VERTEX
  5
234
330
7A
100
AcDbEntity
  8
0
  6
CONTINUOUS
 62
     7
100
AcDbVertex
100
AcDb2dVertex
 10
773.2644025087
 20
146.2493792962
 30
0.0
  0
VERTEX
  5
235
330
7A
100
AcDbEntity
  8
0
  6
CONTINUOUS
 62
     7
100
AcDbVertex
100
AcDb2dVertex
 10
773.6807851622
 20
143.6124897388
 30
0.0
  0
VERTEX
  5
236
330
7A
100
AcDbEntity
  8
0
  6
CONTINUOUS
 62
     7
100
AcDbVertex
100
AcDb2dVertex
 10
774.175972795
 20
141.0445713842
 30
0.0
  0
VERTEX
  5
237
330
7A
100
AcDbEntity
  8
0
  6
CONTINUOUS
 62
     7
100
AcDbVertex
100
AcDb2dVertex
 10
774.7473598195
 20
138.5709994899
 30
0.0
  0
VERTEX
  5
238
330
7A
100
AcDbEntity
  8
0
  6
CONTINUOUS
 62
     7
100
AcDbVertex
100
AcDb2dVertex
 10
775.3944349632
 20
136.2128947073
 30
0.0
  0
VERTEX
  5
239
330
7A
100
AcDbEntity
  8
0
  6
CONTINUOUS
 62
     7
100
AcDbVertex
100
AcDb2dVertex
 10
776.1213289986
 20
133.9844460797
 30
0.0
  0
VERTEX
  5
23A
330
7A
100
AcDbEntity
  8
0
  6
CONTINUOUS
 62
     7
100
AcDbVertex
100
AcDb2dVertex
 10
776.9424112494
 20
131.8886905269
 30
0.0
  0
VERTEX
  5
23B
330
7A
100
AcDbEntity
  8
0
  6
CONTINUOUS
 62
     7
100
AcDbVertex
100
AcDb2dVertex
 10
777.8957813011
 20
129.9106372188
 30
0.0
  0
VERTEX
  5
23C
330
7A
100
AcDbEntity
  8
0
  6
CONTINUOUS
 62
     7
100
AcDbVertex
100
AcDb2dVertex
 10
779.076869405
 20
128.0118466383
 30
0.0
  0
VERTEX
  5
23D
330
7A
100
AcDbEntity
  8
0
  6
CONTINUOUS
 62
     7
100
AcDbVertex
100
AcDb2dVertex
 10
780.1538897817
 20
126.7079922537
 30
0.0
  0
VERTEX
  5
23E
330
7A
100
AcDbEntity
  8
0
  6
CONTINUOUS
 62
     7
100
AcDbVertex
100
AcDb2dVertex
 10
781.2550371312
 20
125.7073449159
 30
0.0
  0
VERTEX
  5
23F
330
7A
100
AcDbEntity
  8
0
  6
CONTINUOUS
 62
     7
100
AcDbVertex
100
AcDb2dVertex
 10
782.4455046241
 20
124.925807315
 30
0.0
  0
VERTEX
  5
240
330
7A
100
AcDbEntity
  8
0
  6
CONTINUOUS
 62
     7
100
AcDbVertex
100
AcDb2dVertex
 10
783.7426357825
 20
124.3628391115
 30
0.0
  0
VERTEX
  5
241
330
7A
100
AcDbEntity
  8
0
  6
CONTINUOUS
 62
     7
100
AcDbVertex
100
AcDb2dVertex
 10
785.1300785529
 20
124.0444688891
 30
0.0
  0
VERTEX
  5
242
330
7A
100
AcDbEntity
  8
0
  6
CONTINUOUS
 62
     7
100
AcDbVertex
100
AcDb2dVertex
 10
786.0889395309
 20
123.9816908797
 30
0.0
  0
SEQEND
  5
63A
330
7A
100
AcDbEntity
  8
0
  6
CONTINUOUS
 62
     7
  0
POLYLINE
  5
7B
330
1F
100
AcDbEntity
  8
0
  6
CONTINUOUS
 62
     7
100
AcDb2dPolyline
 66
     1
 10
0.0
 20
0.0
 30
0.0
 70
   128
  0
VERTEX
  5
243
330
7B
100
AcDbEntity
  8
0
  6
CONTINUOUS
 62
     7
100
AcDbVertex
100
AcDb2dVertex
 10
788.842660082
 20
134.9845173356
 30
0.0
  0
VERTEX
  5
244
330
7B
100
AcDbEntity
  8
0
  6
CONTINUOUS
 62
     7
100
AcDbVertex
100
AcDb2dVertex
 10
788.8545374259
 20
134.9724602175
 30
0.0
  0
VERTEX
  5
245
330
7B
100
AcDbEntity
  8
0
  6
CONTINUOUS
 62
     7
100
AcDbVertex
100
AcDb2dVertex
 10
788.738780225
 20
135.1335321217
 30
0.0
  0
VERTEX
  5
246
330
7B
100
AcDbEntity
  8
0
  6
CONTINUOUS
 62
     7
100
AcDbVertex
100
AcDb2dVertex
 10
788.4931448093
 20
135.5421266766
 30
0.0
  0
VERTEX
  5
247
330
7B
100
AcDbEntity
  8
0
  6
CONTINUOUS
 62
     7
100
AcDbVertex
100
AcDb2dVertex
 10
788.1450079148
 20
136.2313240909
 30
0.0
  0
VERTEX
  5
248
330
7B
100
AcDbEntity
  8
0
  6
CONTINUOUS
 62
     7
100
AcDbVertex
100
AcDb2dVertex
 10
787.7225430686
 20
137.2191604193
 30
0.0
  0
VERTEX
  5
249
330
7B
100
AcDbEntity
  8
0
  6
CONTINUOUS
 62
     7
100
AcDbVertex
100
AcDb2dVertex
 10
787.2550569692
 20
138.5034362837
 30
0.0
  0
VERTEX
  5
24A
330
7B
100
AcDbEntity
  8
0
  6
CONTINUOUS
 62
     7
100
AcDbVertex
100
AcDb2dVertex
 10
786.7706975875
 20
140.0630913614
 30
0.0
  0
VERTEX
  5
24B
330
7B
100
AcDbEntity
  8
0
  6
CONTINUOUS
 62
     7
100
AcDbVertex
100
AcDb2dVertex
 10
786.2943337942
 20
141.8634612549
 30
0.0
  0
VERTEX
  5
24C
330
7B
100
AcDbEntity
  8
0
  6
CONTINUOUS
 62
     7
100
AcDbVertex
100
AcDb2dVertex
 10
785.8466579835
 20
143.8617568364
 30
0.0
  0
VERTEX
  5
24D
330
7B
100
AcDbEntity
  8
0
  6
CONTINUOUS
 62
     7
100
AcDbVertex
100
AcDb2dVertex
 10
785.4442578474
 20
146.010941928
 30
0.0
  0
VERTEX
  5
24E
330
7B
100
AcDbEntity
  8
0
  6
CONTINUOUS
 62
     7
100
AcDbVertex
100
AcDb2dVertex
 10
785.1000821636
 20
148.2619451648
 30
0.0
  0
VERTEX
  5
24F
330
7B
100
AcDbEntity
  8
0
  6
CONTINUOUS
 62
     7
100
AcDbVertex
100
AcDb2dVertex
 10
784.8239127651
 20
150.564784055
 30
0.0
  0
VERTEX
  5
250
330
7B
100
AcDbEntity
  8
0
  6
CONTINUOUS
 62
     7
100
AcDbVertex
100
AcDb2dVertex
 10
784.6226809334
 20
152.8691210381
 30
0.0
  0
VERTEX
  5
251
330
7B
100
AcDbEntity
  8
0
  6
CONTINUOUS
 62
     7
100
AcDbVertex
100
AcDb2dVertex
 10
784.5680518903
 20
153.7136079177
 30
0.0
  0
SEQEND
  5
63B
330
7B
100
AcDbEntity
  8
0
  6
CONTINUOUS
 62
     7
  0
POLYLINE
  5
7C
330
1F
100
AcDbEntity
  8
0
  6
CONTINUOUS
 62
     7
100
AcDb2dPolyline
 66
     1
 10
0.0
 20
0.0
 30
0.0
 70
   128
  0
VERTEX
  5
252
330
7C
100
AcDbEntity
  8
0
  6
CONTINUOUS
 62
     7
100
AcDbVertex
100
AcDb2dVertex
 10
309.8020843685
 20
123.9816908797
 30
0.0
  0
VERTEX
  5
253
330
7C
100
AcDbEntity
  8
0
  6
CONTINUOUS
 62
     7
100
AcDbVertex
100
AcDb2dVertex
 10
311.242898591
 20
124.1238837667
 30
0.0
  0
VERTEX
  5
254
330
7C
100
AcDbEntity
  8
0
  6
CONTINUOUS
 62
     7
100
AcDbVertex
100
AcDb2dVertex
 10
312.5873299952
 20
124.5228510541
 30
0.0
  0
VERTEX
  5
255
330
7C
100
AcDbEntity
  8
0
  6
CONTINUOUS
 62
     7
100
AcDbVertex
100
AcDb2dVertex
 10
313.7998975839
 20
125.1296527258
 30
0.0
  0
VERTEX
  5
256
330
7C
100
AcDbEntity
  8
0
  6
CONTINUOUS
 62
     7
100
AcDbVertex
100
AcDb2dVertex
 10
314.895201914
 20
125.9165738433
 30
0.0
  0
VERTEX
  5
257
330
7C
100
AcDbEntity
  8
0
  6
CONTINUOUS
 62
     7
100
AcDbVertex
100
AcDb2dVertex
 10
315.9068496478
 20
126.8901603706
 30
0.0
  0
VERTEX
  5
258
330
7C
100
AcDbEntity
  8
0
  6
CONTINUOUS
 62
     7
100
AcDbVertex
100
AcDb2dVertex
 10
316.8849913953
 20
128.1107944423
 30
0.0
  0
VERTEX
  5
259
330
7C
100
AcDbEntity
  8
0
  6
CONTINUOUS
 62
     7
100
AcDbVertex
100
AcDb2dVertex
 10
317.8818040854
 20
129.7036628801
 30
0.0
  0
VERTEX
  5
25A
330
7C
100
AcDbEntity
  8
0
  6
CONTINUOUS
 62
     7
100
AcDbVertex
100
AcDb2dVertex
 10
318.8863930945
 20
131.7456565291
 30
0.0
  0
VERTEX
  5
25B
330
7C
100
AcDbEntity
  8
0
  6
CONTINUOUS
 62
     7
100
AcDbVertex
100
AcDb2dVertex
 10
319.7692794598
 20
133.9832804147
 30
0.0
  0
VERTEX
  5
25C
330
7C
100
AcDbEntity
  8
0
  6
CONTINUOUS
 62
     7
100
AcDbVertex
100
AcDb2dVertex
 10
320.5267688844
 20
136.3142833383
 30
0.0
  0
VERTEX
  5
25D
330
7C
100
AcDbEntity
  8
0
  6
CONTINUOUS
 62
     7
100
AcDbVertex
100
AcDb2dVertex
 10
321.1863960604
 20
138.7417433904
 30
0.0
  0
VERTEX
  5
25E
330
7C
100
AcDbEntity
  8
0
  6
CONTINUOUS
 62
     7
100
AcDbVertex
100
AcDb2dVertex
 10
321.7606342293
 20
141.2619207767
 30
0.0
  0
VERTEX
  5
25F
330
7C
100
AcDbEntity
  8
0
  6
CONTINUOUS
 62
     7
100
AcDbVertex
100
AcDb2dVertex
 10
322.2530680865
 20
143.8594904378
 30
0.0
  0
VERTEX
  5
260
330
7C
100
AcDbEntity
  8
0
  6
CONTINUOUS
 62
     7
100
AcDbVertex
100
AcDb2dVertex
 10
322.663267381
 20
146.511976614
 30
0.0
  0
VERTEX
  5
261
330
7C
100
AcDbEntity
  8
0
  6
CONTINUOUS
 62
     7
100
AcDbVertex
100
AcDb2dVertex
 10
322.9890916516
 20
149.1928778945
 30
0.0
  0
VERTEX
  5
262
330
7C
100
AcDbEntity
  8
0
  6
CONTINUOUS
 62
     7
100
AcDbVertex
100
AcDb2dVertex
 10
323.2277708516
 20
151.8738030494
 30
0.0
  0
VERTEX
  5
263
330
7C
100
AcDbEntity
  8
0
  6
CONTINUOUS
 62
     7
100
AcDbVertex
100
AcDb2dVertex
 10
323.3025089539
 20
153.013111958
 30
0.0
  0
SEQEND
  5
63C
330
7C
100
AcDbEntity
  8
0
  6
CONTINUOUS
 62
     7
  0
POLYLINE
  5
7D
330
1F
100
AcDbEntity
  8
0
  6
CONTINUOUS
 62
     7
100
AcDb2dPolyline
 66
     1
 10
0.0
 20
0.0
 30
0.0
 70
   128
  0
VERTEX
  5
264
330
7D
100
AcDbEntity
  8
0
  6
CONTINUOUS
 62
     7
100
AcDbVertex
100
AcDb2dVertex
 10
311.3229720091
 20
153.7136079177
 30
0.0
  0
VERTEX
  5
265
330
7D
100
AcDbEntity
  8
0
  6
CONTINUOUS
 62
     7
100
AcDbVertex
100
AcDb2dVertex
 10
311.2426492872
 20
152.5190012431
 30
0.0
  0
VERTEX
  5
266
330
7D
100
AcDbEntity
  8
0
  6
CONTINUOUS
 62
     7
100
AcDbVertex
100
AcDb2dVertex
 10
311.0302692062
 20
150.2175204277
 30
0.0
  0
VERTEX
  5
267
330
7D
100
AcDbEntity
  8
0
  6
CONTINUOUS
 62
     7
100
AcDbVertex
100
AcDb2dVertex
 10
310.7426828723
 20
147.9143697111
 30
0.0
  0
VERTEX
  5
268
330
7D
100
AcDbEntity
  8
0
  6
CONTINUOUS
 62
     7
100
AcDbVertex
100
AcDb2dVertex
 10
310.3859984289
 20
145.6589412245
 30
0.0
  0
VERTEX
  5
269
330
7D
100
AcDbEntity
  8
0
  6
CONTINUOUS
 62
     7
100
AcDbVertex
100
AcDb2dVertex
 10
309.9693965024
 20
143.5022747698
 30
0.0
  0
VERTEX
  5
26A
330
7D
100
AcDbEntity
  8
0
  6
CONTINUOUS
 62
     7
100
AcDbVertex
100
AcDb2dVertex
 10
309.5048720075
 20
141.4930881142
 30
0.0
  0
VERTEX
  5
26B
330
7D
100
AcDbEntity
  8
0
  6
CONTINUOUS
 62
     7
100
AcDbVertex
100
AcDb2dVertex
 10
309.0080432574
 20
139.6791122762
 30
0.0
  0
VERTEX
  5
26C
330
7D
100
AcDbEntity
  8
0
  6
CONTINUOUS
 62
     7
100
AcDbVertex
100
AcDb2dVertex
 10
308.499327718
 20
138.1066999325
 30
0.0
  0
VERTEX
  5
26D
330
7D
100
AcDbEntity
  8
0
  6
CONTINUOUS
 62
     7
100
AcDbVertex
100
AcDb2dVertex
 10
308.0058585524
 20
136.8197328864
 30
0.0
  0
VERTEX
  5
26E
330
7D
100
AcDbEntity
  8
0
  6
CONTINUOUS
 62
     7
100
AcDbVertex
100
AcDb2dVertex
 10
307.6058154718
 20
135.9396672762
 30
0.0
  0
VERTEX
  5
26F
330
7D
100
AcDbEntity
  8
0
  6
CONTINUOUS
 62
     7
100
AcDbVertex
100
AcDb2dVertex
 10
307.2880362318
 20
135.350376182
 30
0.0
  0
VERTEX
  5
270
330
7D
100
AcDbEntity
  8
0
  6
CONTINUOUS
 62
     7
100
AcDbVertex
100
AcDb2dVertex
 10
307.0864837241
 20
135.0383978231
 30
0.0
  0
VERTEX
  5
271
330
7D
100
AcDbEntity
  8
0
  6
CONTINUOUS
 62
     7
100
AcDbVertex
100
AcDb2dVertex
 10
307.0442342561
 20
134.982637581
 30
0.0
  0
SEQEND
  5
63D
330
7D
100
AcDbEntity
  8
0
  6
CONTINUOUS
 62
     7
  0
LINE
  5
7E
330
1F
100
AcDbEntity
  8
0
  6
CONTINUOUS
 62
     7
100
AcDbLine
 10
784.5680518903
 20
153.7136079177
 30
0.0
 11
763.0161021189
 21
522.2844396391
 31
0.0
  0
LINE
  5
7F
330
1F
100
AcDbEntity
  8
0
  6
CONTINUOUS
 62
     7
100
AcDbLine
 10
757.1585422343
 20
416.8889067668
 30
0.0
 11
772.5885149455
 21
153.013111958
 31
0.0
  0
LINE
  5
80
330
1F
100
AcDbEntity
  8
0
  6
CONTINUOUS
 62
     7
100
AcDbLine
 10
751.0365651741
 20
521.5839436793
 30
0.0
 11
756.4629905019
 21
428.7838899703
 31
0.0
  0
LINE
  5
81
330
1F
100
AcDbEntity
  8
0
  6
CONTINUOUS
 62
     7
100
AcDbLine
 10
339.4280333975
 20
428.7838899703
 30
0.0
 11
344.8544587253
 21
521.5839436793
 31
0.0
  0
LINE
  5
82
330
1F
100
AcDbEntity
  8
0
  6
CONTINUOUS
 62
     7
100
AcDbLine
 10
323.3025089539
 20
153.013111958
 30
0.0
 11
338.7324816651
 21
416.8889067668
 31
0.0
  0
LINE
  5
83
330
1F
100
AcDbEntity
  8
0
  6
CONTINUOUS
 62
     7
100
AcDbLine
 10
332.8749217805
 20
522.2844396391
 30
0.0
 11
311.3229720091
 21
153.7136079177
 31
0.0
  0
LINE
  5
84
330
1F
100
AcDbEntity
  8
0
  6
CONTINUOUS
 62
     7
100
AcDbLine
 10
305.8432937221
 20
123.9816908797
 30
0.0
 11
309.8020843685
 21
123.9816908797
 31
0.0
  0
LINE
  5
85
330
1F
100
AcDbEntity
  8
0
  6
CONTINUOUS
 62
     7
100
AcDbLine
 10
307.6249177428
 20
135.9816908797
 30
0.0
 11
298.6480590276
 21
135.9816908797
 31
0.0
  0
LINE
  5
86
330
1F
100
AcDbEntity
  8
0
  6
CONTINUOUS
 62
     7
100
AcDbLine
 10
797.2429648718
 20
135.9816908797
 30
0.0
 11
788.2711060822
 21
135.9816908797
 31
0.0
  0
LINE
  5
87
330
1F
100
AcDbEntity
  8
0
  6
CONTINUOUS
 62
     7
100
AcDbLine
 10
786.0889395309
 20
123.9816908797
 30
0.0
 11
790.0477301773
 21
123.9816908797
 31
0.0
  0
LINE
  5
88
330
1F
100
AcDbEntity
  8
0
  6
CONTINUOUS
 62
     7
100
AcDbLine
 10
338.7263408733
 20
416.7838899703
 30
0.0
 11
757.1646830261
 21
416.7838899703
 31
0.0
  0
LINE
  5
89
330
1F
100
AcDbEntity
  8
0
  6
CONTINUOUS
 62
     7
100
AcDbLine
 10
756.5955841842
 20
428.7838899703
 30
0.0
 11
339.2954397152
 21
428.7838899703
 31
0.0
  0
ARC
  5
8A
330
1F
100
AcDbEntity
  8
0
  6
CONTINUOUS
 62
     7
100
AcDbCircle
 10
297.9755270565
 20
129.9816908797
 30
0.0
 40
6.000000000000028
100
AcDbArc
 50
90.0
 51
194.4775121855
  0
LINE
  5
8B
330
1F
100
AcDbEntity
  8
0
  6
CONTINUOUS
 62
     7
100
AcDbLine
 10
298.6480590276
 20
135.9816908797
 30
0.0
 11
297.9755270565
 21
135.9816908797
 31
0.0
  0
ARC
  5
8C
330
1F
100
AcDbEntity
  8
0
  6
CONTINUOUS
 62
     7
100
AcDbCircle
 10
797.9154968429
 20
129.9816908797
 30
0.0
 40
6.000000000000028
100
AcDbArc
 50
345.5224878145
 51
90.0
  0
LINE
  5
8D
330
1F
100
AcDbEntity
  8
0
  6
CONTINUOUS
 62
     7
100
AcDbLine
 10
797.9154968429
 20
135.9816908797
 30
0.0
 11
797.2429648718
 21
135.9816908797
 31
0.0
  0
ARC
  5
8E
330
1F
100
AcDbEntity
  8
0
  6
CONTINUOUS
 62
     7
100
AcDbCircle
 10
358.6676212378
 20
520.5684031525
 30
0.0
 40
13.85044335607934
100
AcDbArc
 50
89.3203484684
 51
175.7951924773
  0
ARC
  5
8F
330
1F
100
AcDbEntity
  8
0
  6
CONTINUOUS
 62
     7
100
AcDbCircle
 10
358.6298699906
 20
520.6092951022
 30
0.0
 40
25.80936780557433
100
AcDbArc
 50
89.5514667487
 51
176.2786292395
  0
ARC
  5
90
330
1F
100
AcDbEntity
  8
0
  6
CONTINUOUS
 62
     7
100
AcDbCircle
 10
737.2523229127
 20
520.5999002507
 30
0.0
 40
13.81932256634135
100
AcDbArc
 50
4.0833616596
 51
90.8010973947
  0
ARC
  5
91
330
1F
100
AcDbEntity
  8
0
  6
CONTINUOUS
 62
     7
100
AcDbCircle
 10
737.2200509525
 20
520.5650863433
 30
0.0
 40
25.85328666788169
100
AcDbArc
 50
3.8132269217
 51
90.35667709
  0
LINE
  5
92
330
1F
100
AcDbEntity
  8
0
  6
CONTINUOUS
 62
     7
100
AcDbLine
 10
358.8319135183
 20
534.4178720668
 30
0.0
 11
737.0591103811
 21
534.4178720668
 31
0.0
  0
LINE
  5
93
330
1F
100
AcDbEntity
  8
0
  6
CONTINUOUS
 62
     7
100
AcDbLine
 10
388.8386691808
 20
546.4178720668
 30
0.0
 11
358.8319135183
 21
546.4178720668
 31
0.0
  0
LINE
  5
94
330
1F
100
AcDbEntity
  8
0
  6
CONTINUOUS
 62
     7
100
AcDbLine
 10
737.0591103811
 20
546.4178720668
 30
0.0
 11
707.0626843697
 21
546.4178720668
 31
0.0
  0
LINE
  5
95
330
1F
100
AcDbEntity
  8
0
  6
CONTINUOUS
 62
     7
100
AcDbLine
 10
358.8319135183
 20
546.4178720668
 30
0.0
 11
348.5945258996
 21
546.4178720668
 31
0.0
  0
LINE
  5
96
330
1F
100
AcDbEntity
  8
0
  6
CONTINUOUS
 62
     7
100
AcDbLine
 10
747.2964979998
 20
546.4178720668
 30
0.0
 11
737.0591103811
 21
546.4178720668
 31
0.0
  0
POLYLINE
  5
97
330
1F
100
AcDbEntity
  8
0
  6
CONTINUOUS
 62
     7
100
AcDb2dPolyline
 66
     1
 10
0.0
 20
0.0
 30
0.0
 70
   128
  0
VERTEX
  5
272
330
97
100
AcDbEntity
  8
0
  6
CONTINUOUS
 62
     7
100
AcDbVertex
100
AcDb2dVertex
 10
348.5945258996
 20
546.4178720668
 30
0.0
  0
VERTEX
  5
273
330
97
100
AcDbEntity
  8
0
  6
CONTINUOUS
 62
     7
100
AcDbVertex
100
AcDb2dVertex
 10
347.1104080215
 20
546.3490781486
 30
0.0
  0
VERTEX
  5
274
330
97
100
AcDbEntity
  8
0
  6
CONTINUOUS
 62
     7
100
AcDbVertex
100
AcDb2dVertex
 10
344.894906987
 20
545.9823250277
 30
0.0
  0
VERTEX
  5
275
330
97
100
AcDbEntity
  8
0
  6
CONTINUOUS
 62
     7
100
AcDbVertex
100
AcDb2dVertex
 10
342.7688101589
 20
545.3098601846
 30
0.0
  0
VERTEX
  5
276
330
97
100
AcDbEntity
  8
0
  6
CONTINUOUS
 62
     7
100
AcDbVertex
100
AcDb2dVertex
 10
340.7605355648
 20
544.3478738528
 30
0.0
  0
VERTEX
  5
277
330
97
100
AcDbEntity
  8
0
  6
CONTINUOUS
 62
     7
100
AcDbVertex
100
AcDb2dVertex
 10
338.8890413293
 20
543.1119455682
 30
0.0
  0
VERTEX
  5
278
330
97
100
AcDbEntity
  8
0
  6
CONTINUOUS
 62
     7
100
AcDbVertex
100
AcDb2dVertex
 10
337.1689111601
 20
541.6150262716
 30
0.0
  0
VERTEX
  5
279
330
97
100
AcDbEntity
  8
0
  6
CONTINUOUS
 62
     7
100
AcDbVertex
100
AcDb2dVertex
 10
335.6147963526
 20
539.8691117702
 30
0.0
  0
VERTEX
  5
27A
330
97
100
AcDbEntity
  8
0
  6
CONTINUOUS
 62
     7
100
AcDbVertex
100
AcDb2dVertex
 10
334.2425970423
 20
537.8875446458
 30
0.0
  0
VERTEX
  5
27B
330
97
100
AcDbEntity
  8
0
  6
CONTINUOUS
 62
     7
100
AcDbVertex
100
AcDb2dVertex
 10
333.0694607828
 20
535.6878687423
 30
0.0
  0
VERTEX
  5
27C
330
97
100
AcDbEntity
  8
0
  6
CONTINUOUS
 62
     7
100
AcDbVertex
100
AcDb2dVertex
 10
332.1124074947
 20
533.293945518
 30
0.0
  0
VERTEX
  5
27D
330
97
100
AcDbEntity
  8
0
  6
CONTINUOUS
 62
     7
100
AcDbVertex
100
AcDb2dVertex
 10
331.3861522115
 20
530.7361239393
 30
0.0
  0
VERTEX
  5
27E
330
97
100
AcDbEntity
  8
0
  6
CONTINUOUS
 62
     7
100
AcDbVertex
100
AcDb2dVertex
 10
330.9012651845
 20
528.0493802221
 30
0.0
  0
VERTEX
  5
27F
330
97
100
AcDbEntity
  8
0
  6
CONTINUOUS
 62
     7
100
AcDbVertex
100
AcDb2dVertex
 10
330.7506453899
 20
526.6613349875
 30
0.0
  0
SEQEND
  5
63E
330
97
100
AcDbEntity
  8
0
  6
CONTINUOUS
 62
     7
  0
POLYLINE
  5
98
330
1F
100
AcDbEntity
  8
0
  6
CONTINUOUS
 62
     7
100
AcDb2dPolyline
 66
     1
 10
0.0
 20
0.0
 30
0.0
 70
   128
  0
VERTEX
  5
280
330
98
100
AcDbEntity
  8
0
  6
CONTINUOUS
 62
     7
100
AcDbVertex
100
AcDb2dVertex
 10
765.1403785095
 20
526.6613349875
 30
0.0
  0
VERTEX
  5
281
330
98
100
AcDbEntity
  8
0
  6
CONTINUOUS
 62
     7
100
AcDbVertex
100
AcDb2dVertex
 10
764.9684875896
 20
528.2071036398
 30
0.0
  0
VERTEX
  5
282
330
98
100
AcDbEntity
  8
0
  6
CONTINUOUS
 62
     7
100
AcDbVertex
100
AcDb2dVertex
 10
764.4600626859
 20
530.9270579126
 30
0.0
  0
VERTEX
  5
283
330
98
100
AcDbEntity
  8
0
  6
CONTINUOUS
 62
     7
100
AcDbVertex
100
AcDb2dVertex
 10
763.69423847
 20
533.5379703719
 30
0.0
  0
VERTEX
  5
284
330
98
100
AcDbEntity
  8
0
  6
CONTINUOUS
 62
     7
100
AcDbVertex
100
AcDb2dVertex
 10
762.6748374974
 20
535.9980224488
 30
0.0
  0
VERTEX
  5
285
330
98
100
AcDbEntity
  8
0
  6
CONTINUOUS
 62
     7
100
AcDbVertex
100
AcDb2dVertex
 10
761.4109998332
 20
538.2681350314
 30
0.0
  0
VERTEX
  5
286
330
98
100
AcDbEntity
  8
0
  6
CONTINUOUS
 62
     7
100
AcDbVertex
100
AcDb2dVertex
 10
759.9197630661
 20
540.3095062036
 30
0.0
  0
VERTEX
  5
287
330
98
100
AcDbEntity
  8
0
  6
CONTINUOUS
 62
     7
100
AcDbVertex
100
AcDb2dVertex
 10
758.2265457375
 20
542.0873783328
 30
0.0
  0
VERTEX
  5
288
330
98
100
AcDbEntity
  8
0
  6
CONTINUOUS
 62
     7
100
AcDbVertex
100
AcDb2dVertex
 10
756.3632142318
 20
543.5749940861
 30
0.0
  0
VERTEX
  5
289
330
98
100
AcDbEntity
  8
0
  6
CONTINUOUS
 62
     7
100
AcDbVertex
100
AcDb2dVertex
 10
754.3644352803
 20
544.7555420946
 30
0.0
  0
VERTEX
  5
28A
330
98
100
AcDbEntity
  8
0
  6
CONTINUOUS
 62
     7
100
AcDbVertex
100
AcDb2dVertex
 10
752.2641210161
 20
545.6213084518
 30
0.0
  0
VERTEX
  5
28B
330
98
100
AcDbEntity
  8
0
  6
CONTINUOUS
 62
     7
100
AcDbVertex
100
AcDb2dVertex
 10
750.0931966348
 20
546.1710914924
 30
0.0
  0
VERTEX
  5
28C
330
98
100
AcDbEntity
  8
0
  6
CONTINUOUS
 62
     7
100
AcDbVertex
100
AcDb2dVertex
 10
747.8787730892
 20
546.4073410516
 30
0.0
  0
VERTEX
  5
28D
330
98
100
AcDbEntity
  8
0
  6
CONTINUOUS
 62
     7
100
AcDbVertex
100
AcDb2dVertex
 10
747.2964979998
 20
546.4178720668
 30
0.0
  0
SEQEND
  5
63F
330
98
100
AcDbEntity
  8
0
  6
CONTINUOUS
 62
     7
  0
LINE
  5
99
330
1F
100
AcDbEntity
  8
0
  6
CONTINUOUS
 62
     7
100
AcDbLine
 10
783.8438155731
 20
166.0991407643
 30
0.0
 11
784.7434240828
 21
155.5496584417
 31
0.0
  0
LINE
  5
9A
330
1F
100
AcDbEntity
  8
0
  6
CONTINUOUS
 62
     7
100
AcDbLine
 10
796.7000295189
 20
156.5692595623
 30
0.0
 11
765.1403785095
 21
526.6613349875
 31
0.0
  0
LINE
  5
9B
330
1F
100
AcDbEntity
  8
0
  6
CONTINUOUS
 62
     7
100
AcDbLine
 10
330.7506453899
 20
526.6613349875
 30
0.0
 11
299.1909943805
 21
156.5692595623
 31
0.0
  0
LINE
  5
9C
330
1F
100
AcDbEntity
  8
0
  6
CONTINUOUS
 62
     7
100
AcDbLine
 10
311.1475998166
 20
155.5496584417
 30
0.0
 11
312.0472083263
 21
166.0991407643
 31
0.0
  0
POLYLINE
  5
9D
330
1F
100
AcDbEntity
  8
0
  6
CONTINUOUS
 62
     7
100
AcDb2dPolyline
 66
     1
 10
0.0
 20
0.0
 30
0.0
 70
   128
  0
VERTEX
  5
28E
330
9D
100
AcDbEntity
  8
0
  6
CONTINUOUS
 62
     7
100
AcDbVertex
100
AcDb2dVertex
 10
299.1909943805
 20
156.5692595623
 30
0.0
  0
VERTEX
  5
28F
330
9D
100
AcDbEntity
  8
0
  6
CONTINUOUS
 62
     7
100
AcDbVertex
100
AcDb2dVertex
 10
299.0831930446
 20
155.311233628
 30
0.0
  0
VERTEX
  5
290
330
9D
100
AcDbEntity
  8
0
  6
CONTINUOUS
 62
     7
100
AcDbVertex
100
AcDb2dVertex
 10
298.8704118509
 20
152.8614581358
 30
0.0
  0
VERTEX
  5
291
330
9D
100
AcDbEntity
  8
0
  6
CONTINUOUS
 62
     7
100
AcDbVertex
100
AcDb2dVertex
 10
298.6504687723
 20
150.3713986197
 30
0.0
  0
VERTEX
  5
292
330
9D
100
AcDbEntity
  8
0
  6
CONTINUOUS
 62
     7
100
AcDbVertex
100
AcDb2dVertex
 10
298.4269751315
 20
147.881995211
 30
0.0
  0
VERTEX
  5
293
330
9D
100
AcDbEntity
  8
0
  6
CONTINUOUS
 62
     7
100
AcDbVertex
100
AcDb2dVertex
 10
298.2035302131
 20
145.4333401396
 30
0.0
  0
VERTEX
  5
294
330
9D
100
AcDbEntity
  8
0
  6
CONTINUOUS
 62
     7
100
AcDbVertex
100
AcDb2dVertex
 10
297.9837379959
 20
143.0648968715
 30
0.0
  0
VERTEX
  5
295
330
9D
100
AcDbEntity
  8
0
  6
CONTINUOUS
 62
     7
100
AcDbVertex
100
AcDb2dVertex
 10
297.7711531899
 20
140.8149006292
 30
0.0
  0
VERTEX
  5
296
330
9D
100
AcDbEntity
  8
0
  6
CONTINUOUS
 62
     7
100
AcDbVertex
100
AcDb2dVertex
 10
297.56924323
 20
138.7199243692
 30
0.0
  0
VERTEX
  5
297
330
9D
100
AcDbEntity
  8
0
  6
CONTINUOUS
 62
     7
100
AcDbVertex
100
AcDb2dVertex
 10
297.3813556327
 20
136.8144749615
 30
0.0
  0
VERTEX
  5
298
330
9D
100
AcDbEntity
  8
0
  6
CONTINUOUS
 62
     7
100
AcDbVertex
100
AcDb2dVertex
 10
297.2826926525
 20
135.8410048536
 30
0.0
  0
SEQEND
  5
640
330
9D
100
AcDbEntity
  8
0
  6
CONTINUOUS
 62
     7
  0
POLYLINE
  5
9E
330
1F
100
AcDbEntity
  8
0
  6
CONTINUOUS
 62
     7
100
AcDb2dPolyline
 66
     1
 10
0.0
 20
0.0
 30
0.0
 70
   128
  0
VERTEX
  5
299
330
9E
100
AcDbEntity
  8
0
  6
CONTINUOUS
 62
     7
100
AcDbVertex
100
AcDb2dVertex
 10
310.1733184981
 20
144.5579389408
 30
0.0
  0
VERTEX
  5
29A
330
9E
100
AcDbEntity
  8
0
  6
CONTINUOUS
 62
     7
100
AcDbVertex
100
AcDb2dVertex
 10
310.2261262984
 20
145.1301623093
 30
0.0
  0
VERTEX
  5
29B
330
9E
100
AcDbEntity
  8
0
  6
CONTINUOUS
 62
     7
100
AcDbVertex
100
AcDb2dVertex
 10
310.4516315361
 20
147.6146202445
 30
0.0
  0
VERTEX
  5
29C
330
9E
100
AcDbEntity
  8
0
  6
CONTINUOUS
 62
     7
100
AcDbVertex
100
AcDb2dVertex
 10
310.675920491
 20
150.1261101629
 30
0.0
  0
VERTEX
  5
29D
330
9E
100
AcDbEntity
  8
0
  6
CONTINUOUS
 62
     7
100
AcDbVertex
100
AcDb2dVertex
 10
310.8955157025
 20
152.6256768827
 30
0.0
  0
VERTEX
  5
29E
330
9E
100
AcDbEntity
  8
0
  6
CONTINUOUS
 62
     7
100
AcDbVertex
100
AcDb2dVertex
 10
311.0962070992
 20
154.9483934248
 30
0.0
  0
VERTEX
  5
29F
330
9E
100
AcDbEntity
  8
0
  6
CONTINUOUS
 62
     7
100
AcDbVertex
100
AcDb2dVertex
 10
311.1475998166
 20
155.5496584417
 30
0.0
  0
SEQEND
  5
641
330
9E
100
AcDbEntity
  8
0
  6
CONTINUOUS
 62
     7
  0
POLYLINE
  5
9F
330
1F
100
AcDbEntity
  8
0
  6
CONTINUOUS
 62
     7
100
AcDb2dPolyline
 66
     1
 10
0.0
 20
0.0
 30
0.0
 70
   128
  0
VERTEX
  5
2A0
330
9F
100
AcDbEntity
  8
0
  6
CONTINUOUS
 62
     7
100
AcDbVertex
100
AcDb2dVertex
 10
798.6059709238
 20
135.8642660447
 30
0.0
  0
VERTEX
  5
2A1
330
9F
100
AcDbEntity
  8
0
  6
CONTINUOUS
 62
     7
100
AcDbVertex
100
AcDb2dVertex
 10
798.5183312812
 20
136.7278146837
 30
0.0
  0
VERTEX
  5
2A2
330
9F
100
AcDbEntity
  8
0
  6
CONTINUOUS
 62
     7
100
AcDbVertex
100
AcDb2dVertex
 10
798.3321277901
 20
138.6138005206
 30
0.0
  0
VERTEX
  5
2A3
330
9F
100
AcDbEntity
  8
0
  6
CONTINUOUS
 62
     7
100
AcDbVertex
100
AcDb2dVertex
 10
798.1314145792
 20
140.6939594776
 30
0.0
  0
VERTEX
  5
2A4
330
9F
100
AcDbEntity
  8
0
  6
CONTINUOUS
 62
     7
100
AcDbVertex
100
AcDb2dVertex
 10
797.9196524745
 20
142.9328717868
 30
0.0
  0
VERTEX
  5
2A5
330
9F
100
AcDbEntity
  8
0
  6
CONTINUOUS
 62
     7
100
AcDbVertex
100
AcDb2dVertex
 10
797.7003654082
 20
145.2935189448
 30
0.0
  0
VERTEX
  5
2A6
330
9F
100
AcDbEntity
  8
0
  6
CONTINUOUS
 62
     7
100
AcDbVertex
100
AcDb2dVertex
 10
797.4771378938
 20
147.7374471527
 30
0.0
  0
VERTEX
  5
2A7
330
9F
100
AcDbEntity
  8
0
  6
CONTINUOUS
 62
     7
100
AcDbVertex
100
AcDb2dVertex
 10
797.2535848208
 20
150.2251543698
 30
0.0
  0
VERTEX
  5
2A8
330
9F
100
AcDbEntity
  8
0
  6
CONTINUOUS
 62
     7
100
AcDbVertex
100
AcDb2dVertex
 10
797.0333087235
 20
152.7165872328
 30
0.0
  0
VERTEX
  5
2A9
330
9F
100
AcDbEntity
  8
0
  6
CONTINUOUS
 62
     7
100
AcDbVertex
100
AcDb2dVertex
 10
796.8198564745
 20
155.171633118
 30
0.0
  0
VERTEX
  5
2AA
330
9F
100
AcDbEntity
  8
0
  6
CONTINUOUS
 62
     7
100
AcDbVertex
100
AcDb2dVertex
 10
796.7000295189
 20
156.5692595623
 30
0.0
  0
SEQEND
  5
642
330
9F
100
AcDbEntity
  8
0
  6
CONTINUOUS
 62
     7
  0
POLYLINE
  5
A0
330
1F
100
AcDbEntity
  8
0
  6
CONTINUOUS
 62
     7
100
AcDb2dPolyline
 66
     1
 10
0.0
 20
0.0
 30
0.0
 70
   128
  0
VERTEX
  5
2AB
330
A0
100
AcDbEntity
  8
0
  6
CONTINUOUS
 62
     7
100
AcDbVertex
100
AcDb2dVertex
 10
784.7434240828
 20
155.5496584417
 30
0.0
  0
VERTEX
  5
2AC
330
A0
100
AcDbEntity
  8
0
  6
CONTINUOUS
 62
     7
100
AcDbVertex
100
AcDb2dVertex
 10
784.852063026
 20
154.2818573
 30
0.0
  0
VERTEX
  5
2AD
330
A0
100
AcDbEntity
  8
0
  6
CONTINUOUS
 62
     7
100
AcDbVertex
100
AcDb2dVertex
 10
785.0665207634
 20
151.8127905095
 30
0.0
  0
VERTEX
  5
2AE
330
A0
100
AcDbEntity
  8
0
  6
CONTINUOUS
 62
     7
100
AcDbVertex
100
AcDb2dVertex
 10
785.2880468602
 20
149.3048384017
 30
0.0
  0
VERTEX
  5
2AF
330
A0
100
AcDbEntity
  8
0
  6
CONTINUOUS
 62
     7
100
AcDbVertex
100
AcDb2dVertex
 10
785.5130976614
 20
146.7981260228
 30
0.0
  0
VERTEX
  5
2B0
330
A0
100
AcDbEntity
  8
0
  6
CONTINUOUS
 62
     7
100
AcDbVertex
100
AcDb2dVertex
 10
785.7186762553
 20
144.5452964219
 30
0.0
  0
SEQEND
  5
643
330
A0
100
AcDbEntity
  8
0
  6
CONTINUOUS
 62
     7
  0
LINE
  5
A1
330
1F
100
AcDbEntity
  8
0
  6
CONTINUOUS
 62
     7
100
AcDbLine
 10
678.9455119497
 20
530.9178720668
 30
0.0
 11
678.9455119497
 21
534.4178720668
 31
0.0
  0
LINE
  5
A2
330
1F
100
AcDbEntity
  8
0
  6
CONTINUOUS
 62
     7
100
AcDbLine
 10
678.9455119497
 20
530.9178720668
 30
0.0
 11
646.9455119497
 21
530.9178720668
 31
0.0
  0
LINE
  5
A3
330
1F
100
AcDbEntity
  8
0
  6
CONTINUOUS
 62
     7
100
AcDbLine
 10
646.9455119497
 20
530.9178720668
 30
0.0
 11
646.9455119497
 21
534.4178720668
 31
0.0
  0
LINE
  5
A4
330
1F
100
AcDbEntity
  8
0
  6
CONTINUOUS
 62
     7
100
AcDbLine
 10
448.9455119497
 20
530.9178720668
 30
0.0
 11
448.9455119497
 21
534.4178720668
 31
0.0
  0
LINE
  5
A5
330
1F
100
AcDbEntity
  8
0
  6
CONTINUOUS
 62
     7
100
AcDbLine
 10
448.9455119497
 20
530.9178720668
 30
0.0
 11
416.9455119497
 21
530.9178720668
 31
0.0
  0
LINE
  5
A6
330
1F
100
AcDbEntity
  8
0
  6
CONTINUOUS
 62
     7
100
AcDbLine
 10
416.9455119497
 20
530.9178720668
 30
0.0
 11
416.9455119497
 21
534.4178720668
 31
0.0
  0
ARC
  5
A7
330
1F
100
AcDbEntity
  8
0
  6
CONTINUOUS
 62
     7
100
AcDbCircle
 10
469.1398745366
 20
802.4178720668
 30
0.0
 40
99.99999999999989
100
AcDbArc
 50
90.0
 51
174.7261040426
  0
LINE
  5
A8
330
1F
100
AcDbEntity
  8
0
  6
CONTINUOUS
 62
     7
100
AcDbLine
 10
469.1398745366
 20
902.4178720668
 30
0.0
 11
626.7511493628
 21
902.4178720668
 31
0.0
  0
ARC
  5
A9
330
1F
100
AcDbEntity
  8
0
  6
CONTINUOUS
 62
     7
100
AcDbCircle
 10
626.7511493628
 20
802.4178720668
 30
0.0
 40
100.0
100
AcDbArc
 50
5.2738959574
 51
90.0
  0
LINE
  5
AA
330
1F
100
AcDbEntity
  8
0
  6
CONTINUOUS
 62
     7
100
AcDbLine
 10
726.3278172646
 20
811.6095644885
 30
0.0
 11
747.9455103963
 21
577.4178888951
 31
0.0
  0
ARC
  5
AB
330
1F
100
AcDbEntity
  8
0
  6
CONTINUOUS
 62
     7
100
AcDbCircle
 10
792.546331753
 20
579.9691151966
 30
0.0
 40
44.67324048569552
100
AcDbArc
 50
183.2738487508
 51
193.909936176
  0
POLYLINE
  5
AC
330
1F
100
AcDbEntity
  8
0
  6
CONTINUOUS
 62
     7
100
AcDb2dPolyline
 66
     1
 10
0.0
 20
0.0
 30
0.0
 70
   128
  0
VERTEX
  5
2B1
330
AC
100
AcDbEntity
  8
0
  6
CONTINUOUS
 62
     7
100
AcDbVertex
100
AcDb2dVertex
 10
751.774233754
 20
569.5350743829
 30
0.0
  0
VERTEX
  5
2B2
330
AC
100
AcDbEntity
  8
0
  6
CONTINUOUS
 62
     7
100
AcDbVertex
100
AcDb2dVertex
 10
752.7101281147
 20
569.7285069947
 30
0.0
  0
VERTEX
  5
2B3
330
AC
100
AcDbEntity
  8
0
  6
CONTINUOUS
 62
     7
100
AcDbVertex
100
AcDb2dVertex
 10
753.1530338665
 20
569.4920101771
 30
0.0
  0
VERTEX
  5
2B4
330
AC
100
AcDbEntity
  8
0
  6
CONTINUOUS
 62
     7
100
AcDbVertex
100
AcDb2dVertex
 10
753.1437469817
 20
569.3341264944
 30
0.0
  0
SEQEND
  5
644
330
AC
100
AcDbEntity
  8
0
  6
CONTINUOUS
 62
     7
  0
POLYLINE
  5
AD
330
1F
100
AcDbEntity
  8
0
  6
CONTINUOUS
 62
     7
100
AcDb2dPolyline
 66
     1
 10
0.0
 20
0.0
 30
0.0
 70
   128
  0
VERTEX
  5
2B5
330
AD
100
AcDbEntity
  8
0
  6
CONTINUOUS
 62
     7
100
AcDbVertex
100
AcDb2dVertex
 10
750.6572909735
 20
568.7500216971
 30
0.0
  0
VERTEX
  5
2B6
330
AD
100
AcDbEntity
  8
0
  6
CONTINUOUS
 62
     7
100
AcDbVertex
100
AcDb2dVertex
 10
751.2157283654
 20
569.2528694884
 30
0.0
  0
VERTEX
  5
2B7
330
AD
100
AcDbEntity
  8
0
  6
CONTINUOUS
 62
     7
100
AcDbVertex
100
AcDb2dVertex
 10
751.774233754
 20
569.5350743829
 30
0.0
  0
SEQEND
  5
645
330
AD
100
AcDbEntity
  8
0
  6
CONTINUOUS
 62
     7
  0
POLYLINE
  5
AE
330
1F
100
AcDbEntity
  8
0
  6
CONTINUOUS
 62
     7
100
AcDb2dPolyline
 66
     1
 10
0.0
 20
0.0
 30
0.0
 70
   128
  0
VERTEX
  5
2B8
330
AE
100
AcDbEntity
  8
0
  6
CONTINUOUS
 62
     7
100
AcDbVertex
100
AcDb2dVertex
 10
670.7066117968
 20
551.6947088618
 30
0.0
  0
VERTEX
  5
2B9
330
AE
100
AcDbEntity
  8
0
  6
CONTINUOUS
 62
     7
100
AcDbVertex
100
AcDb2dVertex
 10
678.467429138
 20
551.9838211652
 30
0.0
  0
VERTEX
  5
2BA
330
AE
100
AcDbEntity
  8
0
  6
CONTINUOUS
 62
     7
100
AcDbVertex
100
AcDb2dVertex
 10
686.0812346263
 20
552.5915126516
 30
0.0
  0
VERTEX
  5
2BB
330
AE
100
AcDbEntity
  8
0
  6
CONTINUOUS
 62
     7
100
AcDbVertex
100
AcDb2dVertex
 10
693.5517209347
 20
553.4972143589
 30
0.0
  0
VERTEX
  5
2BC
330
AE
100
AcDbEntity
  8
0
  6
CONTINUOUS
 62
     7
100
AcDbVertex
100
AcDb2dVertex
 10
700.8270397785
 20
554.6568962314
 30
0.0
  0
VERTEX
  5
2BD
330
AE
100
AcDbEntity
  8
0
  6
CONTINUOUS
 62
     7
100
AcDbVertex
100
AcDb2dVertex
 10
709.9727470106
 20
556.4642037258
 30
0.0
  0
VERTEX
  5
2BE
330
AE
100
AcDbEntity
  8
0
  6
CONTINUOUS
 62
     7
100
AcDbVertex
100
AcDb2dVertex
 10
718.4925833466
 20
558.4608903261
 30
0.0
  0
VERTEX
  5
2BF
330
AE
100
AcDbEntity
  8
0
  6
CONTINUOUS
 62
     7
100
AcDbVertex
100
AcDb2dVertex
 10
726.2268652134
 20
560.506632022
 30
0.0
  0
VERTEX
  5
2C0
330
AE
100
AcDbEntity
  8
0
  6
CONTINUOUS
 62
     7
100
AcDbVertex
100
AcDb2dVertex
 10
733.0461559259
 20
562.4841733219
 30
0.0
  0
VERTEX
  5
2C1
330
AE
100
AcDbEntity
  8
0
  6
CONTINUOUS
 62
     7
100
AcDbVertex
100
AcDb2dVertex
 10
738.9251192805
 20
564.3283272474
 30
0.0
  0
VERTEX
  5
2C2
330
AE
100
AcDbEntity
  8
0
  6
CONTINUOUS
 62
     7
100
AcDbVertex
100
AcDb2dVertex
 10
743.6796893977
 20
565.921790892
 30
0.0
  0
VERTEX
  5
2C3
330
AE
100
AcDbEntity
  8
0
  6
CONTINUOUS
 62
     7
100
AcDbVertex
100
AcDb2dVertex
 10
746.4793561197
 20
566.9149594403
 30
0.0
  0
VERTEX
  5
2C4
330
AE
100
AcDbEntity
  8
0
  6
CONTINUOUS
 62
     7
100
AcDbVertex
100
AcDb2dVertex
 10
748.6064390645
 20
567.7244000189
 30
0.0
  0
VERTEX
  5
2C5
330
AE
100
AcDbEntity
  8
0
  6
CONTINUOUS
 62
     7
100
AcDbVertex
100
AcDb2dVertex
 10
750.0061618682
 20
568.3344799858
 30
0.0
  0
VERTEX
  5
2C6
330
AE
100
AcDbEntity
  8
0
  6
CONTINUOUS
 62
     7
100
AcDbVertex
100
AcDb2dVertex
 10
750.6572909735
 20
568.7500216971
 30
0.0
  0
SEQEND
  5
646
330
AE
100
AcDbEntity
  8
0
  6
CONTINUOUS
 62
     7
  0
POLYLINE
  5
AF
330
1F
100
AcDbEntity
  8
0
  6
CONTINUOUS
 62
     7
100
AcDb2dPolyline
 66
     1
 10
0.0
 20
0.0
 30
0.0
 70
   128
  0
VERTEX
  5
2C7
330
AF
100
AcDbEntity
  8
0
  6
CONTINUOUS
 62
     7
100
AcDbVertex
100
AcDb2dVertex
 10
425.1844121026
 20
551.6933280456
 30
0.0
  0
VERTEX
  5
2C8
330
AF
100
AcDbEntity
  8
0
  6
CONTINUOUS
 62
     7
100
AcDbVertex
100
AcDb2dVertex
 10
486.5613646877
 20
550.7945967073
 30
0.0
  0
VERTEX
  5
2C9
330
AF
100
AcDbEntity
  8
0
  6
CONTINUOUS
 62
     7
100
AcDbVertex
100
AcDb2dVertex
 10
547.9425115412
 20
550.4390932414
 30
0.0
  0
VERTEX
  5
2CA
330
AF
100
AcDbEntity
  8
0
  6
CONTINUOUS
 62
     7
100
AcDbVertex
100
AcDb2dVertex
 10
609.3271643481
 20
550.7949790041
 30
0.0
  0
VERTEX
  5
2CB
330
AF
100
AcDbEntity
  8
0
  6
CONTINUOUS
 62
     7
100
AcDbVertex
100
AcDb2dVertex
 10
670.7066117968
 20
551.6947088618
 30
0.0
  0
SEQEND
  5
647
330
AF
100
AcDbEntity
  8
0
  6
CONTINUOUS
 62
     7
  0
POLYLINE
  5
B0
330
1F
100
AcDbEntity
  8
0
  6
CONTINUOUS
 62
     7
100
AcDb2dPolyline
 66
     1
 10
0.0
 20
0.0
 30
0.0
 70
   128
  0
VERTEX
  5
2CC
330
B0
100
AcDbEntity
  8
0
  6
CONTINUOUS
 62
     7
100
AcDbVertex
100
AcDb2dVertex
 10
345.2337329259
 20
568.7481164407
 30
0.0
  0
VERTEX
  5
2CD
330
B0
100
AcDbEntity
  8
0
  6
CONTINUOUS
 62
     7
100
AcDbVertex
100
AcDb2dVertex
 10
345.8817611939
 20
568.3340280684
 30
0.0
  0
VERTEX
  5
2CE
330
B0
100
AcDbEntity
  8
0
  6
CONTINUOUS
 62
     7
100
AcDbVertex
100
AcDb2dVertex
 10
347.2633874042
 20
567.7308191749
 30
0.0
  0
VERTEX
  5
2CF
330
B0
100
AcDbEntity
  8
0
  6
CONTINUOUS
 62
     7
100
AcDbVertex
100
AcDb2dVertex
 10
349.3669049174
 20
566.9291236964
 30
0.0
  0
VERTEX
  5
2D0
330
B0
100
AcDbEntity
  8
0
  6
CONTINUOUS
 62
     7
100
AcDbVertex
100
AcDb2dVertex
 10
352.1865537391
 20
565.9281662644
 30
0.0
  0
VERTEX
  5
2D1
330
B0
100
AcDbEntity
  8
0
  6
CONTINUOUS
 62
     7
100
AcDbVertex
100
AcDb2dVertex
 10
356.9367570925
 20
564.3355553503
 30
0.0
  0
VERTEX
  5
2D2
330
B0
100
AcDbEntity
  8
0
  6
CONTINUOUS
 62
     7
100
AcDbVertex
100
AcDb2dVertex
 10
362.7880442145
 20
562.5004714148
 30
0.0
  0
VERTEX
  5
2D3
330
B0
100
AcDbEntity
  8
0
  6
CONTINUOUS
 62
     7
100
AcDbVertex
100
AcDb2dVertex
 10
369.6442585214
 20
560.5121923791
 30
0.0
  0
VERTEX
  5
2D4
330
B0
100
AcDbEntity
  8
0
  6
CONTINUOUS
 62
     7
100
AcDbVertex
100
AcDb2dVertex
 10
377.3380418264
 20
558.476673909
 30
0.0
  0
VERTEX
  5
2D5
330
B0
100
AcDbEntity
  8
0
  6
CONTINUOUS
 62
     7
100
AcDbVertex
100
AcDb2dVertex
 10
385.8668217227
 20
556.4774657463
 30
0.0
  0
VERTEX
  5
2D6
330
B0
100
AcDbEntity
  8
0
  6
CONTINUOUS
 62
     7
100
AcDbVertex
100
AcDb2dVertex
 10
395.0100827164
 20
554.6678905467
 30
0.0
  0
VERTEX
  5
2D7
330
B0
100
AcDbEntity
  8
0
  6
CONTINUOUS
 62
     7
100
AcDbVertex
100
AcDb2dVertex
 10
402.2057391073
 20
553.5169648489
 30
0.0
  0
VERTEX
  5
2D8
330
B0
100
AcDbEntity
  8
0
  6
CONTINUOUS
 62
     7
100
AcDbVertex
100
AcDb2dVertex
 10
409.7014583332
 20
552.6021371624
 30
0.0
  0
VERTEX
  5
2D9
330
B0
100
AcDbEntity
  8
0
  6
CONTINUOUS
 62
     7
100
AcDbVertex
100
AcDb2dVertex
 10
417.3956153519
 20
551.9841948825
 30
0.0
  0
VERTEX
  5
2DA
330
B0
100
AcDbEntity
  8
0
  6
CONTINUOUS
 62
     7
100
AcDbVertex
100
AcDb2dVertex
 10
425.1844121026
 20
551.6933280456
 30
0.0
  0
SEQEND
  5
648
330
B0
100
AcDbEntity
  8
0
  6
CONTINUOUS
 62
     7
  0
POLYLINE
  5
B1
330
1F
100
AcDbEntity
  8
0
  6
CONTINUOUS
 62
     7
100
AcDb2dPolyline
 66
     1
 10
0.0
 20
0.0
 30
0.0
 70
   128
  0
VERTEX
  5
2DB
330
B1
100
AcDbEntity
  8
0
  6
CONTINUOUS
 62
     7
100
AcDbVertex
100
AcDb2dVertex
 10
344.1167901454
 20
569.5332621001
 30
0.0
  0
VERTEX
  5
2DC
330
B1
100
AcDbEntity
  8
0
  6
CONTINUOUS
 62
     7
100
AcDbVertex
100
AcDb2dVertex
 10
344.6752938153
 20
569.2510086901
 30
0.0
  0
VERTEX
  5
2DD
330
B1
100
AcDbEntity
  8
0
  6
CONTINUOUS
 62
     7
100
AcDbVertex
100
AcDb2dVertex
 10
345.2337329259
 20
568.7481164407
 30
0.0
  0
SEQEND
  5
649
330
B1
100
AcDbEntity
  8
0
  6
CONTINUOUS
 62
     7
  0
POLYLINE
  5
B2
330
1F
100
AcDbEntity
  8
0
  6
CONTINUOUS
 62
     7
100
AcDb2dPolyline
 66
     1
 10
0.0
 20
0.0
 30
0.0
 70
   128
  0
VERTEX
  5
2DE
330
B2
100
AcDbEntity
  8
0
  6
CONTINUOUS
 62
     7
100
AcDbVertex
100
AcDb2dVertex
 10
342.7472397861
 20
569.3326838889
 30
0.0
  0
VERTEX
  5
2DF
330
B2
100
AcDbEntity
  8
0
  6
CONTINUOUS
 62
     7
100
AcDbVertex
100
AcDb2dVertex
 10
342.7379681318
 20
569.490239672
 30
0.0
  0
VERTEX
  5
2E0
330
B2
100
AcDbEntity
  8
0
  6
CONTINUOUS
 62
     7
100
AcDbVertex
100
AcDb2dVertex
 10
343.1808246423
 20
569.7267791824
 30
0.0
  0
VERTEX
  5
2E1
330
B2
100
AcDbEntity
  8
0
  6
CONTINUOUS
 62
     7
100
AcDbVertex
100
AcDb2dVertex
 10
344.1167901454
 20
569.5332621001
 30
0.0
  0
SEQEND
  5
64A
330
B2
100
AcDbEntity
  8
0
  6
CONTINUOUS
 62
     7
  0
ARC
  5
B3
330
1F
100
AcDbEntity
  8
0
  6
CONTINUOUS
 62
     7
100
AcDbCircle
 10
303.3034420971
 20
579.9772974914
 30
0.0
 40
44.71537833036867
100
AcDbArc
 50
346.0886092302
 51
356.7187023488
  0
LINE
  5
B4
330
1F
100
AcDbEntity
  8
0
  6
CONTINUOUS
 62
     7
100
AcDbLine
 10
347.9455119497
 20
577.4178720668
 30
0.0
 11
369.5632066348
 21
811.6095644885
 31
0.0
  0
POLYLINE
  5
B5
330
1F
100
AcDbEntity
  8
0
  6
CONTINUOUS
 62
     7
100
AcDb2dPolyline
 66
     1
 10
0.0
 20
0.0
 30
0.0
 70
   128
  0
VERTEX
  5
2E2
330
B5
100
AcDbEntity
  8
0
  6
CONTINUOUS
 62
     7
100
AcDbVertex
100
AcDb2dVertex
 10
425.0394724365
 20
542.5324458465
 30
0.0
  0
VERTEX
  5
2E3
330
B5
100
AcDbEntity
  8
0
  6
CONTINUOUS
 62
     7
100
AcDbVertex
100
AcDb2dVertex
 10
486.452662561
 20
541.437290866
 30
0.0
  0
VERTEX
  5
2E4
330
B5
100
AcDbEntity
  8
0
  6
CONTINUOUS
 62
     7
100
AcDbVertex
100
AcDb2dVertex
 10
547.9430932506
 20
541.0135716431
 30
0.0
  0
VERTEX
  5
2E5
330
B5
100
AcDbEntity
  8
0
  6
CONTINUOUS
 62
     7
100
AcDbVertex
100
AcDb2dVertex
 10
609.4350713548
 20
541.4376462473
 30
0.0
  0
VERTEX
  5
2E6
330
B5
100
AcDbEntity
  8
0
  6
CONTINUOUS
 62
     7
100
AcDbVertex
100
AcDb2dVertex
 10
670.8523048603
 20
542.5337941117
 30
0.0
  0
SEQEND
  5
64B
330
B5
100
AcDbEntity
  8
0
  6
CONTINUOUS
 62
     7
  0
POLYLINE
  5
B6
330
1F
100
AcDbEntity
  8
0
  6
CONTINUOUS
 62
     7
100
AcDb2dPolyline
 66
     1
 10
0.0
 20
0.0
 30
0.0
 70
   128
  0
VERTEX
  5
2E7
330
B6
100
AcDbEntity
  8
0
  6
CONTINUOUS
 62
     7
100
AcDbVertex
100
AcDb2dVertex
 10
670.8523048603
 20
542.5337941117
 30
0.0
  0
VERTEX
  5
2E8
330
B6
100
AcDbEntity
  8
0
  6
CONTINUOUS
 62
     7
100
AcDbVertex
100
AcDb2dVertex
 10
681.1677333256
 20
542.993291102
 30
0.0
  0
VERTEX
  5
2E9
330
B6
100
AcDbEntity
  8
0
  6
CONTINUOUS
 62
     7
100
AcDbVertex
100
AcDb2dVertex
 10
691.2418738404
 20
543.9412795516
 30
0.0
  0
VERTEX
  5
2EA
330
B6
100
AcDbEntity
  8
0
  6
CONTINUOUS
 62
     7
100
AcDbVertex
100
AcDb2dVertex
 10
701.0264219564
 20
545.3209733383
 30
0.0
  0
VERTEX
  5
2EB
330
B6
100
AcDbEntity
  8
0
  6
CONTINUOUS
 62
     7
100
AcDbVertex
100
AcDb2dVertex
 10
710.229470981
 20
546.9933348233
 30
0.0
  0
VERTEX
  5
2EC
330
B6
100
AcDbEntity
  8
0
  6
CONTINUOUS
 62
     7
100
AcDbVertex
100
AcDb2dVertex
 10
718.8343810526
 20
548.8589630978
 30
0.0
  0
VERTEX
  5
2ED
330
B6
100
AcDbEntity
  8
0
  6
CONTINUOUS
 62
     7
100
AcDbVertex
100
AcDb2dVertex
 10
726.6747673424
 20
550.7939034971
 30
0.0
  0
VERTEX
  5
2EE
330
B6
100
AcDbEntity
  8
0
  6
CONTINUOUS
 62
     7
100
AcDbVertex
100
AcDb2dVertex
 10
733.6155191241
 20
552.6876655841
 30
0.0
  0
VERTEX
  5
2EF
330
B6
100
AcDbEntity
  8
0
  6
CONTINUOUS
 62
     7
100
AcDbVertex
100
AcDb2dVertex
 10
739.6218592425
 20
554.4717445806
 30
0.0
  0
VERTEX
  5
2F0
330
B6
100
AcDbEntity
  8
0
  6
CONTINUOUS
 62
     7
100
AcDbVertex
100
AcDb2dVertex
 10
744.4986129456
 20
556.0243551249
 30
0.0
  0
VERTEX
  5
2F1
330
B6
100
AcDbEntity
  8
0
  6
CONTINUOUS
 62
     7
100
AcDbVertex
100
AcDb2dVertex
 10
747.3848606335
 20
556.9987465374
 30
0.0
  0
VERTEX
  5
2F2
330
B6
100
AcDbEntity
  8
0
  6
CONTINUOUS
 62
     7
100
AcDbVertex
100
AcDb2dVertex
 10
749.5944628589
 20
557.7980954347
 30
0.0
  0
VERTEX
  5
2F3
330
B6
100
AcDbEntity
  8
0
  6
CONTINUOUS
 62
     7
100
AcDbVertex
100
AcDb2dVertex
 10
751.0716448626
 20
558.4047991439
 30
0.0
  0
VERTEX
  5
2F4
330
B6
100
AcDbEntity
  8
0
  6
CONTINUOUS
 62
     7
100
AcDbVertex
100
AcDb2dVertex
 10
751.7944380864
 20
558.8217856583
 30
0.0
  0
SEQEND
  5
64C
330
B6
100
AcDbEntity
  8
0
  6
CONTINUOUS
 62
     7
  0
POLYLINE
  5
B7
330
1F
100
AcDbEntity
  8
0
  6
CONTINUOUS
 62
     7
100
AcDb2dPolyline
 66
     1
 10
0.0
 20
0.0
 30
0.0
 70
   128
  0
VERTEX
  5
2F5
330
B7
100
AcDbEntity
  8
0
  6
CONTINUOUS
 62
     7
100
AcDbVertex
100
AcDb2dVertex
 10
344.0952638803
 20
558.8200310878
 30
0.0
  0
VERTEX
  5
2F6
330
B7
100
AcDbEntity
  8
0
  6
CONTINUOUS
 62
     7
100
AcDbVertex
100
AcDb2dVertex
 10
344.8149303286
 20
558.4044682693
 30
0.0
  0
VERTEX
  5
2F7
330
B7
100
AcDbEntity
  8
0
  6
CONTINUOUS
 62
     7
100
AcDbVertex
100
AcDb2dVertex
 10
346.2736658281
 20
557.8045112508
 30
0.0
  0
VERTEX
  5
2F8
330
B7
100
AcDbEntity
  8
0
  6
CONTINUOUS
 62
     7
100
AcDbVertex
100
AcDb2dVertex
 10
348.4596595417
 20
557.0126753092
 30
0.0
  0
VERTEX
  5
2F9
330
B7
100
AcDbEntity
  8
0
  6
CONTINUOUS
 62
     7
100
AcDbVertex
100
AcDb2dVertex
 10
351.3673230845
 20
556.0305143162
 30
0.0
  0
VERTEX
  5
2FA
330
B7
100
AcDbEntity
  8
0
  6
CONTINUOUS
 62
     7
100
AcDbVertex
100
AcDb2dVertex
 10
356.2405225117
 20
554.4786552773
 30
0.0
  0
VERTEX
  5
2FB
330
B7
100
AcDbEntity
  8
0
  6
CONTINUOUS
 62
     7
100
AcDbVertex
100
AcDb2dVertex
 10
362.2191384948
 20
552.7031000087
 30
0.0
  0
VERTEX
  5
2FC
330
B7
100
AcDbEntity
  8
0
  6
CONTINUOUS
 62
     7
100
AcDbVertex
100
AcDb2dVertex
 10
369.1975246259
 20
550.7991327696
 30
0.0
  0
VERTEX
  5
2FD
330
B7
100
AcDbEntity
  8
0
  6
CONTINUOUS
 62
     7
100
AcDbVertex
100
AcDb2dVertex
 10
376.9966100772
 20
548.8738370668
 30
0.0
  0
VERTEX
  5
2FE
330
B7
100
AcDbEntity
  8
0
  6
CONTINUOUS
 62
     7
100
AcDbVertex
100
AcDb2dVertex
 10
385.60996992
 20
547.0054506947
 30
0.0
  0
VERTEX
  5
2FF
330
B7
100
AcDbEntity
  8
0
  6
CONTINUOUS
 62
     7
100
AcDbVertex
100
AcDb2dVertex
 10
394.8097799437
 20
545.3312124599
 30
0.0
  0
VERTEX
  5
300
330
B7
100
AcDbEntity
  8
0
  6
CONTINUOUS
 62
     7
100
AcDbVertex
100
AcDb2dVertex
 10
404.5047926705
 20
543.9588405507
 30
0.0
  0
VERTEX
  5
301
330
B7
100
AcDbEntity
  8
0
  6
CONTINUOUS
 62
     7
100
AcDbVertex
100
AcDb2dVertex
 10
414.6730732675
 20
542.9957358862
 30
0.0
  0
VERTEX
  5
302
330
B7
100
AcDbEntity
  8
0
  6
CONTINUOUS
 62
     7
100
AcDbVertex
100
AcDb2dVertex
 10
425.0394724365
 20
542.5324458465
 30
0.0
  0
SEQEND
  5
64D
330
B7
100
AcDbEntity
  8
0
  6
CONTINUOUS
 62
     7
  0
POLYLINE
  5
B8
330
1F
100
AcDbEntity
  8
0
  6
CONTINUOUS
 62
     7
100
AcDb2dPolyline
 66
     1
 10
0.0
 20
0.0
 30
0.0
 70
   128
  0
VERTEX
  5
303
330
B8
100
AcDbEntity
  8
0
  6
CONTINUOUS
 62
     7
100
AcDbVertex
100
AcDb2dVertex
 10
343.2829792488
 20
556.8084110064
 30
0.0
  0
VERTEX
  5
304
330
B8
100
AcDbEntity
  8
0
  6
CONTINUOUS
 62
     7
100
AcDbVertex
100
AcDb2dVertex
 10
342.8361254829
 20
556.9975017235
 30
0.0
  0
VERTEX
  5
305
330
B8
100
AcDbEntity
  8
0
  6
CONTINUOUS
 62
     7
100
AcDbVertex
100
AcDb2dVertex
 10
342.2785434251
 20
557.3749304059
 30
0.0
  0
VERTEX
  5
306
330
B8
100
AcDbEntity
  8
0
  6
CONTINUOUS
 62
     7
100
AcDbVertex
100
AcDb2dVertex
 10
341.8477347418
 20
557.8090787821
 30
0.0
  0
VERTEX
  5
307
330
B8
100
AcDbEntity
  8
0
  6
CONTINUOUS
 62
     7
100
AcDbVertex
100
AcDb2dVertex
 10
341.528131111
 20
558.2800979497
 30
0.0
  0
VERTEX
  5
308
330
B8
100
AcDbEntity
  8
0
  6
CONTINUOUS
 62
     7
100
AcDbVertex
100
AcDb2dVertex
 10
341.3112600059
 20
558.7559991369
 30
0.0
  0
VERTEX
  5
309
330
B8
100
AcDbEntity
  8
0
  6
CONTINUOUS
 62
     7
100
AcDbVertex
100
AcDb2dVertex
 10
341.2204531231
 20
559.6075058788
 30
0.0
  0
VERTEX
  5
30A
330
B8
100
AcDbEntity
  8
0
  6
CONTINUOUS
 62
     7
100
AcDbVertex
100
AcDb2dVertex
 10
341.7039060733
 20
559.8364790176
 30
0.0
  0
VERTEX
  5
30B
330
B8
100
AcDbEntity
  8
0
  6
CONTINUOUS
 62
     7
100
AcDbVertex
100
AcDb2dVertex
 10
342.7566786323
 20
559.626505949
 30
0.0
  0
SEQEND
  5
64E
330
B8
100
AcDbEntity
  8
0
  6
CONTINUOUS
 62
     7
  0
LINE
  5
B9
330
1F
100
AcDbEntity
  8
0
  6
CONTINUOUS
 62
     7
100
AcDbLine
 10
342.7566786323
 20
559.626505949
 30
0.0
 11
344.0952638803
 21
558.8200310878
 31
0.0
  0
LINE
  5
BA
330
1F
100
AcDbEntity
  8
0
  6
CONTINUOUS
 62
     7
100
AcDbLine
 10
751.7944380864
 20
558.8217856583
 30
0.0
 11
753.1326026007
 21
559.6280793853
 31
0.0
  0
POLYLINE
  5
BB
330
1F
100
AcDbEntity
  8
0
  6
CONTINUOUS
 62
     7
100
AcDb2dPolyline
 66
     1
 10
0.0
 20
0.0
 30
0.0
 70
   128
  0
VERTEX
  5
30C
330
BB
100
AcDbEntity
  8
0
  6
CONTINUOUS
 62
     7
100
AcDbVertex
100
AcDb2dVertex
 10
753.1326026007
 20
559.6280793853
 30
0.0
  0
VERTEX
  5
30D
330
BB
100
AcDbEntity
  8
0
  6
CONTINUOUS
 62
     7
100
AcDbVertex
100
AcDb2dVertex
 10
754.1849022198
 20
559.8378867378
 30
0.0
  0
VERTEX
  5
30E
330
BB
100
AcDbEntity
  8
0
  6
CONTINUOUS
 62
     7
100
AcDbVertex
100
AcDb2dVertex
 10
754.6681855185
 20
559.6089131688
 30
0.0
  0
VERTEX
  5
30F
330
BB
100
AcDbEntity
  8
0
  6
CONTINUOUS
 62
     7
100
AcDbVertex
100
AcDb2dVertex
 10
754.577312475
 20
558.7574401651
 30
0.0
  0
VERTEX
  5
310
330
BB
100
AcDbEntity
  8
0
  6
CONTINUOUS
 62
     7
100
AcDbVertex
100
AcDb2dVertex
 10
754.3604344803
 20
558.2816312538
 30
0.0
  0
VERTEX
  5
311
330
BB
100
AcDbEntity
  8
0
  6
CONTINUOUS
 62
     7
100
AcDbVertex
100
AcDb2dVertex
 10
754.040890898
 20
557.8107965061
 30
0.0
  0
VERTEX
  5
312
330
BB
100
AcDbEntity
  8
0
  6
CONTINUOUS
 62
     7
100
AcDbVertex
100
AcDb2dVertex
 10
753.6101982729
 20
557.3768498955
 30
0.0
  0
VERTEX
  5
313
330
BB
100
AcDbEntity
  8
0
  6
CONTINUOUS
 62
     7
100
AcDbVertex
100
AcDb2dVertex
 10
753.0527811958
 20
556.9996298351
 30
0.0
  0
VERTEX
  5
314
330
BB
100
AcDbEntity
  8
0
  6
CONTINUOUS
 62
     7
100
AcDbVertex
100
AcDb2dVertex
 10
752.6116953468
 20
556.8130590781
 30
0.0
  0
SEQEND
  5
64F
330
BB
100
AcDbEntity
  8
0
  6
CONTINUOUS
 62
     7
  0
POLYLINE
  5
BC
330
1F
100
AcDbEntity
  8
0
  6
CONTINUOUS
 62
     7
100
AcDb2dPolyline
 66
     1
 10
0.0
 20
0.0
 30
0.0
 70
   128
  0
VERTEX
  5
315
330
BC
100
AcDbEntity
  8
0
  6
CONTINUOUS
 62
     7
100
AcDbVertex
100
AcDb2dVertex
 10
729.2539652095
 20
810.3259824953
 30
0.0
  0
VERTEX
  5
316
330
BC
100
AcDbEntity
  8
0
  6
CONTINUOUS
 62
     7
100
AcDbVertex
100
AcDb2dVertex
 10
730.8510204029
 20
793.1532051403
 30
0.0
  0
VERTEX
  5
317
330
BC
100
AcDbEntity
  8
0
  6
CONTINUOUS
 62
     7
100
AcDbVertex
100
AcDb2dVertex
 10
732.4179578374
 20
776.0105525054
 30
0.0
  0
VERTEX
  5
318
330
BC
100
AcDbEntity
  8
0
  6
CONTINUOUS
 62
     7
100
AcDbVertex
100
AcDb2dVertex
 10
733.9304098159
 20
758.9585667317
 30
0.0
  0
VERTEX
  5
319
330
BC
100
AcDbEntity
  8
0
  6
CONTINUOUS
 62
     7
100
AcDbVertex
100
AcDb2dVertex
 10
735.3614589315
 20
742.0606607652
 30
0.0
  0
VERTEX
  5
31A
330
BC
100
AcDbEntity
  8
0
  6
CONTINUOUS
 62
     7
100
AcDbVertex
100
AcDb2dVertex
 10
736.7289284395
 20
725.2239679405
 30
0.0
  0
VERTEX
  5
31B
330
BC
100
AcDbEntity
  8
0
  6
CONTINUOUS
 62
     7
100
AcDbVertex
100
AcDb2dVertex
 10
738.0720409867
 20
708.2292038209
 30
0.0
  0
VERTEX
  5
31C
330
BC
100
AcDbEntity
  8
0
  6
CONTINUOUS
 62
     7
100
AcDbVertex
100
AcDb2dVertex
 10
739.3971224327
 20
691.0820425384
 30
0.0
  0
VERTEX
  5
31D
330
BC
100
AcDbEntity
  8
0
  6
CONTINUOUS
 62
     7
100
AcDbVertex
100
AcDb2dVertex
 10
740.4801956027
 20
676.9178474371
 30
0.0
  0
VERTEX
  5
31E
330
BC
100
AcDbEntity
  8
0
  6
CONTINUOUS
 62
     7
100
AcDbVertex
100
AcDb2dVertex
 10
741.5784880738
 20
662.4931532392
 30
0.0
  0
VERTEX
  5
31F
330
BC
100
AcDbEntity
  8
0
  6
CONTINUOUS
 62
     7
100
AcDbVertex
100
AcDb2dVertex
 10
742.6854045256
 20
647.7203624671
 30
0.0
  0
VERTEX
  5
320
330
BC
100
AcDbEntity
  8
0
  6
CONTINUOUS
 62
     7
100
AcDbVertex
100
AcDb2dVertex
 10
743.3290694885
 20
638.8405914292
 30
0.0
  0
VERTEX
  5
321
330
BC
100
AcDbEntity
  8
0
  6
CONTINUOUS
 62
     7
100
AcDbVertex
100
AcDb2dVertex
 10
743.9574869761
 20
629.8326304033
 30
0.0
  0
VERTEX
  5
322
330
BC
100
AcDbEntity
  8
0
  6
CONTINUOUS
 62
     7
100
AcDbVertex
100
AcDb2dVertex
 10
744.5653927176
 20
620.714434146
 30
0.0
  0
VERTEX
  5
323
330
BC
100
AcDbEntity
  8
0
  6
CONTINUOUS
 62
     7
100
AcDbVertex
100
AcDb2dVertex
 10
745.1460495543
 20
611.5107563191
 30
0.0
  0
VERTEX
  5
324
330
BC
100
AcDbEntity
  8
0
  6
CONTINUOUS
 62
     7
100
AcDbVertex
100
AcDb2dVertex
 10
745.657164089
 20
603.0427809504
 30
0.0
  0
VERTEX
  5
325
330
BC
100
AcDbEntity
  8
0
  6
CONTINUOUS
 62
     7
100
AcDbVertex
100
AcDb2dVertex
 10
745.7938231758
 20
600.7278337836
 30
0.0
  0
SEQEND
  5
650
330
BC
100
AcDbEntity
  8
0
  6
CONTINUOUS
 62
     7
  0
ARC
  5
BD
330
1F
100
AcDbEntity
  8
0
  6
CONTINUOUS
 62
     7
100
AcDbCircle
 10
630.3181253838
 20
800.9569707984
 30
0.0
 40
99.37846236581315
100
AcDbArc
 50
5.4096551505
 51
59.6723183203
  0
ARC
  5
BE
330
1F
100
AcDbEntity
  8
0
  6
CONTINUOUS
 62
     7
100
AcDbCircle
 10
465.4461171426
 20
801.0376229251
 30
0.0
 40
99.24150658640566
100
AcDbArc
 50
120.282343421
 51
174.6297040293
  0
POLYLINE
  5
BF
330
1F
100
AcDbEntity
  8
0
  6
CONTINUOUS
 62
     7
100
AcDb2dPolyline
 66
     1
 10
0.0
 20
0.0
 30
0.0
 70
   128
  0
VERTEX
  5
326
330
BF
100
AcDbEntity
  8
0
  6
CONTINUOUS
 62
     7
100
AcDbVertex
100
AcDb2dVertex
 10
350.096661712
 20
600.7219944918
 30
0.0
  0
VERTEX
  5
327
330
BF
100
AcDbEntity
  8
0
  6
CONTINUOUS
 62
     7
100
AcDbVertex
100
AcDb2dVertex
 10
350.2442040887
 20
603.2192470636
 30
0.0
  0
VERTEX
  5
328
330
BF
100
AcDbEntity
  8
0
  6
CONTINUOUS
 62
     7
100
AcDbVertex
100
AcDb2dVertex
 10
350.7574769686
 20
611.7128585806
 30
0.0
  0
VERTEX
  5
329
330
BF
100
AcDbEntity
  8
0
  6
CONTINUOUS
 62
     7
100
AcDbVertex
100
AcDb2dVertex
 10
351.2875490368
 20
620.1223014284
 30
0.0
  0
VERTEX
  5
32A
330
BF
100
AcDbEntity
  8
0
  6
CONTINUOUS
 62
     7
100
AcDbVertex
100
AcDb2dVertex
 10
351.8415587125
 20
628.4714925769
 30
0.0
  0
VERTEX
  5
32B
330
BF
100
AcDbEntity
  8
0
  6
CONTINUOUS
 62
     7
100
AcDbVertex
100
AcDb2dVertex
 10
352.7587533595
 20
641.5761030924
 30
0.0
  0
VERTEX
  5
32C
330
BF
100
AcDbEntity
  8
0
  6
CONTINUOUS
 62
     7
100
AcDbVertex
100
AcDb2dVertex
 10
353.7012780364
 20
654.3742437427
 30
0.0
  0
VERTEX
  5
32D
330
BF
100
AcDbEntity
  8
0
  6
CONTINUOUS
 62
     7
100
AcDbVertex
100
AcDb2dVertex
 10
354.6484010038
 20
666.8988433178
 30
0.0
  0
VERTEX
  5
32E
330
BF
100
AcDbEntity
  8
0
  6
CONTINUOUS
 62
     7
100
AcDbVertex
100
AcDb2dVertex
 10
355.586430257
 20
679.195342198
 30
0.0
  0
VERTEX
  5
32F
330
BF
100
AcDbEntity
  8
0
  6
CONTINUOUS
 62
     7
100
AcDbVertex
100
AcDb2dVertex
 10
356.5124658718
 20
691.3002067002
 30
0.0
  0
VERTEX
  5
330
330
BF
100
AcDbEntity
  8
0
  6
CONTINUOUS
 62
     7
100
AcDbVertex
100
AcDb2dVertex
 10
358.0555758329
 20
711.223841745
 30
0.0
  0
VERTEX
  5
331
330
BF
100
AcDbEntity
  8
0
  6
CONTINUOUS
 62
     7
100
AcDbVertex
100
AcDb2dVertex
 10
359.6246500349
 20
730.9437000428
 30
0.0
  0
VERTEX
  5
332
330
BF
100
AcDbEntity
  8
0
  6
CONTINUOUS
 62
     7
100
AcDbVertex
100
AcDb2dVertex
 10
361.2417736956
 20
750.5436705078
 30
0.0
  0
VERTEX
  5
333
330
BF
100
AcDbEntity
  8
0
  6
CONTINUOUS
 62
     7
100
AcDbVertex
100
AcDb2dVertex
 10
362.9673588069
 20
770.3457703815
 30
0.0
  0
VERTEX
  5
334
330
BF
100
AcDbEntity
  8
0
  6
CONTINUOUS
 62
     7
100
AcDbVertex
100
AcDb2dVertex
 10
364.7808482759
 20
790.307945961
 30
0.0
  0
VERTEX
  5
335
330
BF
100
AcDbEntity
  8
0
  6
CONTINUOUS
 62
     7
100
AcDbVertex
100
AcDb2dVertex
 10
366.6402192725
 20
810.3258507224
 30
0.0
  0
SEQEND
  5
651
330
BF
100
AcDbEntity
  8
0
  6
CONTINUOUS
 62
     7
  0
ARC
  5
C0
330
1F
100
AcDbEntity
  8
0
  6
CONTINUOUS
 62
     7
100
AcDbCircle
 10
803.6986455453
 20
118.4651602675
 30
0.0
 40
0.9836181402503122
100
AcDbArc
 50
270.996464813
 51
0.9629538805
  0
LINE
  5
C1
330
1F
100
AcDbEntity
  8
0
  6
CONTINUOUS
 62
     7
100
AcDbLine
 10
803.7157513682
 20
117.4816908797
 30
0.0
 11
793.4300370825
 21
117.4816908797
 31
0.0
  0
ARC
  5
C2
330
1F
100
AcDbEntity
  8
0
  6
CONTINUOUS
 62
     7
100
AcDbCircle
 10
793.4129312596
 20
118.4651602675
 30
0.0
 40
0.9836181402503995
100
AcDbArc
 50
270.996464813
 51
0.9629538805
  0
LINE
  5
C3
330
1F
100
AcDbEntity
  8
0
  6
CONTINUOUS
 62
     7
100
AcDbLine
 10
794.3933737563
 20
120.0212357373
 30
0.0
 11
793.7436787113
 21
128.4816908797
 31
0.0
  0
ARC
  5
C4
330
1F
100
AcDbEntity
  8
0
  6
CONTINUOUS
 62
     7
100
AcDbCircle
 10
793.3618063174
 20
119.9420246242
 30
0.0
 40
1.034604166493086
100
AcDbArc
 50
359.9998195029
 51
4.390962464
  0
LINE
  5
C5
330
1F
100
AcDbEntity
  8
0
  6
CONTINUOUS
 62
     7
100
AcDbLine
 10
794.3964104839
 20
118.4816908797
 30
0.0
 11
794.3964104839
 21
119.9420213649
 31
0.0
  0
LINE
  5
C6
330
1F
100
AcDbEntity
  8
0
  6
CONTINUOUS
 62
     7
100
AcDbLine
 10
781.8335562651
 20
117.4816908796
 30
0.0
 11
793.4300370825
 21
117.4816908797
 31
0.0
  0
ARC
  5
C7
330
1F
100
AcDbEntity
  8
0
  6
CONTINUOUS
 62
     7
100
AcDbCircle
 10
781.850662088
 20
118.4651602674
 30
0.0
 40
0.983618140249298
100
AcDbArc
 50
179.0370461203
 51
269.0035351879
  0
LINE
  5
C8
330
1F
100
AcDbEntity
  8
0
  6
CONTINUOUS
 62
     7
100
AcDbLine
 10
780.8671828637
 20
119.9420213648
 30
0.0
 11
780.8671828637
 21
118.4816908796
 31
0.0
  0
ARC
  5
C9
330
1F
100
AcDbEntity
  8
0
  6
CONTINUOUS
 62
     7
100
AcDbCircle
 10
781.90178703
 20
119.9420246241
 30
0.0
 40
1.034604166332219
100
AcDbArc
 50
175.6090375364
 51
180.0001804982
  0
LINE
  5
CA
330
1F
100
AcDbEntity
  8
0
  6
CONTINUOUS
 62
     7
100
AcDbLine
 10
781.3043796011
 20
125.674951763
 30
0.0
 11
780.8702195913
 21
120.0212357372
 31
0.0
  0
ARC
  5
CB
330
1F
100
AcDbEntity
  8
0
  6
CONTINUOUS
 62
     7
100
AcDbCircle
 10
787.6273355358
 20
129.7404255575
 30
0.0
 40
6.244522946491045
100
AcDbArc
 50
248.3992250778
 51
348.3709712952
  0
LINE
  5
CC
330
1F
100
AcDbEntity
  8
0
  6
CONTINUOUS
 62
     7
100
AcDbLine
 10
804.6821247696
 20
118.4816908797
 30
0.0
 11
804.6821247696
 21
119.9420213649
 31
0.0
  0
ARC
  5
CD
330
1F
100
AcDbEntity
  8
0
  6
CONTINUOUS
 62
     7
100
AcDbCircle
 10
803.6475206033
 20
119.9420246242
 30
0.0
 40
1.034604166304139
100
AcDbArc
 50
359.9998195025
 51
4.3909624644
  0
LINE
  5
CE
330
1F
100
AcDbEntity
  8
0
  6
CONTINUOUS
 62
     7
100
AcDbLine
 10
804.029392997
 20
128.4816908797
 30
0.0
 11
793.7436787113
 21
128.4816908797
 31
0.0
  0
LINE
  5
CF
330
1F
100
AcDbEntity
  8
0
  6
CONTINUOUS
 62
     7
100
AcDbLine
 10
804.679088042
 20
120.0212357373
 30
0.0
 11
804.029392997
 21
128.4816908797
 31
0.0
  0
LINE
  5
D0
330
1F
100
AcDbEntity
  8
0
  6
CONTINUOUS
 62
     7
100
AcDbLine
 10
292.1752725312
 20
117.4816908797
 30
0.0
 11
302.4609868169
 21
117.4816908797
 31
0.0
  0
ARC
  5
D1
330
1F
100
AcDbEntity
  8
0
  6
CONTINUOUS
 62
     7
100
AcDbCircle
 10
292.1923783541
 20
118.4651602675
 30
0.0
 40
0.9836181402503984
100
AcDbArc
 50
179.0370461195
 51
269.003535187
  0
ARC
  5
D2
330
1F
100
AcDbEntity
  8
0
  6
CONTINUOUS
 62
     7
100
AcDbCircle
 10
302.4780926398
 20
118.4651602675
 30
0.0
 40
0.9836181402503408
100
AcDbArc
 50
179.0370461195
 51
269.003535187
  0
LINE
  5
D3
330
1F
100
AcDbEntity
  8
0
  6
CONTINUOUS
 62
     7
100
AcDbLine
 10
314.5851932063
 20
125.693848166
 30
0.0
 11
315.0208043081
 21
120.0212357372
 31
0.0
  0
ARC
  5
D4
330
1F
100
AcDbEntity
  8
0
  6
CONTINUOUS
 62
     7
100
AcDbCircle
 10
313.9892368693
 20
119.9420246241
 30
0.0
 40
1.034604166439255
100
AcDbArc
 50
359.999819502
 51
4.3909624634
  0
LINE
  5
D5
330
1F
100
AcDbEntity
  8
0
  6
CONTINUOUS
 62
     7
100
AcDbLine
 10
315.0238410357
 20
119.9420213648
 30
0.0
 11
315.0238410357
 21
118.4816908796
 31
0.0
  0
ARC
  5
D6
330
1F
100
AcDbEntity
  8
0
  6
CONTINUOUS
 62
     7
100
AcDbCircle
 10
314.0403618114
 20
118.4651602674
 30
0.0
 40
0.9836181402492249
100
AcDbArc
 50
270.9964648121
 51
0.9629538797
  0
LINE
  5
D7
330
1F
100
AcDbEntity
  8
0
  6
CONTINUOUS
 62
     7
100
AcDbLine
 10
314.0574676343
 20
117.4816908796
 30
0.0
 11
302.4609868169
 21
117.4816908797
 31
0.0
  0
LINE
  5
D8
330
1F
100
AcDbEntity
  8
0
  6
CONTINUOUS
 62
     7
100
AcDbLine
 10
301.4946134155
 20
118.4816908797
 30
0.0
 11
301.4946134155
 21
119.9420213649
 31
0.0
  0
ARC
  5
D9
330
1F
100
AcDbEntity
  8
0
  6
CONTINUOUS
 62
     7
100
AcDbCircle
 10
302.529217582
 20
119.9420246242
 30
0.0
 40
1.034604166505933
100
AcDbArc
 50
175.6090375359
 51
180.000180497
  0
LINE
  5
DA
330
1F
100
AcDbEntity
  8
0
  6
CONTINUOUS
 62
     7
100
AcDbLine
 10
301.4976501431
 20
120.0212357373
 30
0.0
 11
302.1473451881
 21
128.4816908797
 31
0.0
  0
ARC
  5
DB
330
1F
100
AcDbEntity
  8
0
  6
CONTINUOUS
 62
     7
100
AcDbCircle
 10
308.2628950563
 20
129.7398541505
 30
0.0
 40
6.243630755036404
100
AcDbArc
 50
191.6253601667
 51
292.1985118297
  0
LINE
  5
DC
330
1F
100
AcDbEntity
  8
0
  6
CONTINUOUS
 62
     7
100
AcDbLine
 10
291.2088991298
 20
118.4816908797
 30
0.0
 11
291.2088991298
 21
119.9420213649
 31
0.0
  0
ARC
  5
DD
330
1F
100
AcDbEntity
  8
0
  6
CONTINUOUS
 62
     7
100
AcDbCircle
 10
292.2435032962
 20
119.9420246242
 30
0.0
 40
1.034604166437379
100
AcDbArc
 50
175.6090375358
 51
180.0001804972
  0
LINE
  5
DE
330
1F
100
AcDbEntity
  8
0
  6
CONTINUOUS
 62
     7
100
AcDbLine
 10
291.2119358574
 20
120.0212357373
 30
0.0
 11
291.8616309024
 21
128.4816908797
 31
0.0
  0
LINE
  5
DF
330
1F
100
AcDbEntity
  8
0
  6
CONTINUOUS
 62
     7
100
AcDbLine
 10
291.8616309024
 20
128.4816908797
 30
0.0
 11
302.1473451881
 21
128.4816908797
 31
0.0
  0
ELLIPSE
  5
E0
330
1F
100
AcDbEntity
  8
0
  6
CONTINUOUS
 62
     7
100
AcDbEllipse
 10
762.8240857687
 20
422.7838899703
 30
0.0
 11
6.325914532963907
 21
-5.96681634298443
 31
0.0
210
0.0
220
0.0
230
1.0
 40
0.0996157745
 41
1.664482230386081
 42
3.036371790871119
  0
ELLIPSE
  5
E1
330
1F
100
AcDbEntity
  8
0
  6
CONTINUOUS
 62
     7
100
AcDbEllipse
 10
762.8240857687
 20
422.7838899703
 30
0.0
 11
5.634584476990541
 21
5.973688107916417
 31
0.0
210
0.0
220
0.0
230
1.0
 40
0.0996157745
 41
1.465575464083859
 42
3.047906749998589
  0
ELLIPSE
  5
E2
330
1F
100
AcDbEntity
  8
0
  6
CONTINUOUS
 62
     7
100
AcDbEllipse
 10
333.0669381307
 20
422.7838899703
 30
0.0
 11
6.325914532963964
 21
5.966816342984373
 31
0.0
210
0.0
220
0.0
230
1.0
 40
0.0996157745
 41
0.1052208627187574
 42
1.477110423203706
  0
ELLIPSE
  5
E3
330
1F
100
AcDbEntity
  8
0
  6
CONTINUOUS
 62
     7
100
AcDbEllipse
 10
333.0669381307
 20
422.7838899703
 30
0.0
 11
-5.634584476990484
 21
5.973688107916417
 31
0.0
210
0.0
220
0.0
230
1.0
 40
0.0996157745
 41
3.235278557181136
 42
4.817609843095732
  0
LINE
  5
E4
330
1F
100
AcDbEntity
  8
0
  6
CONTINUOUS
 62
     7
100
AcDbLine
 10
1622.6564152945
 20
530.9178720668
 30
0.0
 11
1622.6564152945
 21
542.9178720668
 31
0.0
  0
LINE
  5
E5
330
1F
100
AcDbEntity
  8
0
  6
CONTINUOUS
 62
     7
100
AcDbLine
 10
1392.0589223751
 20
542.9178720668
 30
0.0
 11
1392.0589223751
 21
530.9178720668
 31
0.0
  0
POLYLINE
  5
E6
330
1F
100
AcDbEntity
  8
0
  6
CONTINUOUS
 62
     7
100
AcDb2dPolyline
 66
     1
 10
0.0
 20
0.0
 30
0.0
 70
   128
  0
VERTEX
  5
336
330
E6
100
AcDbEntity
  8
0
  6
CONTINUOUS
 62
     7
100
AcDbVertex
100
AcDb2dVertex
 10
1704.583768614
 20
595.1724744466
 30
0.0
  0
VERTEX
  5
337
330
E6
100
AcDbEntity
  8
0
  6
CONTINUOUS
 62
     7
100
AcDbVertex
100
AcDb2dVertex
 10
1703.6394222639
 20
594.054925794
 30
0.0
  0
VERTEX
  5
338
330
E6
100
AcDbEntity
  8
0
  6
CONTINUOUS
 62
     7
100
AcDbVertex
100
AcDb2dVertex
 10
1700.1947341149
 20
590.4756665771
 30
0.0
  0
VERTEX
  5
339
330
E6
100
AcDbEntity
  8
0
  6
CONTINUOUS
 62
     7
100
AcDbVertex
100
AcDb2dVertex
 10
1696.4191967284
 20
587.0228080291
 30
0.0
  0
VERTEX
  5
33A
330
E6
100
AcDbEntity
  8
0
  6
CONTINUOUS
 62
     7
100
AcDbVertex
100
AcDb2dVertex
 10
1692.3196433291
 20
583.7204465093
 30
0.0
  0
VERTEX
  5
33B
330
E6
100
AcDbEntity
  8
0
  6
CONTINUOUS
 62
     7
100
AcDbVertex
100
AcDb2dVertex
 10
1687.9039291293
 20
580.582658508
 30
0.0
  0
VERTEX
  5
33C
330
E6
100
AcDbEntity
  8
0
  6
CONTINUOUS
 62
     7
100
AcDbVertex
100
AcDb2dVertex
 10
1681.014480373
 20
576.3744438813
 30
0.0
  0
VERTEX
  5
33D
330
E6
100
AcDbEntity
  8
0
  6
CONTINUOUS
 62
     7
100
AcDbVertex
100
AcDb2dVertex
 10
1674.1417405414
 20
572.8361490974
 30
0.0
  0
VERTEX
  5
33E
330
E6
100
AcDbEntity
  8
0
  6
CONTINUOUS
 62
     7
100
AcDbVertex
100
AcDb2dVertex
 10
1669.5258069798
 20
570.8100687889
 30
0.0
  0
SEQEND
  5
652
330
E6
100
AcDbEntity
  8
0
  6
CONTINUOUS
 62
     7
  0
LINE
  5
E7
330
1F
100
AcDbEntity
  8
0
  6
CONTINUOUS
 62
     7
100
AcDbLine
 10
1704.8432858438
 20
579.3418229554
 30
0.0
 11
1705.1761678661
 21
579.6855649836
 31
0.0
  0
ARC
  5
E8
330
1F
100
AcDbEntity
  8
0
  6
CONTINUOUS
 62
     7
100
AcDbCircle
 10
1622.1034983938
 20
657.3002798514
 30
0.0
 40
113.6928724889475
100
AcDbArc
 50
317.0576687379
 51
326.9358520442
  0
POLYLINE
  5
E9
330
1F
100
AcDbEntity
  8
0
  6
CONTINUOUS
 62
     7
100
AcDb2dPolyline
 66
     1
 10
0.0
 20
0.0
 30
0.0
 70
   128
  0
VERTEX
  5
33F
330
E9
100
AcDbEntity
  8
0
  6
CONTINUOUS
 62
     7
100
AcDbVertex
100
AcDb2dVertex
 10
1339.5103983129
 20
540.9068150764
 30
0.0
  0
VERTEX
  5
340
330
E9
100
AcDbEntity
  8
0
  6
CONTINUOUS
 62
     7
100
AcDbVertex
100
AcDb2dVertex
 10
1341.9827990714
 20
541.8446918877
 30
0.0
  0
VERTEX
  5
341
330
E9
100
AcDbEntity
  8
0
  6
CONTINUOUS
 62
     7
100
AcDbVertex
100
AcDb2dVertex
 10
1349.6659187399
 20
543.7257732163
 30
0.0
  0
VERTEX
  5
342
330
E9
100
AcDbEntity
  8
0
  6
CONTINUOUS
 62
     7
100
AcDbVertex
100
AcDb2dVertex
 10
1357.6682306202
 20
544.8744183687
 30
0.0
  0
VERTEX
  5
343
330
E9
100
AcDbEntity
  8
0
  6
CONTINUOUS
 62
     7
100
AcDbVertex
100
AcDb2dVertex
 10
1371.6051354966
 20
545.6556436534
 30
0.0
  0
VERTEX
  5
344
330
E9
100
AcDbEntity
  8
0
  6
CONTINUOUS
 62
     7
100
AcDbVertex
100
AcDb2dVertex
 10
1381.2241108337
 20
545.6307682761
 30
0.0
  0
SEQEND
  5
653
330
E9
100
AcDbEntity
  8
0
  6
CONTINUOUS
 62
     7
  0
POLYLINE
  5
EA
330
1F
100
AcDbEntity
  8
0
  6
CONTINUOUS
 62
     7
100
AcDb2dPolyline
 66
     1
 10
0.0
 20
0.0
 30
0.0
 70
   128
  0
VERTEX
  5
345
330
EA
100
AcDbEntity
  8
0
  6
CONTINUOUS
 62
     7
100
AcDbVertex
100
AcDb2dVertex
 10
1424.0589223751
 20
544.4510824755
 30
0.0
  0
VERTEX
  5
346
330
EA
100
AcDbEntity
  8
0
  6
CONTINUOUS
 62
     7
100
AcDbVertex
100
AcDb2dVertex
 10
1427.6395178417
 20
544.336808701
 30
0.0
  0
VERTEX
  5
347
330
EA
100
AcDbEntity
  8
0
  6
CONTINUOUS
 62
     7
100
AcDbVertex
100
AcDb2dVertex
 10
1441.2386064502
 20
544.0280828672
 30
0.0
  0
VERTEX
  5
348
330
EA
100
AcDbEntity
  8
0
  6
CONTINUOUS
 62
     7
100
AcDbVertex
100
AcDb2dVertex
 10
1454.5691499356
 20
543.8949949788
 30
0.0
  0
VERTEX
  5
349
330
EA
100
AcDbEntity
  8
0
  6
CONTINUOUS
 62
     7
100
AcDbVertex
100
AcDb2dVertex
 10
1478.2027205477
 20
543.9349313153
 30
0.0
  0
VERTEX
  5
34A
330
EA
100
AcDbEntity
  8
0
  6
CONTINUOUS
 62
     7
100
AcDbVertex
100
AcDb2dVertex
 10
1500.7901539195
 20
543.9410513182
 30
0.0
  0
VERTEX
  5
34B
330
EA
100
AcDbEntity
  8
0
  6
CONTINUOUS
 62
     7
100
AcDbVertex
100
AcDb2dVertex
 10
1522.5744425203
 20
543.8497450777
 30
0.0
  0
VERTEX
  5
34C
330
EA
100
AcDbEntity
  8
0
  6
CONTINUOUS
 62
     7
100
AcDbVertex
100
AcDb2dVertex
 10
1545.4369146107
 20
543.8753954655
 30
0.0
  0
VERTEX
  5
34D
330
EA
100
AcDbEntity
  8
0
  6
CONTINUOUS
 62
     7
100
AcDbVertex
100
AcDb2dVertex
 10
1567.3397752216
 20
544.2386796976
 30
0.0
  0
VERTEX
  5
34E
330
EA
100
AcDbEntity
  8
0
  6
CONTINUOUS
 62
     7
100
AcDbVertex
100
AcDb2dVertex
 10
1588.2551075209
 20
545.0817011459
 30
0.0
  0
VERTEX
  5
34F
330
EA
100
AcDbEntity
  8
0
  6
CONTINUOUS
 62
     7
100
AcDbVertex
100
AcDb2dVertex
 10
1590.6564152945
 20
545.2600558274
 30
0.0
  0
SEQEND
  5
654
330
EA
100
AcDbEntity
  8
0
  6
CONTINUOUS
 62
     7
  0
POLYLINE
  5
EB
330
1F
100
AcDbEntity
  8
0
  6
CONTINUOUS
 62
     7
100
AcDb2dPolyline
 66
     1
 10
0.0
 20
0.0
 30
0.0
 70
   128
  0
VERTEX
  5
350
330
EB
100
AcDbEntity
  8
0
  6
CONTINUOUS
 62
     7
100
AcDbVertex
100
AcDb2dVertex
 10
1606.2448658623
 20
546.4178720668
 30
0.0
  0
VERTEX
  5
351
330
EB
100
AcDbEntity
  8
0
  6
CONTINUOUS
 62
     7
100
AcDbVertex
100
AcDb2dVertex
 10
1608.2250538909
 20
546.5649485095
 30
0.0
  0
VERTEX
  5
352
330
EB
100
AcDbEntity
  8
0
  6
CONTINUOUS
 62
     7
100
AcDbVertex
100
AcDb2dVertex
 10
1623.2448914029
 20
548.3452719439
 30
0.0
  0
VERTEX
  5
353
330
EB
100
AcDbEntity
  8
0
  6
CONTINUOUS
 62
     7
100
AcDbVertex
100
AcDb2dVertex
 10
1637.6251289952
 20
550.7985449386
 30
0.0
  0
VERTEX
  5
354
330
EB
100
AcDbEntity
  8
0
  6
CONTINUOUS
 62
     7
100
AcDbVertex
100
AcDb2dVertex
 10
1651.2844718775
 20
553.993960063
 30
0.0
  0
VERTEX
  5
355
330
EB
100
AcDbEntity
  8
0
  6
CONTINUOUS
 62
     7
100
AcDbVertex
100
AcDb2dVertex
 10
1664.1576360324
 20
557.9577253304
 30
0.0
  0
SEQEND
  5
655
330
EB
100
AcDbEntity
  8
0
  6
CONTINUOUS
 62
     7
  0
ARC
  5
EC
330
1F
100
AcDbEntity
  8
0
  6
CONTINUOUS
 62
     7
100
AcDbCircle
 10
1582.4501809836
 20
824.3672627921
 30
0.0
 40
278.6652833640329
100
AcDbArc
 50
286.9692625019
 51
289.1194153661
  0
ARC
  5
ED
330
1F
100
AcDbEntity
  8
0
  6
CONTINUOUS
 62
     7
100
AcDbCircle
 10
1660.3682084121
 20
621.8668763877
 30
0.0
 40
61.26449456214171
100
AcDbArc
 50
298.2155805225
 51
304.3160205898
  0
POLYLINE
  5
EE
330
1F
100
AcDbEntity
  8
0
  6
CONTINUOUS
 62
     7
100
AcDb2dPolyline
 66
     1
 10
0.0
 20
0.0
 30
0.0
 70
   128
  0
VERTEX
  5
356
330
EE
100
AcDbEntity
  8
0
  6
CONTINUOUS
 62
     7
100
AcDbVertex
100
AcDb2dVertex
 10
1704.7371241324
 20
579.2781119664
 30
0.0
  0
VERTEX
  5
357
330
EE
100
AcDbEntity
  8
0
  6
CONTINUOUS
 62
     7
100
AcDbVertex
100
AcDb2dVertex
 10
1705.7127019228
 20
580.2506934077
 30
0.0
  0
VERTEX
  5
358
330
EE
100
AcDbEntity
  8
0
  6
CONTINUOUS
 62
     7
100
AcDbVertex
100
AcDb2dVertex
 10
1706.8736085689
 20
581.4862183454
 30
0.0
  0
SEQEND
  5
656
330
EE
100
AcDbEntity
  8
0
  6
CONTINUOUS
 62
     7
  0
ARC
  5
EF
330
1F
100
AcDbEntity
  8
0
  6
CONTINUOUS
 62
     7
100
AcDbCircle
 10
1797.532552463
 20
539.8371643921
 30
0.0
 40
97.45528096462472
100
AcDbArc
 50
144.6646111188
 51
146.9519138245
  0
ARC
  5
F0
330
1F
100
AcDbEntity
  8
0
  6
CONTINUOUS
 62
     7
100
AcDbCircle
 10
1629.8433243976
 20
681.4011506323
 30
0.0
 40
128.1002285912052
100
AcDbArc
 50
285.6401353819
 51
299.0321514126
  0
POLYLINE
  5
F1
330
1F
100
AcDbEntity
  8
0
  6
CONTINUOUS
 62
     7
100
AcDb2dPolyline
 66
     1
 10
0.0
 20
0.0
 30
0.0
 70
   128
  0
VERTEX
  5
359
330
F1
100
AcDbEntity
  8
0
  6
CONTINUOUS
 62
     7
100
AcDbVertex
100
AcDb2dVertex
 10
1717.7424369447
 20
595.7807871019
 30
0.0
  0
VERTEX
  5
35A
330
F1
100
AcDbEntity
  8
0
  6
CONTINUOUS
 62
     7
100
AcDbVertex
100
AcDb2dVertex
 10
1722.8209386932
 20
604.1034292565
 30
0.0
  0
VERTEX
  5
35B
330
F1
100
AcDbEntity
  8
0
  6
CONTINUOUS
 62
     7
100
AcDbVertex
100
AcDb2dVertex
 10
1726.820735536
 20
612.5428306839
 30
0.0
  0
VERTEX
  5
35C
330
F1
100
AcDbEntity
  8
0
  6
CONTINUOUS
 62
     7
100
AcDbVertex
100
AcDb2dVertex
 10
1729.9564802466
 20
620.9018006363
 30
0.0
  0
VERTEX
  5
35D
330
F1
100
AcDbEntity
  8
0
  6
CONTINUOUS
 62
     7
100
AcDbVertex
100
AcDb2dVertex
 10
1733.1082469216
 20
631.638922391
 30
0.0
  0
VERTEX
  5
35E
330
F1
100
AcDbEntity
  8
0
  6
CONTINUOUS
 62
     7
100
AcDbVertex
100
AcDb2dVertex
 10
1735.4637548713
 20
642.0071812151
 30
0.0
  0
VERTEX
  5
35F
330
F1
100
AcDbEntity
  8
0
  6
CONTINUOUS
 62
     7
100
AcDbVertex
100
AcDb2dVertex
 10
1737.2687863485
 20
651.9507066016
 30
0.0
  0
VERTEX
  5
360
330
F1
100
AcDbEntity
  8
0
  6
CONTINUOUS
 62
     7
100
AcDbVertex
100
AcDb2dVertex
 10
1738.7071236419
 20
661.471425691
 30
0.0
  0
VERTEX
  5
361
330
F1
100
AcDbEntity
  8
0
  6
CONTINUOUS
 62
     7
100
AcDbVertex
100
AcDb2dVertex
 10
1739.8972198363
 20
670.571777001
 30
0.0
  0
VERTEX
  5
362
330
F1
100
AcDbEntity
  8
0
  6
CONTINUOUS
 62
     7
100
AcDbVertex
100
AcDb2dVertex
 10
1741.2279780645
 20
681.8623713869
 30
0.0
  0
VERTEX
  5
363
330
F1
100
AcDbEntity
  8
0
  6
CONTINUOUS
 62
     7
100
AcDbVertex
100
AcDb2dVertex
 10
1742.4079012867
 20
692.4797560477
 30
0.0
  0
VERTEX
  5
364
330
F1
100
AcDbEntity
  8
0
  6
CONTINUOUS
 62
     7
100
AcDbVertex
100
AcDb2dVertex
 10
1743.5052180137
 20
702.4301250172
 30
0.0
  0
VERTEX
  5
365
330
F1
100
AcDbEntity
  8
0
  6
CONTINUOUS
 62
     7
100
AcDbVertex
100
AcDb2dVertex
 10
1744.9289011377
 20
714.8849941612
 30
0.0
  0
VERTEX
  5
366
330
F1
100
AcDbEntity
  8
0
  6
CONTINUOUS
 62
     7
100
AcDbVertex
100
AcDb2dVertex
 10
1746.4086173513
 20
727.019944747
 30
0.0
  0
VERTEX
  5
367
330
F1
100
AcDbEntity
  8
0
  6
CONTINUOUS
 62
     7
100
AcDbVertex
100
AcDb2dVertex
 10
1747.9515199883
 20
738.9608463605
 30
0.0
  0
VERTEX
  5
368
330
F1
100
AcDbEntity
  8
0
  6
CONTINUOUS
 62
     7
100
AcDbVertex
100
AcDb2dVertex
 10
1749.5234379516
 20
750.7166642587
 30
0.0
  0
VERTEX
  5
369
330
F1
100
AcDbEntity
  8
0
  6
CONTINUOUS
 62
     7
100
AcDbVertex
100
AcDb2dVertex
 10
1750.6669301956
 20
759.1491416199
 30
0.0
  0
VERTEX
  5
36A
330
F1
100
AcDbEntity
  8
0
  6
CONTINUOUS
 62
     7
100
AcDbVertex
100
AcDb2dVertex
 10
1751.7996767408
 20
767.4834000062
 30
0.0
  0
VERTEX
  5
36B
330
F1
100
AcDbEntity
  8
0
  6
CONTINUOUS
 62
     7
100
AcDbVertex
100
AcDb2dVertex
 10
1752.912913172
 20
775.7187615296
 30
0.0
  0
VERTEX
  5
36C
330
F1
100
AcDbEntity
  8
0
  6
CONTINUOUS
 62
     7
100
AcDbVertex
100
AcDb2dVertex
 10
1754.0004780965
 20
783.8529989538
 30
0.0
  0
VERTEX
  5
36D
330
F1
100
AcDbEntity
  8
0
  6
CONTINUOUS
 62
     7
100
AcDbVertex
100
AcDb2dVertex
 10
1755.0579237599
 20
791.8863845772
 30
0.0
  0
VERTEX
  5
36E
330
F1
100
AcDbEntity
  8
0
  6
CONTINUOUS
 62
     7
100
AcDbVertex
100
AcDb2dVertex
 10
1756.1449728755
 20
800.3038761477
 30
0.0
  0
VERTEX
  5
36F
330
F1
100
AcDbEntity
  8
0
  6
CONTINUOUS
 62
     7
100
AcDbVertex
100
AcDb2dVertex
 10
1757.3346796896
 20
809.6282423117
 30
0.0
  0
VERTEX
  5
370
330
F1
100
AcDbEntity
  8
0
  6
CONTINUOUS
 62
     7
100
AcDbVertex
100
AcDb2dVertex
 10
1758.6420184173
 20
819.8534232233
 30
0.0
  0
VERTEX
  5
371
330
F1
100
AcDbEntity
  8
0
  6
CONTINUOUS
 62
     7
100
AcDbVertex
100
AcDb2dVertex
 10
1760.1545452779
 20
831.5517592551
 30
0.0
  0
VERTEX
  5
372
330
F1
100
AcDbEntity
  8
0
  6
CONTINUOUS
 62
     7
100
AcDbVertex
100
AcDb2dVertex
 10
1761.8058521994
 20
844.2721411369
 30
0.0
  0
VERTEX
  5
373
330
F1
100
AcDbEntity
  8
0
  6
CONTINUOUS
 62
     7
100
AcDbVertex
100
AcDb2dVertex
 10
1763.5771095941
 20
858.020478552
 30
0.0
  0
VERTEX
  5
374
330
F1
100
AcDbEntity
  8
0
  6
CONTINUOUS
 62
     7
100
AcDbVertex
100
AcDb2dVertex
 10
1765.440836105
 20
872.7954548048
 30
0.0
  0
VERTEX
  5
375
330
F1
100
AcDbEntity
  8
0
  6
CONTINUOUS
 62
     7
100
AcDbVertex
100
AcDb2dVertex
 10
1767.4031775822
 20
888.5506280386
 30
0.0
  0
VERTEX
  5
376
330
F1
100
AcDbEntity
  8
0
  6
CONTINUOUS
 62
     7
100
AcDbVertex
100
AcDb2dVertex
 10
1768.9983928657
 20
901.1540054929
 30
0.0
  0
SEQEND
  5
657
330
F1
100
AcDbEntity
  8
0
  6
CONTINUOUS
 62
     7
  0
LINE
  5
F2
330
1F
100
AcDbEntity
  8
0
  6
CONTINUOUS
 62
     7
100
AcDbLine
 10
1336.1257901876
 20
550.439083304
 30
0.0
 11
1339.4663811587
 21
541.0135673349
 31
0.0
  0
LINE
  5
F3
330
1F
100
AcDbEntity
  8
0
  6
CONTINUOUS
 62
     7
100
AcDbLine
 10
1768.9937643146
 20
901.1548067343
 30
0.0
 11
1759.0738517749
 21
902.4178720668
 31
0.0
  0
LINE
  5
F4
330
1F
100
AcDbEntity
  8
0
  6
CONTINUOUS
 62
     7
100
AcDbLine
 10
1368.2244765757
 20
123.9816908797
 30
0.0
 11
1371.704512649
 21
123.9816908797
 31
0.0
  0
LINE
  5
F5
330
1F
100
AcDbEntity
  8
0
  6
CONTINUOUS
 62
     7
100
AcDbLine
 10
1371.704512649
 20
135.9816908797
 30
0.0
 11
1366.3323093966
 21
135.9816908797
 31
0.0
  0
LINE
  5
F6
330
1F
100
AcDbEntity
  8
0
  6
CONTINUOUS
 62
     7
100
AcDbLine
 10
1777.4394409914
 20
135.9816908797
 30
0.0
 11
1371.704512649
 21
135.9816908797
 31
0.0
  0
LINE
  5
F7
330
1F
100
AcDbEntity
  8
0
  6
CONTINUOUS
 62
     7
100
AcDbLine
 10
1772.5169708601
 20
123.9816908797
 30
0.0
 11
1777.4394409914
 21
123.9816908797
 31
0.0
  0
LINE
  5
F8
330
1F
100
AcDbEntity
  8
0
  6
CONTINUOUS
 62
     7
100
AcDbLine
 10
1371.704512649
 20
123.9816908797
 30
0.0
 11
1732.471068082
 21
123.9816908797
 31
0.0
  0
LINE
  5
F9
330
1F
100
AcDbEntity
  8
0
  6
CONTINUOUS
 62
     7
100
AcDbLine
 10
1366.3323093966
 20
135.9816908797
 30
0.0
 11
1324.4141572521
 21
135.9816908797
 31
0.0
  0
LINE
  5
FA
330
1F
100
AcDbEntity
  8
0
  6
CONTINUOUS
 62
     7
100
AcDbLine
 10
1324.4141572521
 20
123.9816908797
 30
0.0
 11
1328.494132143
 21
123.9816908797
 31
0.0
  0
ARC
  5
FB
330
1F
100
AcDbEntity
  8
0
  6
CONTINUOUS
 62
     7
100
AcDbCircle
 10
1777.4947306302
 20
149.8968768123
 30
0.0
 40
25.91524491232759
100
AcDbArc
 50
269.8777605471
 51
18.047380508
  0
ARC
  5
FC
330
1F
100
AcDbEntity
  8
0
  6
CONTINUOUS
 62
     7
100
AcDbCircle
 10
1777.4924549255
 20
149.8985124341
 30
0.0
 40
13.9169225282091
100
AcDbArc
 50
269.7817418313
 51
17.9754710114
  0
LINE
  5
FD
330
1F
100
AcDbEntity
  8
0
  6
CONTINUOUS
 62
     7
100
AcDbLine
 10
1669.6224379097
 20
524.285486645
 30
0.0
 11
1790.7300746918
 21
154.1934112198
 31
0.0
  0
LINE
  5
FE
330
1F
100
AcDbEntity
  8
0
  6
CONTINUOUS
 62
     7
100
AcDbLine
 10
1802.1349623588
 20
157.9255067842
 30
0.0
 11
1681.0273255768
 21
528.0175822094
 31
0.0
  0
ARC
  5
FF
330
1F
100
AcDbEntity
  8
0
  6
CONTINUOUS
 62
     7
100
AcDbCircle
 10
1324.687443374
 20
149.1063676392
 30
0.0
 40
25.1261630094364
100
AcDbArc
 50
167.4899986214
 51
269.3768069513
  0
ARC
  5
100
330
1F
100
AcDbEntity
  8
0
  6
CONTINUOUS
 62
     7
100
AcDbCircle
 10
1324.7404275397
 20
149.1496514877
 30
0.0
 40
13.17200208305123
100
AcDbArc
 50
166.709358429
 51
268.5806392618
  0
LINE
  5
101
330
1F
100
AcDbEntity
  8
0
  6
CONTINUOUS
 62
     7
100
AcDbLine
 10
1366.2288890225
 20
421.5983033475
 30
0.0
 11
1386.2148266302
 21
520.7486050364
 31
0.0
  0
LINE
  5
102
330
1F
100
AcDbEntity
  8
0
  6
CONTINUOUS
 62
     7
100
AcDbLine
 10
1311.9212186298
 20
152.177773315
 30
0.0
 11
1366.2288890225
 21
421.5983033475
 31
0.0
  0
LINE
  5
103
330
1F
100
AcDbEntity
  8
0
  6
CONTINUOUS
 62
     7
100
AcDbLine
 10
1354.4654908128
 20
423.9694765932
 30
0.0
 11
1300.1578204201
 21
154.5489465607
 31
0.0
  0
LINE
  5
104
330
1F
100
AcDbEntity
  8
0
  6
CONTINUOUS
 62
     7
100
AcDbLine
 10
1374.4514284205
 20
523.1197782821
 30
0.0
 11
1354.4654908128
 21
423.9694765932
 31
0.0
  0
POLYLINE
  5
105
330
1F
100
AcDbEntity
  8
0
  6
CONTINUOUS
 62
     7
100
AcDb2dPolyline
 66
     1
 10
0.0
 20
0.0
 30
0.0
 70
   128
  0
VERTEX
  5
377
330
105
100
AcDbEntity
  8
0
  6
CONTINUOUS
 62
     7
100
AcDbVertex
100
AcDb2dVertex
 10
1681.0273255768
 20
528.0175822094
 30
0.0
  0
VERTEX
  5
378
330
105
100
AcDbEntity
  8
0
  6
CONTINUOUS
 62
     7
100
AcDbVertex
100
AcDb2dVertex
 10
1680.4973506249
 20
529.5183625733
 30
0.0
  0
VERTEX
  5
379
330
105
100
AcDbEntity
  8
0
  6
CONTINUOUS
 62
     7
100
AcDbVertex
100
AcDb2dVertex
 10
1679.3668069521
 20
532.1527090097
 30
0.0
  0
VERTEX
  5
37A
330
105
100
AcDbEntity
  8
0
  6
CONTINUOUS
 62
     7
100
AcDbVertex
100
AcDb2dVertex
 10
1678.023260225
 20
534.6562758376
 30
0.0
  0
VERTEX
  5
37B
330
105
100
AcDbEntity
  8
0
  6
CONTINUOUS
 62
     7
100
AcDbVertex
100
AcDb2dVertex
 10
1676.47797436
 20
536.9975856852
 30
0.0
  0
VERTEX
  5
37C
330
105
100
AcDbEntity
  8
0
  6
CONTINUOUS
 62
     7
100
AcDbVertex
100
AcDb2dVertex
 10
1674.7434960911
 20
539.1461992689
 30
0.0
  0
VERTEX
  5
37D
330
105
100
AcDbEntity
  8
0
  6
CONTINUOUS
 62
     7
100
AcDbVertex
100
AcDb2dVertex
 10
1672.8356779962
 20
541.0706868181
 30
0.0
  0
VERTEX
  5
37E
330
105
100
AcDbEntity
  8
0
  6
CONTINUOUS
 62
     7
100
AcDbVertex
100
AcDb2dVertex
 10
1670.7759741791
 20
542.7387925342
 30
0.0
  0
VERTEX
  5
37F
330
105
100
AcDbEntity
  8
0
  6
CONTINUOUS
 62
     7
100
AcDbVertex
100
AcDb2dVertex
 10
1668.5917395367
 20
544.1204558706
 30
0.0
  0
VERTEX
  5
380
330
105
100
AcDbEntity
  8
0
  6
CONTINUOUS
 62
     7
100
AcDbVertex
100
AcDb2dVertex
 10
1666.3171729767
 20
545.1901551809
 30
0.0
  0
VERTEX
  5
381
330
105
100
AcDbEntity
  8
0
  6
CONTINUOUS
 62
     7
100
AcDbVertex
100
AcDb2dVertex
 10
1663.9915207581
 20
545.9304681017
 30
0.0
  0
VERTEX
  5
382
330
105
100
AcDbEntity
  8
0
  6
CONTINUOUS
 62
     7
100
AcDbVertex
100
AcDb2dVertex
 10
1661.6552553095
 20
546.3342796616
 30
0.0
  0
VERTEX
  5
383
330
105
100
AcDbEntity
  8
0
  6
CONTINUOUS
 62
     7
100
AcDbVertex
100
AcDb2dVertex
 10
1660.0074013446
 20
546.4178720668
 30
0.0
  0
SEQEND
  5
658
330
105
100
AcDbEntity
  8
0
  6
CONTINUOUS
 62
     7
  0
POLYLINE
  5
106
330
1F
100
AcDbEntity
  8
0
  6
CONTINUOUS
 62
     7
100
AcDb2dPolyline
 66
     1
 10
0.0
 20
0.0
 30
0.0
 70
   128
  0
VERTEX
  5
384
330
106
100
AcDbEntity
  8
0
  6
CONTINUOUS
 62
     7
100
AcDbVertex
100
AcDb2dVertex
 10
1660.0074013446
 20
534.4178720668
 30
0.0
  0
VERTEX
  5
385
330
106
100
AcDbEntity
  8
0
  6
CONTINUOUS
 62
     7
100
AcDbVertex
100
AcDb2dVertex
 10
1660.4008300041
 20
534.3997063364
 30
0.0
  0
VERTEX
  5
386
330
106
100
AcDbEntity
  8
0
  6
CONTINUOUS
 62
     7
100
AcDbVertex
100
AcDb2dVertex
 10
1661.3537563592
 20
534.2172948426
 30
0.0
  0
VERTEX
  5
387
330
106
100
AcDbEntity
  8
0
  6
CONTINUOUS
 62
     7
100
AcDbVertex
100
AcDb2dVertex
 10
1662.3629802645
 20
533.833476573
 30
0.0
  0
VERTEX
  5
388
330
106
100
AcDbEntity
  8
0
  6
CONTINUOUS
 62
     7
100
AcDbVertex
100
AcDb2dVertex
 10
1663.5351534323
 20
533.1602553889
 30
0.0
  0
VERTEX
  5
389
330
106
100
AcDbEntity
  8
0
  6
CONTINUOUS
 62
     7
100
AcDbVertex
100
AcDb2dVertex
 10
1664.7135182553
 20
532.236387064
 30
0.0
  0
VERTEX
  5
38A
330
106
100
AcDbEntity
  8
0
  6
CONTINUOUS
 62
     7
100
AcDbVertex
100
AcDb2dVertex
 10
1665.8695255973
 20
531.0668626466
 30
0.0
  0
VERTEX
  5
38B
330
106
100
AcDbEntity
  8
0
  6
CONTINUOUS
 62
     7
100
AcDbVertex
100
AcDb2dVertex
 10
1666.9696301128
 20
529.6653178895
 30
0.0
  0
VERTEX
  5
38C
330
106
100
AcDbEntity
  8
0
  6
CONTINUOUS
 62
     7
100
AcDbVertex
100
AcDb2dVertex
 10
1667.9780006764
 20
528.0575411524
 30
0.0
  0
VERTEX
  5
38D
330
106
100
AcDbEntity
  8
0
  6
CONTINUOUS
 62
     7
100
AcDbVertex
100
AcDb2dVertex
 10
1668.8635132494
 20
526.2751502908
 30
0.0
  0
VERTEX
  5
38E
330
106
100
AcDbEntity
  8
0
  6
CONTINUOUS
 62
     7
100
AcDbVertex
100
AcDb2dVertex
 10
1669.6224379097
 20
524.285486645
 30
0.0
  0
SEQEND
  5
659
330
106
100
AcDbEntity
  8
0
  6
CONTINUOUS
 62
     7
  0
LINE
  5
107
330
1F
100
AcDbEntity
  8
0
  6
CONTINUOUS
 62
     7
100
AcDbLine
 10
1378.1772232703
 20
541.6034586897
 30
0.0
 11
1374.4514284205
 21
523.1197782821
 31
0.0
  0
LINE
  5
108
330
1F
100
AcDbEntity
  8
0
  6
CONTINUOUS
 62
     7
100
AcDbLine
 10
1386.2148266302
 20
520.7486050364
 30
0.0
 11
1389.9406214799
 21
539.2322854439
 31
0.0
  0
LINE
  5
109
330
1F
100
AcDbEntity
  8
0
  6
CONTINUOUS
 62
     7
100
AcDbLine
 10
1636.5142796708
 20
534.4178720668
 30
0.0
 11
1660.0074013446
 21
534.4178720668
 31
0.0
  0
LINE
  5
10A
330
1F
100
AcDbEntity
  8
0
  6
CONTINUOUS
 62
     7
100
AcDbLine
 10
1660.0074013446
 20
546.4178720668
 30
0.0
 11
1636.5142796708
 21
546.4178720668
 31
0.0
  0
LINE
  5
10B
330
1F
100
AcDbEntity
  8
0
  6
CONTINUOUS
 62
     7
100
AcDbLine
 10
1636.5142796708
 20
546.4178720668
 30
0.0
 11
1630.6564152945
 21
546.4178720668
 31
0.0
  0
LINE
  5
10C
330
1F
100
AcDbEntity
  8
0
  6
CONTINUOUS
 62
     7
100
AcDbLine
 10
1630.6564152945
 20
534.4178720668
 30
0.0
 11
1636.5142796708
 21
534.4178720668
 31
0.0
  0
LINE
  5
10D
330
1F
100
AcDbEntity
  8
0
  6
CONTINUOUS
 62
     7
100
AcDbLine
 10
1622.6564152945
 20
530.9178720668
 30
0.0
 11
1606.6564152945
 21
530.9178720668
 31
0.0
  0
LINE
  5
10E
330
1F
100
AcDbEntity
  8
0
  6
CONTINUOUS
 62
     7
100
AcDbLine
 10
1622.6564152945
 20
542.9178720668
 30
0.0
 11
1606.6564152945
 21
542.9178720668
 31
0.0
  0
LINE
  5
10F
330
1F
100
AcDbEntity
  8
0
  6
CONTINUOUS
 62
     7
100
AcDbLine
 10
1606.6564152945
 20
530.9178720668
 30
0.0
 11
1408.0589223751
 21
530.9178720668
 31
0.0
  0
LINE
  5
110
330
1F
100
AcDbEntity
  8
0
  6
CONTINUOUS
 62
     7
100
AcDbLine
 10
1606.6564152945
 20
542.9178720668
 30
0.0
 11
1408.0589223751
 21
542.9178720668
 31
0.0
  0
LINE
  5
111
330
1F
100
AcDbEntity
  8
0
  6
CONTINUOUS
 62
     7
100
AcDbLine
 10
1408.0589223751
 20
530.9178720668
 30
0.0
 11
1392.0589223751
 21
530.9178720668
 31
0.0
  0
LINE
  5
112
330
1F
100
AcDbEntity
  8
0
  6
CONTINUOUS
 62
     7
100
AcDbLine
 10
1408.0589223751
 20
542.9178720668
 30
0.0
 11
1392.0589223751
 21
542.9178720668
 31
0.0
  0
POLYLINE
  5
113
330
1F
100
AcDbEntity
  8
0
  6
CONTINUOUS
 62
     7
100
AcDb2dPolyline
 66
     1
 10
0.0
 20
0.0
 30
0.0
 70
   128
  0
VERTEX
  5
38F
330
113
100
AcDbEntity
  8
0
  6
CONTINUOUS
 62
     7
100
AcDbVertex
100
AcDb2dVertex
 10
1413.3170717636
 20
568.7500216971
 30
0.0
  0
VERTEX
  5
390
330
113
100
AcDbEntity
  8
0
  6
CONTINUOUS
 62
     7
100
AcDbVertex
100
AcDb2dVertex
 10
1429.2106479048
 20
569.2528694884
 30
0.0
  0
VERTEX
  5
391
330
113
100
AcDbEntity
  8
0
  6
CONTINUOUS
 62
     7
100
AcDbVertex
100
AcDb2dVertex
 10
1445.1110505191
 20
569.5350743829
 30
0.0
  0
SEQEND
  5
65A
330
113
100
AcDbEntity
  8
0
  6
CONTINUOUS
 62
     7
  0
LINE
  5
114
330
1F
100
AcDbEntity
  8
0
  6
CONTINUOUS
 62
     7
100
AcDbLine
 10
1413.6872414557
 20
558.8217856583
 30
0.0
 11
1445.1903234323
 21
559.6280793853
 31
0.0
  0
LINE
  5
115
330
1F
100
AcDbEntity
  8
0
  6
CONTINUOUS
 62
     7
100
AcDbLine
 10
1754.4362097305
 20
902.4178720668
 30
0.0
 11
1759.0738429743
 21
902.4178720668
 31
0.0
  0
POLYLINE
  5
116
330
1F
100
AcDbEntity
  8
0
  6
CONTINUOUS
 62
     7
100
AcDb2dPolyline
 66
     1
 10
0.0
 20
0.0
 30
0.0
 70
   128
  0
VERTEX
  5
392
330
116
100
AcDbEntity
  8
0
  6
CONTINUOUS
 62
     7
100
AcDbVertex
100
AcDb2dVertex
 10
1754.4362097305
 20
902.4178720668
 30
0.0
  0
VERTEX
  5
393
330
116
100
AcDbEntity
  8
0
  6
CONTINUOUS
 62
     7
100
AcDbVertex
100
AcDb2dVertex
 10
1753.1732282843
 20
901.9747892894
 30
0.0
  0
VERTEX
  5
394
330
116
100
AcDbEntity
  8
0
  6
CONTINUOUS
 62
     7
100
AcDbVertex
100
AcDb2dVertex
 10
1751.6703123847
 20
900.665118133
 30
0.0
  0
VERTEX
  5
395
330
116
100
AcDbEntity
  8
0
  6
CONTINUOUS
 62
     7
100
AcDbVertex
100
AcDb2dVertex
 10
1749.9287873848
 20
898.5095347558
 30
0.0
  0
VERTEX
  5
396
330
116
100
AcDbEntity
  8
0
  6
CONTINUOUS
 62
     7
100
AcDbVertex
100
AcDb2dVertex
 10
1747.9532933398
 20
895.511796082
 30
0.0
  0
VERTEX
  5
397
330
116
100
AcDbEntity
  8
0
  6
CONTINUOUS
 62
     7
100
AcDbVertex
100
AcDb2dVertex
 10
1745.7994933518
 20
891.7505048194
 30
0.0
  0
VERTEX
  5
398
330
116
100
AcDbEntity
  8
0
  6
CONTINUOUS
 62
     7
100
AcDbVertex
100
AcDb2dVertex
 10
1743.4953618638
 20
887.2615266899
 30
0.0
  0
VERTEX
  5
399
330
116
100
AcDbEntity
  8
0
  6
CONTINUOUS
 62
     7
100
AcDbVertex
100
AcDb2dVertex
 10
1741.0563122369
 20
882.0514856597
 30
0.0
  0
VERTEX
  5
39A
330
116
100
AcDbEntity
  8
0
  6
CONTINUOUS
 62
     7
100
AcDbVertex
100
AcDb2dVertex
 10
1738.525100618
 20
876.169655541
 30
0.0
  0
VERTEX
  5
39B
330
116
100
AcDbEntity
  8
0
  6
CONTINUOUS
 62
     7
100
AcDbVertex
100
AcDb2dVertex
 10
1735.9753498862
 20
869.7254442888
 30
0.0
  0
VERTEX
  5
39C
330
116
100
AcDbEntity
  8
0
  6
CONTINUOUS
 62
     7
100
AcDbVertex
100
AcDb2dVertex
 10
1733.4403045528
 20
862.7193935523
 30
0.0
  0
VERTEX
  5
39D
330
116
100
AcDbEntity
  8
0
  6
CONTINUOUS
 62
     7
100
AcDbVertex
100
AcDb2dVertex
 10
1730.9481348454
 20
855.1415678127
 30
0.0
  0
VERTEX
  5
39E
330
116
100
AcDbEntity
  8
0
  6
CONTINUOUS
 62
     7
100
AcDbVertex
100
AcDb2dVertex
 10
1728.5624325433
 20
847.1223373791
 30
0.0
  0
VERTEX
  5
39F
330
116
100
AcDbEntity
  8
0
  6
CONTINUOUS
 62
     7
100
AcDbVertex
100
AcDb2dVertex
 10
1726.3211833515
 20
838.7503424806
 30
0.0
  0
VERTEX
  5
3A0
330
116
100
AcDbEntity
  8
0
  6
CONTINUOUS
 62
     7
100
AcDbVertex
100
AcDb2dVertex
 10
1724.2370286814
 20
830.0202085489
 30
0.0
  0
VERTEX
  5
3A1
330
116
100
AcDbEntity
  8
0
  6
CONTINUOUS
 62
     7
100
AcDbVertex
100
AcDb2dVertex
 10
1722.3315584243
 20
820.9320768073
 30
0.0
  0
VERTEX
  5
3A2
330
116
100
AcDbEntity
  8
0
  6
CONTINUOUS
 62
     7
100
AcDbVertex
100
AcDb2dVertex
 10
1720.6574480784
 20
811.6095644885
 30
0.0
  0
SEQEND
  5
65B
330
116
100
AcDbEntity
  8
0
  6
CONTINUOUS
 62
     7
  0
POLYLINE
  5
117
330
1F
100
AcDbEntity
  8
0
  6
CONTINUOUS
 62
     7
100
AcDb2dPolyline
 66
     1
 10
0.0
 20
0.0
 30
0.0
 70
   128
  0
VERTEX
  5
3A3
330
117
100
AcDbEntity
  8
0
  6
CONTINUOUS
 62
     7
100
AcDbVertex
100
AcDb2dVertex
 10
1720.6574480784
 20
811.6095644885
 30
0.0
  0
VERTEX
  5
3A4
330
117
100
AcDbEntity
  8
0
  6
CONTINUOUS
 62
     7
100
AcDbVertex
100
AcDb2dVertex
 10
1717.8783525537
 20
794.3813704495
 30
0.0
  0
VERTEX
  5
3A5
330
117
100
AcDbEntity
  8
0
  6
CONTINUOUS
 62
     7
100
AcDbVertex
100
AcDb2dVertex
 10
1715.2355919131
 20
777.1421229177
 30
0.0
  0
VERTEX
  5
3A6
330
117
100
AcDbEntity
  8
0
  6
CONTINUOUS
 62
     7
100
AcDbVertex
100
AcDb2dVertex
 10
1712.8646891487
 20
759.8810373121
 30
0.0
  0
VERTEX
  5
3A7
330
117
100
AcDbEntity
  8
0
  6
CONTINUOUS
 62
     7
100
AcDbVertex
100
AcDb2dVertex
 10
1711.075479071
 20
742.5731377932
 30
0.0
  0
VERTEX
  5
3A8
330
117
100
AcDbEntity
  8
0
  6
CONTINUOUS
 62
     7
100
AcDbVertex
100
AcDb2dVertex
 10
1710.2244143339
 20
725.189737489
 30
0.0
  0
VERTEX
  5
3A9
330
117
100
AcDbEntity
  8
0
  6
CONTINUOUS
 62
     7
100
AcDbVertex
100
AcDb2dVertex
 10
1710.3413350709
 20
707.7257865021
 30
0.0
  0
VERTEX
  5
3AA
330
117
100
AcDbEntity
  8
0
  6
CONTINUOUS
 62
     7
100
AcDbVertex
100
AcDb2dVertex
 10
1711.2612181876
 20
690.2040654602
 30
0.0
  0
VERTEX
  5
3AB
330
117
100
AcDbEntity
  8
0
  6
CONTINUOUS
 62
     7
100
AcDbVertex
100
AcDb2dVertex
 10
1712.264899643
 20
677.9381282161
 30
0.0
  0
VERTEX
  5
3AC
330
117
100
AcDbEntity
  8
0
  6
CONTINUOUS
 62
     7
100
AcDbVertex
100
AcDb2dVertex
 10
1713.3441003532
 20
665.6781028878
 30
0.0
  0
VERTEX
  5
3AD
330
117
100
AcDbEntity
  8
0
  6
CONTINUOUS
 62
     7
100
AcDbVertex
100
AcDb2dVertex
 10
1714.2451156785
 20
653.4035262324
 30
0.0
  0
VERTEX
  5
3AE
330
117
100
AcDbEntity
  8
0
  6
CONTINUOUS
 62
     7
100
AcDbVertex
100
AcDb2dVertex
 10
1714.670595379
 20
641.1083818451
 30
0.0
  0
VERTEX
  5
3AF
330
117
100
AcDbEntity
  8
0
  6
CONTINUOUS
 62
     7
100
AcDbVertex
100
AcDb2dVertex
 10
1714.3012809702
 20
628.8138582582
 30
0.0
  0
VERTEX
  5
3B0
330
117
100
AcDbEntity
  8
0
  6
CONTINUOUS
 62
     7
100
AcDbVertex
100
AcDb2dVertex
 10
1713.5105773324
 20
621.1910556092
 30
0.0
  0
VERTEX
  5
3B1
330
117
100
AcDbEntity
  8
0
  6
CONTINUOUS
 62
     7
100
AcDbVertex
100
AcDb2dVertex
 10
1712.1497871282
 20
613.6779378725
 30
0.0
  0
VERTEX
  5
3B2
330
117
100
AcDbEntity
  8
0
  6
CONTINUOUS
 62
     7
100
AcDbVertex
100
AcDb2dVertex
 10
1710.0503796748
 20
606.3069304276
 30
0.0
  0
VERTEX
  5
3B3
330
117
100
AcDbEntity
  8
0
  6
CONTINUOUS
 62
     7
100
AcDbVertex
100
AcDb2dVertex
 10
1707.0278922088
 20
599.2136648208
 30
0.0
  0
VERTEX
  5
3B4
330
117
100
AcDbEntity
  8
0
  6
CONTINUOUS
 62
     7
100
AcDbVertex
100
AcDb2dVertex
 10
1703.053927425
 20
592.663577379
 30
0.0
  0
VERTEX
  5
3B5
330
117
100
AcDbEntity
  8
0
  6
CONTINUOUS
 62
     7
100
AcDbVertex
100
AcDb2dVertex
 10
1698.0935535852
 20
586.7384422011
 30
0.0
  0
VERTEX
  5
3B6
330
117
100
AcDbEntity
  8
0
  6
CONTINUOUS
 62
     7
100
AcDbVertex
100
AcDb2dVertex
 10
1692.3508646483
 20
581.6632217945
 30
0.0
  0
VERTEX
  5
3B7
330
117
100
AcDbEntity
  8
0
  6
CONTINUOUS
 62
     7
100
AcDbVertex
100
AcDb2dVertex
 10
1685.9220328372
 20
577.4178888951
 30
0.0
  0
SEQEND
  5
65C
330
117
100
AcDbEntity
  8
0
  6
CONTINUOUS
 62
     7
  0
POLYLINE
  5
118
330
1F
100
AcDbEntity
  8
0
  6
CONTINUOUS
 62
     7
100
AcDb2dPolyline
 66
     1
 10
0.0
 20
0.0
 30
0.0
 70
   128
  0
VERTEX
  5
3B8
330
118
100
AcDbEntity
  8
0
  6
CONTINUOUS
 62
     7
100
AcDbVertex
100
AcDb2dVertex
 10
1647.0624087226
 20
567.1685126503
 30
0.0
  0
VERTEX
  5
3B9
330
118
100
AcDbEntity
  8
0
  6
CONTINUOUS
 62
     7
100
AcDbVertex
100
AcDb2dVertex
 10
1657.1258501469
 20
568.2129184556
 30
0.0
  0
VERTEX
  5
3BA
330
118
100
AcDbEntity
  8
0
  6
CONTINUOUS
 62
     7
100
AcDbVertex
100
AcDb2dVertex
 10
1667.0215944613
 20
570.0932380043
 30
0.0
  0
VERTEX
  5
3BB
330
118
100
AcDbEntity
  8
0
  6
CONTINUOUS
 62
     7
100
AcDbVertex
100
AcDb2dVertex
 10
1673.4980857612
 20
571.9471335126
 30
0.0
  0
VERTEX
  5
3BC
330
118
100
AcDbEntity
  8
0
  6
CONTINUOUS
 62
     7
100
AcDbVertex
100
AcDb2dVertex
 10
1679.8422433108
 20
574.3738455616
 30
0.0
  0
VERTEX
  5
3BD
330
118
100
AcDbEntity
  8
0
  6
CONTINUOUS
 62
     7
100
AcDbVertex
100
AcDb2dVertex
 10
1685.9220522097
 20
577.4179000354
 30
0.0
  0
SEQEND
  5
65D
330
118
100
AcDbEntity
  8
0
  6
CONTINUOUS
 62
     7
  0
POLYLINE
  5
119
330
1F
100
AcDbEntity
  8
0
  6
CONTINUOUS
 62
     7
100
AcDb2dPolyline
 66
     1
 10
0.0
 20
0.0
 30
0.0
 70
   128
  0
VERTEX
  5
3BE
330
119
100
AcDbEntity
  8
0
  6
CONTINUOUS
 62
     7
100
AcDbVertex
100
AcDb2dVertex
 10
1445.1110505191
 20
569.5350743829
 30
0.0
  0
VERTEX
  5
3BF
330
119
100
AcDbEntity
  8
0
  6
CONTINUOUS
 62
     7
100
AcDbVertex
100
AcDb2dVertex
 10
1478.7731411893
 20
569.7285069947
 30
0.0
  0
VERTEX
  5
3C0
330
119
100
AcDbEntity
  8
0
  6
CONTINUOUS
 62
     7
100
AcDbVertex
100
AcDb2dVertex
 10
1512.4379440504
 20
569.4920101771
 30
0.0
  0
VERTEX
  5
3C1
330
119
100
AcDbEntity
  8
0
  6
CONTINUOUS
 62
     7
100
AcDbVertex
100
AcDb2dVertex
 10
1546.1038545513
 20
568.6436220879
 30
0.0
  0
VERTEX
  5
3C2
330
119
100
AcDbEntity
  8
0
  6
CONTINUOUS
 62
     7
100
AcDbVertex
100
AcDb2dVertex
 10
1562.9353308909
 20
568.0955621888
 30
0.0
  0
VERTEX
  5
3C3
330
119
100
AcDbEntity
  8
0
  6
CONTINUOUS
 62
     7
100
AcDbVertex
100
AcDb2dVertex
 10
1579.763293171
 20
567.5661245805
 30
0.0
  0
VERTEX
  5
3C4
330
119
100
AcDbEntity
  8
0
  6
CONTINUOUS
 62
     7
100
AcDbVertex
100
AcDb2dVertex
 10
1596.5883903748
 20
567.0996668983
 30
0.0
  0
VERTEX
  5
3C5
330
119
100
AcDbEntity
  8
0
  6
CONTINUOUS
 62
     7
100
AcDbVertex
100
AcDb2dVertex
 10
1613.4111713234
 20
566.7337727679
 30
0.0
  0
VERTEX
  5
3C6
330
119
100
AcDbEntity
  8
0
  6
CONTINUOUS
 62
     7
100
AcDbVertex
100
AcDb2dVertex
 10
1630.2333864606
 20
566.588365329
 30
0.0
  0
VERTEX
  5
3C7
330
119
100
AcDbEntity
  8
0
  6
CONTINUOUS
 62
     7
100
AcDbVertex
100
AcDb2dVertex
 10
1647.0624087226
 20
567.1685126503
 30
0.0
  0
SEQEND
  5
65E
330
119
100
AcDbEntity
  8
0
  6
CONTINUOUS
 62
     7
  0
POLYLINE
  5
11A
330
1F
100
AcDbEntity
  8
0
  6
CONTINUOUS
 62
     7
100
AcDb2dPolyline
 66
     1
 10
0.0
 20
0.0
 30
0.0
 70
   128
  0
VERTEX
  5
3C8
330
11A
100
AcDbEntity
  8
0
  6
CONTINUOUS
 62
     7
100
AcDbVertex
100
AcDb2dVertex
 10
1336.1257901876
 20
551.6947088618
 30
0.0
  0
VERTEX
  5
3C9
330
11A
100
AcDbEntity
  8
0
  6
CONTINUOUS
 62
     7
100
AcDbVertex
100
AcDb2dVertex
 10
1336.5021928458
 20
551.9838211652
 30
0.0
  0
VERTEX
  5
3CA
330
11A
100
AcDbEntity
  8
0
  6
CONTINUOUS
 62
     7
100
AcDbVertex
100
AcDb2dVertex
 10
1337.617058362
 20
552.5915126516
 30
0.0
  0
VERTEX
  5
3CB
330
11A
100
AcDbEntity
  8
0
  6
CONTINUOUS
 62
     7
100
AcDbVertex
100
AcDb2dVertex
 10
1339.457015654
 20
553.4972143589
 30
0.0
  0
VERTEX
  5
3CC
330
11A
100
AcDbEntity
  8
0
  6
CONTINUOUS
 62
     7
100
AcDbVertex
100
AcDb2dVertex
 10
1342.0126346873
 20
554.6568962314
 30
0.0
  0
VERTEX
  5
3CD
330
11A
100
AcDbEntity
  8
0
  6
CONTINUOUS
 62
     7
100
AcDbVertex
100
AcDb2dVertex
 10
1346.4243440015
 20
556.4642037258
 30
0.0
  0
VERTEX
  5
3CE
330
11A
100
AcDbEntity
  8
0
  6
CONTINUOUS
 62
     7
100
AcDbVertex
100
AcDb2dVertex
 10
1351.9660753837
 20
558.4608903261
 30
0.0
  0
VERTEX
  5
3CF
330
11A
100
AcDbEntity
  8
0
  6
CONTINUOUS
 62
     7
100
AcDbVertex
100
AcDb2dVertex
 10
1358.5280344973
 20
560.506632022
 30
0.0
  0
VERTEX
  5
3D0
330
11A
100
AcDbEntity
  8
0
  6
CONTINUOUS
 62
     7
100
AcDbVertex
100
AcDb2dVertex
 10
1365.9870161795
 20
562.4841733219
 30
0.0
  0
VERTEX
  5
3D1
330
11A
100
AcDbEntity
  8
0
  6
CONTINUOUS
 62
     7
100
AcDbVertex
100
AcDb2dVertex
 10
1374.3380703735
 20
564.3283272474
 30
0.0
  0
VERTEX
  5
3D2
330
11A
100
AcDbEntity
  8
0
  6
CONTINUOUS
 62
     7
100
AcDbVertex
100
AcDb2dVertex
 10
1383.3396659053
 20
565.921790892
 30
0.0
  0
VERTEX
  5
3D3
330
11A
100
AcDbEntity
  8
0
  6
CONTINUOUS
 62
     7
100
AcDbVertex
100
AcDb2dVertex
 10
1390.4647064657
 20
566.9149594403
 30
0.0
  0
VERTEX
  5
3D4
330
11A
100
AcDbEntity
  8
0
  6
CONTINUOUS
 62
     7
100
AcDbVertex
100
AcDb2dVertex
 10
1397.9154384156
 20
567.7244000189
 30
0.0
  0
VERTEX
  5
3D5
330
11A
100
AcDbEntity
  8
0
  6
CONTINUOUS
 62
     7
100
AcDbVertex
100
AcDb2dVertex
 10
1405.5559449948
 20
568.3344799858
 30
0.0
  0
VERTEX
  5
3D6
330
11A
100
AcDbEntity
  8
0
  6
CONTINUOUS
 62
     7
100
AcDbVertex
100
AcDb2dVertex
 10
1413.3170717636
 20
568.7500216971
 30
0.0
  0
SEQEND
  5
65F
330
11A
100
AcDbEntity
  8
0
  6
CONTINUOUS
 62
     7
  0
LINE
  5
11B
330
1F
100
AcDbEntity
  8
0
  6
CONTINUOUS
 62
     7
100
AcDbLine
 10
1336.1257901876
 20
551.6947088618
 30
0.0
 11
1336.1257901876
 21
550.4390932414
 31
0.0
  0
LINE
  5
11C
330
1F
100
AcDbEntity
  8
0
  6
CONTINUOUS
 62
     7
100
AcDbLine
 10
1697.302218159
 20
586.039083112
 30
0.0
 11
1698.0989809548
 21
586.7449251597
 31
0.0
  0
POLYLINE
  5
11D
330
1F
100
AcDbEntity
  8
0
  6
CONTINUOUS
 62
     7
100
AcDb2dPolyline
 66
     1
 10
0.0
 20
0.0
 30
0.0
 70
   128
  0
VERTEX
  5
3D7
330
11D
100
AcDbEntity
  8
0
  6
CONTINUOUS
 62
     7
100
AcDbVertex
100
AcDb2dVertex
 10
1610.6564152945
 20
549.0659043907
 30
0.0
  0
VERTEX
  5
3D8
330
11D
100
AcDbEntity
  8
0
  6
CONTINUOUS
 62
     7
100
AcDbVertex
100
AcDb2dVertex
 10
1610.4319405831
 20
549.1192773124
 30
0.0
  0
VERTEX
  5
3D9
330
11D
100
AcDbEntity
  8
0
  6
CONTINUOUS
 62
     7
100
AcDbVertex
100
AcDb2dVertex
 10
1609.7830776191
 20
549.1388701007
 30
0.0
  0
VERTEX
  5
3DA
330
11D
100
AcDbEntity
  8
0
  6
CONTINUOUS
 62
     7
100
AcDbVertex
100
AcDb2dVertex
 10
1608.7841538905
 20
549.1240791289
 30
0.0
  0
VERTEX
  5
3DB
330
11D
100
AcDbEntity
  8
0
  6
CONTINUOUS
 62
     7
100
AcDbVertex
100
AcDb2dVertex
 10
1607.5472915777
 20
549.0776446278
 30
0.0
  0
VERTEX
  5
3DC
330
11D
100
AcDbEntity
  8
0
  6
CONTINUOUS
 62
     7
100
AcDbVertex
100
AcDb2dVertex
 10
1606.2096016351
 20
549.0046706455
 30
0.0
  0
VERTEX
  5
3DD
330
11D
100
AcDbEntity
  8
0
  6
CONTINUOUS
 62
     7
100
AcDbVertex
100
AcDb2dVertex
 10
1604.9200406041
 20
548.9122036632
 30
0.0
  0
VERTEX
  5
3DE
330
11D
100
AcDbEntity
  8
0
  6
CONTINUOUS
 62
     7
100
AcDbVertex
100
AcDb2dVertex
 10
1603.8240510877
 20
548.8090718585
 30
0.0
  0
VERTEX
  5
3DF
330
11D
100
AcDbEntity
  8
0
  6
CONTINUOUS
 62
     7
100
AcDbVertex
100
AcDb2dVertex
 10
1603.047164827
 20
548.7056372064
 30
0.0
  0
VERTEX
  5
3E0
330
11D
100
AcDbEntity
  8
0
  6
CONTINUOUS
 62
     7
100
AcDbVertex
100
AcDb2dVertex
 10
1602.6793570191
 20
548.6131412285
 30
0.0
  0
VERTEX
  5
3E1
330
11D
100
AcDbEntity
  8
0
  6
CONTINUOUS
 62
     7
100
AcDbVertex
100
AcDb2dVertex
 10
1602.7627901126
 20
548.5425071918
 30
0.0
  0
VERTEX
  5
3E2
330
11D
100
AcDbEntity
  8
0
  6
CONTINUOUS
 62
     7
100
AcDbVertex
100
AcDb2dVertex
 10
1603.286102289
 20
548.5027709619
 30
0.0
  0
VERTEX
  5
3E3
330
11D
100
AcDbEntity
  8
0
  6
CONTINUOUS
 62
     7
100
AcDbVertex
100
AcDb2dVertex
 10
1604.1871889277
 20
548.499578091
 30
0.0
  0
VERTEX
  5
3E4
330
11D
100
AcDbEntity
  8
0
  6
CONTINUOUS
 62
     7
100
AcDbVertex
100
AcDb2dVertex
 10
1605.3631779005
 20
548.5341933215
 30
0.0
  0
VERTEX
  5
3E5
330
11D
100
AcDbEntity
  8
0
  6
CONTINUOUS
 62
     7
100
AcDbVertex
100
AcDb2dVertex
 10
1606.6835485784
 20
548.6031513973
 30
0.0
  0
VERTEX
  5
3E6
330
11D
100
AcDbEntity
  8
0
  6
CONTINUOUS
 62
     7
100
AcDbVertex
100
AcDb2dVertex
 10
1608.0030401844
 20
548.6984728116
 30
0.0
  0
VERTEX
  5
3E7
330
11D
100
AcDbEntity
  8
0
  6
CONTINUOUS
 62
     7
100
AcDbVertex
100
AcDb2dVertex
 10
1609.174419108
 20
548.8084417181
 30
0.0
  0
VERTEX
  5
3E8
330
11D
100
AcDbEntity
  8
0
  6
CONTINUOUS
 62
     7
100
AcDbVertex
100
AcDb2dVertex
 10
1610.0634304079
 20
548.9191215125
 30
0.0
  0
VERTEX
  5
3E9
330
11D
100
AcDbEntity
  8
0
  6
CONTINUOUS
 62
     7
100
AcDbVertex
100
AcDb2dVertex
 10
1610.5662330483
 20
549.0166288176
 30
0.0
  0
VERTEX
  5
3EA
330
11D
100
AcDbEntity
  8
0
  6
CONTINUOUS
 62
     7
100
AcDbVertex
100
AcDb2dVertex
 10
1610.6564152945
 20
549.0659043907
 30
0.0
  0
SEQEND
  5
660
330
11D
100
AcDbEntity
  8
0
  6
CONTINUOUS
 62
     7
  0
POLYLINE
  5
11E
330
1F
100
AcDbEntity
  8
0
  6
CONTINUOUS
 62
     7
100
AcDb2dPolyline
 66
     1
 10
0.0
 20
0.0
 30
0.0
 70
   128
  0
VERTEX
  5
3EB
330
11E
100
AcDbEntity
  8
0
  6
CONTINUOUS
 62
     7
100
AcDbVertex
100
AcDb2dVertex
 10
1412.0589223751
 20
549.707228901
 30
0.0
  0
VERTEX
  5
3EC
330
11E
100
AcDbEntity
  8
0
  6
CONTINUOUS
 62
     7
100
AcDbVertex
100
AcDb2dVertex
 10
1411.8319640403
 20
549.819377712
 30
0.0
  0
VERTEX
  5
3ED
330
11E
100
AcDbEntity
  8
0
  6
CONTINUOUS
 62
     7
100
AcDbVertex
100
AcDb2dVertex
 10
1411.1766593152
 20
549.9280839793
 30
0.0
  0
VERTEX
  5
3EE
330
11E
100
AcDbEntity
  8
0
  6
CONTINUOUS
 62
     7
100
AcDbVertex
100
AcDb2dVertex
 10
1410.166896474
 20
550.0195994691
 30
0.0
  0
VERTEX
  5
3EF
330
11E
100
AcDbEntity
  8
0
  6
CONTINUOUS
 62
     7
100
AcDbVertex
100
AcDb2dVertex
 10
1408.9197983966
 20
550.082113759
 30
0.0
  0
VERTEX
  5
3F0
330
11E
100
AcDbEntity
  8
0
  6
CONTINUOUS
 62
     7
100
AcDbVertex
100
AcDb2dVertex
 10
1407.5790708502
 20
550.1081097351
 30
0.0
  0
VERTEX
  5
3F1
330
11E
100
AcDbEntity
  8
0
  6
CONTINUOUS
 62
     7
100
AcDbVertex
100
AcDb2dVertex
 10
1406.2955011385
 20
550.0953752123
 30
0.0
  0
VERTEX
  5
3F2
330
11E
100
AcDbEntity
  8
0
  6
CONTINUOUS
 62
     7
100
AcDbVertex
100
AcDb2dVertex
 10
1405.2103944583
 20
550.046774087
 30
0.0
  0
VERTEX
  5
3F3
330
11E
100
AcDbEntity
  8
0
  6
CONTINUOUS
 62
     7
100
AcDbVertex
100
AcDb2dVertex
 10
1404.443232919
 20
549.9692245356
 30
0.0
  0
VERTEX
  5
3F4
330
11E
100
AcDbEntity
  8
0
  6
CONTINUOUS
 62
     7
100
AcDbVertex
100
AcDb2dVertex
 10
1404.0808876974
 20
549.8723675528
 30
0.0
  0
VERTEX
  5
3F5
330
11E
100
AcDbEntity
  8
0
  6
CONTINUOUS
 62
     7
100
AcDbVertex
100
AcDb2dVertex
 10
1404.1670678849
 20
549.7671805235
 30
0.0
  0
VERTEX
  5
3F6
330
11E
100
AcDbEntity
  8
0
  6
CONTINUOUS
 62
     7
100
AcDbVertex
100
AcDb2dVertex
 10
1404.6945526288
 20
549.6647224452
 30
0.0
  0
VERTEX
  5
3F7
330
11E
100
AcDbEntity
  8
0
  6
CONTINUOUS
 62
     7
100
AcDbVertex
100
AcDb2dVertex
 10
1405.6040086302
 20
549.5752022027
 30
0.0
  0
VERTEX
  5
3F8
330
11E
100
AcDbEntity
  8
0
  6
CONTINUOUS
 62
     7
100
AcDbVertex
100
AcDb2dVertex
 10
1406.7908907452
 20
549.5074037642
 30
0.0
  0
VERTEX
  5
3F9
330
11E
100
AcDbEntity
  8
0
  6
CONTINUOUS
 62
     7
100
AcDbVertex
100
AcDb2dVertex
 10
1408.118978826
 20
549.4682525304
 30
0.0
  0
VERTEX
  5
3FA
330
11E
100
AcDbEntity
  8
0
  6
CONTINUOUS
 62
     7
100
AcDbVertex
100
AcDb2dVertex
 10
1409.4376389905
 20
549.4623101517
 30
0.0
  0
VERTEX
  5
3FB
330
11E
100
AcDbEntity
  8
0
  6
CONTINUOUS
 62
     7
100
AcDbVertex
100
AcDb2dVertex
 10
1410.5996049514
 20
549.4911798218
 30
0.0
  0
VERTEX
  5
3FC
330
11E
100
AcDbEntity
  8
0
  6
CONTINUOUS
 62
     7
100
AcDbVertex
100
AcDb2dVertex
 10
1411.4765443892
 20
549.5529756927
 30
0.0
  0
VERTEX
  5
3FD
330
11E
100
AcDbEntity
  8
0
  6
CONTINUOUS
 62
     7
100
AcDbVertex
100
AcDb2dVertex
 10
1411.9711668473
 20
549.6420293303
 30
0.0
  0
VERTEX
  5
3FE
330
11E
100
AcDbEntity
  8
0
  6
CONTINUOUS
 62
     7
100
AcDbVertex
100
AcDb2dVertex
 10
1412.0589223751
 20
549.707228901
 30
0.0
  0
SEQEND
  5
661
330
11E
100
AcDbEntity
  8
0
  6
CONTINUOUS
 62
     7
  0
POLYLINE
  5
11F
330
1F
100
AcDbEntity
  8
0
  6
CONTINUOUS
 62
     7
100
AcDb2dPolyline
 66
     1
 10
0.0
 20
0.0
 30
0.0
 70
   128
  0
VERTEX
  5
3FF
330
11F
100
AcDbEntity
  8
0
  6
CONTINUOUS
 62
     7
100
AcDbVertex
100
AcDb2dVertex
 10
1339.4666396427
 20
541.0141660009
 30
0.0
  0
VERTEX
  5
400
330
11F
100
AcDbEntity
  8
0
  6
CONTINUOUS
 62
     7
100
AcDbVertex
100
AcDb2dVertex
 10
1339.4663802943
 20
541.0135716431
 30
0.0
  0
VERTEX
  5
401
330
11F
100
AcDbEntity
  8
0
  6
CONTINUOUS
 62
     7
100
AcDbVertex
100
AcDb2dVertex
 10
1339.6512234598
 20
541.4376462473
 30
0.0
  0
VERTEX
  5
402
330
11F
100
AcDbEntity
  8
0
  6
CONTINUOUS
 62
     7
100
AcDbVertex
100
AcDb2dVertex
 10
1340.1328357914
 20
542.5337941117
 30
0.0
  0
SEQEND
  5
662
330
11F
100
AcDbEntity
  8
0
  6
CONTINUOUS
 62
     7
  0
POLYLINE
  5
120
330
1F
100
AcDbEntity
  8
0
  6
CONTINUOUS
 62
     7
100
AcDb2dPolyline
 66
     1
 10
0.0
 20
0.0
 30
0.0
 70
   128
  0
VERTEX
  5
403
330
120
100
AcDbEntity
  8
0
  6
CONTINUOUS
 62
     7
100
AcDbVertex
100
AcDb2dVertex
 10
1340.1328357914
 20
542.5337941117
 30
0.0
  0
VERTEX
  5
404
330
120
100
AcDbEntity
  8
0
  6
CONTINUOUS
 62
     7
100
AcDbVertex
100
AcDb2dVertex
 10
1340.8056732124
 20
542.993291102
 30
0.0
  0
VERTEX
  5
405
330
120
100
AcDbEntity
  8
0
  6
CONTINUOUS
 62
     7
100
AcDbVertex
100
AcDb2dVertex
 10
1342.624278995
 20
543.9412795516
 30
0.0
  0
VERTEX
  5
406
330
120
100
AcDbEntity
  8
0
  6
CONTINUOUS
 62
     7
100
AcDbVertex
100
AcDb2dVertex
 10
1345.5904539228
 20
545.3209733383
 30
0.0
  0
VERTEX
  5
407
330
120
100
AcDbEntity
  8
0
  6
CONTINUOUS
 62
     7
100
AcDbVertex
100
AcDb2dVertex
 10
1349.6235519582
 20
546.9933348233
 30
0.0
  0
VERTEX
  5
408
330
120
100
AcDbEntity
  8
0
  6
CONTINUOUS
 62
     7
100
AcDbVertex
100
AcDb2dVertex
 10
1354.7384442505
 20
548.8589630978
 30
0.0
  0
VERTEX
  5
409
330
120
100
AcDbEntity
  8
0
  6
CONTINUOUS
 62
     7
100
AcDbVertex
100
AcDb2dVertex
 10
1360.8651883827
 20
550.7939034971
 30
0.0
  0
VERTEX
  5
40A
330
120
100
AcDbEntity
  8
0
  6
CONTINUOUS
 62
     7
100
AcDbVertex
100
AcDb2dVertex
 10
1367.9117081113
 20
552.6876655841
 30
0.0
  0
VERTEX
  5
40B
330
120
100
AcDbEntity
  8
0
  6
CONTINUOUS
 62
     7
100
AcDbVertex
100
AcDb2dVertex
 10
1375.8750296913
 20
554.4717445806
 30
0.0
  0
VERTEX
  5
40C
330
120
100
AcDbEntity
  8
0
  6
CONTINUOUS
 62
     7
100
AcDbVertex
100
AcDb2dVertex
 10
1384.5101911967
 20
556.0243551249
 30
0.0
  0
VERTEX
  5
40D
330
120
100
AcDbEntity
  8
0
  6
CONTINUOUS
 62
     7
100
AcDbVertex
100
AcDb2dVertex
 10
1391.3860007943
 20
556.9987465374
 30
0.0
  0
VERTEX
  5
40E
330
120
100
AcDbEntity
  8
0
  6
CONTINUOUS
 62
     7
100
AcDbVertex
100
AcDb2dVertex
 10
1398.6170695755
 20
557.7980954347
 30
0.0
  0
VERTEX
  5
40F
330
120
100
AcDbEntity
  8
0
  6
CONTINUOUS
 62
     7
100
AcDbVertex
100
AcDb2dVertex
 10
1406.072045227
 20
558.4047991439
 30
0.0
  0
VERTEX
  5
410
330
120
100
AcDbEntity
  8
0
  6
CONTINUOUS
 62
     7
100
AcDbVertex
100
AcDb2dVertex
 10
1413.6872414557
 20
558.8217856583
 30
0.0
  0
SEQEND
  5
663
330
120
100
AcDbEntity
  8
0
  6
CONTINUOUS
 62
     7
  0
POLYLINE
  5
121
330
1F
100
AcDbEntity
  8
0
  6
CONTINUOUS
 62
     7
100
AcDb2dPolyline
 66
     1
 10
0.0
 20
0.0
 30
0.0
 70
   128
  0
VERTEX
  5
411
330
121
100
AcDbEntity
  8
0
  6
CONTINUOUS
 62
     7
100
AcDbVertex
100
AcDb2dVertex
 10
1445.1903234323
 20
559.6280793853
 30
0.0
  0
VERTEX
  5
412
330
121
100
AcDbEntity
  8
0
  6
CONTINUOUS
 62
     7
100
AcDbVertex
100
AcDb2dVertex
 10
1478.7462002899
 20
559.8378867378
 30
0.0
  0
VERTEX
  5
413
330
121
100
AcDbEntity
  8
0
  6
CONTINUOUS
 62
     7
100
AcDbVertex
100
AcDb2dVertex
 10
1512.269149938
 20
559.6089131688
 30
0.0
  0
VERTEX
  5
414
330
121
100
AcDbEntity
  8
0
  6
CONTINUOUS
 62
     7
100
AcDbVertex
100
AcDb2dVertex
 10
1545.8035291745
 20
558.7574401651
 30
0.0
  0
VERTEX
  5
415
330
121
100
AcDbEntity
  8
0
  6
CONTINUOUS
 62
     7
100
AcDbVertex
100
AcDb2dVertex
 10
1560.2290811186
 20
558.2816312538
 30
0.0
  0
VERTEX
  5
416
330
121
100
AcDbEntity
  8
0
  6
CONTINUOUS
 62
     7
100
AcDbVertex
100
AcDb2dVertex
 10
1574.6793962545
 20
557.8107965061
 30
0.0
  0
VERTEX
  5
417
330
121
100
AcDbEntity
  8
0
  6
CONTINUOUS
 62
     7
100
AcDbVertex
100
AcDb2dVertex
 10
1589.1409064247
 20
557.3768498955
 30
0.0
  0
VERTEX
  5
418
330
121
100
AcDbEntity
  8
0
  6
CONTINUOUS
 62
     7
100
AcDbVertex
100
AcDb2dVertex
 10
1603.6166816352
 20
556.9996298351
 30
0.0
  0
VERTEX
  5
419
330
121
100
AcDbEntity
  8
0
  6
CONTINUOUS
 62
     7
100
AcDbVertex
100
AcDb2dVertex
 10
1618.1152776958
 20
556.7092483277
 30
0.0
  0
VERTEX
  5
41A
330
121
100
AcDbEntity
  8
0
  6
CONTINUOUS
 62
     7
100
AcDbVertex
100
AcDb2dVertex
 10
1632.8037969304
 20
556.6471283744
 30
0.0
  0
VERTEX
  5
41B
330
121
100
AcDbEntity
  8
0
  6
CONTINUOUS
 62
     7
100
AcDbVertex
100
AcDb2dVertex
 10
1647.8007261734
 20
557.2136244983
 30
0.0
  0
SEQEND
  5
664
330
121
100
AcDbEntity
  8
0
  6
CONTINUOUS
 62
     7
  0
POLYLINE
  5
122
330
1F
100
AcDbEntity
  8
0
  6
CONTINUOUS
 62
     7
100
AcDb2dPolyline
 66
     1
 10
0.0
 20
0.0
 30
0.0
 70
   128
  0
VERTEX
  5
41C
330
122
100
AcDbEntity
  8
0
  6
CONTINUOUS
 62
     7
100
AcDbVertex
100
AcDb2dVertex
 10
1647.8007261734
 20
557.2136244983
 30
0.0
  0
VERTEX
  5
41D
330
122
100
AcDbEntity
  8
0
  6
CONTINUOUS
 62
     7
100
AcDbVertex
100
AcDb2dVertex
 10
1658.5510220517
 20
558.3235232016
 30
0.0
  0
VERTEX
  5
41E
330
122
100
AcDbEntity
  8
0
  6
CONTINUOUS
 62
     7
100
AcDbVertex
100
AcDb2dVertex
 10
1669.4057439596
 20
560.3851637102
 30
0.0
  0
VERTEX
  5
41F
330
122
100
AcDbEntity
  8
0
  6
CONTINUOUS
 62
     7
100
AcDbVertex
100
AcDb2dVertex
 10
1676.6510278797
 20
562.4584283617
 30
0.0
  0
VERTEX
  5
420
330
122
100
AcDbEntity
  8
0
  6
CONTINUOUS
 62
     7
100
AcDbVertex
100
AcDb2dVertex
 10
1683.855395592
 20
565.2145804304
 30
0.0
  0
VERTEX
  5
421
330
122
100
AcDbEntity
  8
0
  6
CONTINUOUS
 62
     7
100
AcDbVertex
100
AcDb2dVertex
 10
1690.8727513714
 20
568.7293688294
 30
0.0
  0
SEQEND
  5
665
330
122
100
AcDbEntity
  8
0
  6
CONTINUOUS
 62
     7
  0
POLYLINE
  5
123
330
1F
100
AcDbEntity
  8
0
  6
CONTINUOUS
 62
     7
100
AcDb2dPolyline
 66
     1
 10
0.0
 20
0.0
 30
0.0
 70
   128
  0
VERTEX
  5
422
330
123
100
AcDbEntity
  8
0
  6
CONTINUOUS
 62
     7
100
AcDbVertex
100
AcDb2dVertex
 10
1730.1332106056
 20
810.3259824953
 30
0.0
  0
VERTEX
  5
423
330
123
100
AcDbEntity
  8
0
  6
CONTINUOUS
 62
     7
100
AcDbVertex
100
AcDb2dVertex
 10
1727.3594188374
 20
793.1532051403
 30
0.0
  0
VERTEX
  5
424
330
123
100
AcDbEntity
  8
0
  6
CONTINUOUS
 62
     7
100
AcDbVertex
100
AcDb2dVertex
 10
1724.7362304108
 20
776.0105525054
 30
0.0
  0
VERTEX
  5
425
330
123
100
AcDbEntity
  8
0
  6
CONTINUOUS
 62
     7
100
AcDbVertex
100
AcDb2dVertex
 10
1722.4124884232
 20
758.9585667317
 30
0.0
  0
VERTEX
  5
426
330
123
100
AcDbEntity
  8
0
  6
CONTINUOUS
 62
     7
100
AcDbVertex
100
AcDb2dVertex
 10
1720.7012305985
 20
742.0606607652
 30
0.0
  0
VERTEX
  5
427
330
123
100
AcDbEntity
  8
0
  6
CONTINUOUS
 62
     7
100
AcDbVertex
100
AcDb2dVertex
 10
1719.9261455885
 20
725.2239679405
 30
0.0
  0
VERTEX
  5
428
330
123
100
AcDbEntity
  8
0
  6
CONTINUOUS
 62
     7
100
AcDbVertex
100
AcDb2dVertex
 10
1720.0934451305
 20
708.2292038209
 30
0.0
  0
VERTEX
  5
429
330
123
100
AcDbEntity
  8
0
  6
CONTINUOUS
 62
     7
100
AcDbVertex
100
AcDb2dVertex
 10
1721.0469074646
 20
691.0820425384
 30
0.0
  0
VERTEX
  5
42A
330
123
100
AcDbEntity
  8
0
  6
CONTINUOUS
 62
     7
100
AcDbVertex
100
AcDb2dVertex
 10
1722.2599265925
 20
676.9178474371
 30
0.0
  0
VERTEX
  5
42B
330
123
100
AcDbEntity
  8
0
  6
CONTINUOUS
 62
     7
100
AcDbVertex
100
AcDb2dVertex
 10
1723.5376023423
 20
662.4931532392
 30
0.0
  0
VERTEX
  5
42C
330
123
100
AcDbEntity
  8
0
  6
CONTINUOUS
 62
     7
100
AcDbVertex
100
AcDb2dVertex
 10
1724.4555793744
 20
647.7203624671
 30
0.0
  0
VERTEX
  5
42D
330
123
100
AcDbEntity
  8
0
  6
CONTINUOUS
 62
     7
100
AcDbVertex
100
AcDb2dVertex
 10
1724.6167597671
 20
638.8405914292
 30
0.0
  0
VERTEX
  5
42E
330
123
100
AcDbEntity
  8
0
  6
CONTINUOUS
 62
     7
100
AcDbVertex
100
AcDb2dVertex
 10
1724.3486374049
 20
629.8326304033
 30
0.0
  0
VERTEX
  5
42F
330
123
100
AcDbEntity
  8
0
  6
CONTINUOUS
 62
     7
100
AcDbVertex
100
AcDb2dVertex
 10
1723.5097334769
 20
620.714434146
 30
0.0
  0
VERTEX
  5
430
330
123
100
AcDbEntity
  8
0
  6
CONTINUOUS
 62
     7
100
AcDbVertex
100
AcDb2dVertex
 10
1721.8967577237
 20
611.5107563191
 30
0.0
  0
VERTEX
  5
431
330
123
100
AcDbEntity
  8
0
  6
CONTINUOUS
 62
     7
100
AcDbVertex
100
AcDb2dVertex
 10
1719.4950708416
 20
603.0427809504
 30
0.0
  0
VERTEX
  5
432
330
123
100
AcDbEntity
  8
0
  6
CONTINUOUS
 62
     7
100
AcDbVertex
100
AcDb2dVertex
 10
1715.9413721456
 20
594.6856607339
 30
0.0
  0
VERTEX
  5
433
330
123
100
AcDbEntity
  8
0
  6
CONTINUOUS
 62
     7
100
AcDbVertex
100
AcDb2dVertex
 10
1712.9113959202
 20
589.3935340229
 30
0.0
  0
VERTEX
  5
434
330
123
100
AcDbEntity
  8
0
  6
CONTINUOUS
 62
     7
100
AcDbVertex
100
AcDb2dVertex
 10
1709.3331120946
 20
584.3888589499
 30
0.0
  0
VERTEX
  5
435
330
123
100
AcDbEntity
  8
0
  6
CONTINUOUS
 62
     7
100
AcDbVertex
100
AcDb2dVertex
 10
1705.2529581367
 20
579.7568299284
 30
0.0
  0
VERTEX
  5
436
330
123
100
AcDbEntity
  8
0
  6
CONTINUOUS
 62
     7
100
AcDbVertex
100
AcDb2dVertex
 10
1700.7776368764
 20
575.6035235254
 30
0.0
  0
VERTEX
  5
437
330
123
100
AcDbEntity
  8
0
  6
CONTINUOUS
 62
     7
100
AcDbVertex
100
AcDb2dVertex
 10
1695.9740103726
 20
571.9373553954
 30
0.0
  0
VERTEX
  5
438
330
123
100
AcDbEntity
  8
0
  6
CONTINUOUS
 62
     7
100
AcDbVertex
100
AcDb2dVertex
 10
1690.872732
 20
568.7293576894
 30
0.0
  0
SEQEND
  5
666
330
123
100
AcDbEntity
  8
0
  6
CONTINUOUS
 62
     7
  0
POLYLINE
  5
124
330
1F
100
AcDbEntity
  8
0
  6
CONTINUOUS
 62
     7
100
AcDb2dPolyline
 66
     1
 10
0.0
 20
0.0
 30
0.0
 70
   128
  0
VERTEX
  5
439
330
124
100
AcDbEntity
  8
0
  6
CONTINUOUS
 62
     7
100
AcDbVertex
100
AcDb2dVertex
 10
1764.286699271
 20
901.1656301254
 30
0.0
  0
VERTEX
  5
43A
330
124
100
AcDbEntity
  8
0
  6
CONTINUOUS
 62
     7
100
AcDbVertex
100
AcDb2dVertex
 10
1763.0037645028
 20
900.7249214682
 30
0.0
  0
VERTEX
  5
43B
330
124
100
AcDbEntity
  8
0
  6
CONTINUOUS
 62
     7
100
AcDbVertex
100
AcDb2dVertex
 10
1761.4773475371
 20
899.4166449951
 30
0.0
  0
VERTEX
  5
43C
330
124
100
AcDbEntity
  8
0
  6
CONTINUOUS
 62
     7
100
AcDbVertex
100
AcDb2dVertex
 10
1759.7082521042
 20
897.2601192689
 30
0.0
  0
VERTEX
  5
43D
330
124
100
AcDbEntity
  8
0
  6
CONTINUOUS
 62
     7
100
AcDbVertex
100
AcDb2dVertex
 10
1757.7013895052
 20
894.2584777917
 30
0.0
  0
VERTEX
  5
43E
330
124
100
AcDbEntity
  8
0
  6
CONTINUOUS
 62
     7
100
AcDbVertex
100
AcDb2dVertex
 10
1755.5142749156
 20
890.4901354152
 30
0.0
  0
VERTEX
  5
43F
330
124
100
AcDbEntity
  8
0
  6
CONTINUOUS
 62
     7
100
AcDbVertex
100
AcDb2dVertex
 10
1753.1753289325
 20
885.9916398588
 30
0.0
  0
VERTEX
  5
440
330
124
100
AcDbEntity
  8
0
  6
CONTINUOUS
 62
     7
100
AcDbVertex
100
AcDb2dVertex
 10
1750.7001173926
 20
880.770937388
 30
0.0
  0
VERTEX
  5
441
330
124
100
AcDbEntity
  8
0
  6
CONTINUOUS
 62
     7
100
AcDbVertex
100
AcDb2dVertex
 10
1748.1333643401
 20
874.8795596955
 30
0.0
  0
VERTEX
  5
442
330
124
100
AcDbEntity
  8
0
  6
CONTINUOUS
 62
     7
100
AcDbVertex
100
AcDb2dVertex
 10
1745.5537171284
 20
868.4312596297
 30
0.0
  0
VERTEX
  5
443
330
124
100
AcDbEntity
  8
0
  6
CONTINUOUS
 62
     7
100
AcDbVertex
100
AcDb2dVertex
 10
1742.994587234
 20
861.425640737
 30
0.0
  0
VERTEX
  5
444
330
124
100
AcDbEntity
  8
0
  6
CONTINUOUS
 62
     7
100
AcDbVertex
100
AcDb2dVertex
 10
1740.4822424145
 20
853.8480514182
 30
0.0
  0
VERTEX
  5
445
330
124
100
AcDbEntity
  8
0
  6
CONTINUOUS
 62
     7
100
AcDbVertex
100
AcDb2dVertex
 10
1738.078887834
 20
845.8262019971
 30
0.0
  0
VERTEX
  5
446
330
124
100
AcDbEntity
  8
0
  6
CONTINUOUS
 62
     7
100
AcDbVertex
100
AcDb2dVertex
 10
1735.8221041099
 20
837.449752106
 30
0.0
  0
VERTEX
  5
447
330
124
100
AcDbEntity
  8
0
  6
CONTINUOUS
 62
     7
100
AcDbVertex
100
AcDb2dVertex
 10
1733.7249577773
 20
828.7164145146
 30
0.0
  0
VERTEX
  5
448
330
124
100
AcDbEntity
  8
0
  6
CONTINUOUS
 62
     7
100
AcDbVertex
100
AcDb2dVertex
 10
1731.810527882
 20
819.6325087011
 30
0.0
  0
VERTEX
  5
449
330
124
100
AcDbEntity
  8
0
  6
CONTINUOUS
 62
     7
100
AcDbVertex
100
AcDb2dVertex
 10
1730.1332106056
 20
810.3259824953
 30
0.0
  0
SEQEND
  5
667
330
124
100
AcDbEntity
  8
0
  6
CONTINUOUS
 62
     7
  0
POLYLINE
  5
125
330
1F
100
AcDbEntity
  8
0
  6
CONTINUOUS
 62
     7
100
AcDb2dPolyline
 66
     1
 10
0.0
 20
0.0
 30
0.0
 70
   128
  0
VERTEX
  5
44A
330
125
100
AcDbEntity
  8
0
  6
CONTINUOUS
 62
     7
100
AcDbVertex
100
AcDb2dVertex
 10
1768.9920202591
 20
901.1548120907
 30
0.0
  0
VERTEX
  5
44B
330
125
100
AcDbEntity
  8
0
  6
CONTINUOUS
 62
     7
100
AcDbVertex
100
AcDb2dVertex
 10
1768.9937554675
 20
901.1548069139
 30
0.0
  0
VERTEX
  5
44C
330
125
100
AcDbEntity
  8
0
  6
CONTINUOUS
 62
     7
100
AcDbVertex
100
AcDb2dVertex
 10
1768.4741481245
 20
901.1564146939
 30
0.0
  0
VERTEX
  5
44D
330
125
100
AcDbEntity
  8
0
  6
CONTINUOUS
 62
     7
100
AcDbVertex
100
AcDb2dVertex
 10
1766.9204015544
 20
901.1603273453
 30
0.0
  0
VERTEX
  5
44E
330
125
100
AcDbEntity
  8
0
  6
CONTINUOUS
 62
     7
100
AcDbVertex
100
AcDb2dVertex
 10
1764.286699271
 20
901.1656301254
 30
0.0
  0
SEQEND
  5
668
330
125
100
AcDbEntity
  8
0
  6
CONTINUOUS
 62
     7
  0
ARC
  5
126
330
1F
100
AcDbEntity
  8
0
  6
CONTINUOUS
 62
     7
100
AcDbCircle
 10
1368.2324130837
 20
118.248221492
 30
0.0
 40
1.188241508285957
100
AcDbArc
 50
168.668624175
 51
220.1729220797
  0
LINE
  5
127
330
1F
100
AcDbEntity
  8
0
  6
CONTINUOUS
 62
     7
100
AcDbLine
 10
1367.3244765757
 20
117.4816908797
 30
0.0
 11
1328.6695405179
 21
117.4816908797
 31
0.0
  0
ARC
  5
128
330
1F
100
AcDbEntity
  8
0
  6
CONTINUOUS
 62
     7
100
AcDbCircle
 10
1329.5774770259
 20
118.248221492
 30
0.0
 40
1.188241508285952
100
AcDbArc
 50
168.668624175
 51
220.1729220797
  0
LINE
  5
129
330
1F
100
AcDbEntity
  8
0
  6
CONTINUOUS
 62
     7
100
AcDbLine
 10
1370.5855992363
 20
123.9816908797
 30
0.0
 11
1370.666525674
 21
120.0212357372
 31
0.0
  0
ARC
  5
12A
330
1F
100
AcDbEntity
  8
0
  6
CONTINUOUS
 62
     7
100
AcDbCircle
 10
1366.7886636857
 20
119.9420673973
 30
0.0
 40
3.878670033183964
100
AcDbArc
 50
359.9993200072
 51
1.1695572787
  0
LINE
  5
12B
330
1F
100
AcDbEntity
  8
0
  6
CONTINUOUS
 62
     7
100
AcDbLine
 10
1370.6673337186
 20
119.9420213648
 30
0.0
 11
1370.6673337186
 21
118.4816908796
 31
0.0
  0
ARC
  5
12C
330
1F
100
AcDbEntity
  8
0
  6
CONTINUOUS
 62
     7
100
AcDbCircle
 10
1369.5022543535
 20
118.2482214919
 30
0.0
 40
1.188241508238245
100
AcDbArc
 50
319.8270779192
 51
11.3313758254
  0
LINE
  5
12D
330
1F
100
AcDbEntity
  8
0
  6
CONTINUOUS
 62
     7
100
AcDbLine
 10
1370.4101908614
 20
117.4816908796
 30
0.0
 11
1367.3244765757
 21
117.4816908797
 31
0.0
  0
LINE
  5
12E
330
1F
100
AcDbEntity
  8
0
  6
CONTINUOUS
 62
     7
100
AcDbLine
 10
1367.0673337186
 20
118.4816908797
 30
0.0
 11
1367.0673337186
 21
119.9420213649
 31
0.0
  0
ARC
  5
12F
330
1F
100
AcDbEntity
  8
0
  6
CONTINUOUS
 62
     7
100
AcDbCircle
 10
1370.9460037553
 20
119.9420673973
 30
0.0
 40
3.878670037044086
100
AcDbArc
 50
178.8304427216
 51
180.0006799919
  0
LINE
  5
130
330
1F
100
AcDbEntity
  8
0
  6
CONTINUOUS
 62
     7
100
AcDbLine
 10
1367.0681417632
 20
120.0212357373
 30
0.0
 11
1367.2410194934
 21
128.4816908797
 31
0.0
  0
POLYLINE
  5
131
330
1F
100
AcDbEntity
  8
0
  6
CONTINUOUS
 62
     7
100
AcDb2dPolyline
 66
     1
 10
0.0
 20
0.0
 30
0.0
 70
   128
  0
VERTEX
  5
44F
330
131
100
AcDbEntity
  8
0
  6
CONTINUOUS
 62
     7
100
AcDbVertex
100
AcDb2dVertex
 10
1367.2410194934
 20
128.4816908797
 30
0.0
  0
VERTEX
  5
450
330
131
100
AcDbEntity
  8
0
  6
CONTINUOUS
 62
     7
100
AcDbVertex
100
AcDb2dVertex
 10
1367.3818075323
 20
127.0024734863
 30
0.0
  0
VERTEX
  5
451
330
131
100
AcDbEntity
  8
0
  6
CONTINUOUS
 62
     7
100
AcDbVertex
100
AcDb2dVertex
 10
1367.6100693389
 20
125.6986844178
 30
0.0
  0
VERTEX
  5
452
330
131
100
AcDbEntity
  8
0
  6
CONTINUOUS
 62
     7
100
AcDbVertex
100
AcDb2dVertex
 10
1367.9123639384
 20
124.6470960281
 30
0.0
  0
VERTEX
  5
453
330
131
100
AcDbEntity
  8
0
  6
CONTINUOUS
 62
     7
100
AcDbVertex
100
AcDb2dVertex
 10
1368.2708910066
 20
123.9096300789
 30
0.0
  0
VERTEX
  5
454
330
131
100
AcDbEntity
  8
0
  6
CONTINUOUS
 62
     7
100
AcDbVertex
100
AcDb2dVertex
 10
1368.664539025
 20
123.529711537
 30
0.0
  0
VERTEX
  5
455
330
131
100
AcDbEntity
  8
0
  6
CONTINUOUS
 62
     7
100
AcDbVertex
100
AcDb2dVertex
 10
1369.0701284121
 20
123.529711537
 30
0.0
  0
VERTEX
  5
456
330
131
100
AcDbEntity
  8
0
  6
CONTINUOUS
 62
     7
100
AcDbVertex
100
AcDb2dVertex
 10
1369.4637764306
 20
123.9096300789
 30
0.0
  0
VERTEX
  5
457
330
131
100
AcDbEntity
  8
0
  6
CONTINUOUS
 62
     7
100
AcDbVertex
100
AcDb2dVertex
 10
1369.5101908614
 20
123.9816908797
 30
0.0
  0
SEQEND
  5
669
330
131
100
AcDbEntity
  8
0
  6
CONTINUOUS
 62
     7
  0
LINE
  5
132
330
1F
100
AcDbEntity
  8
0
  6
CONTINUOUS
 62
     7
100
AcDbLine
 10
1328.4123976608
 20
118.4816908797
 30
0.0
 11
1328.4123976608
 21
119.9420213649
 31
0.0
  0
ARC
  5
133
330
1F
100
AcDbEntity
  8
0
  6
CONTINUOUS
 62
     7
100
AcDbCircle
 10
1332.2910676975
 20
119.9420673973
 30
0.0
 40
3.878670037042949
100
AcDbArc
 50
178.8304427216
 51
180.0006799919
  0
LINE
  5
134
330
1F
100
AcDbEntity
  8
0
  6
CONTINUOUS
 62
     7
100
AcDbLine
 10
1367.2410194934
 20
128.4816908797
 30
0.0
 11
1328.5860834356
 21
128.4816908797
 31
0.0
  0
LINE
  5
135
330
1F
100
AcDbEntity
  8
0
  6
CONTINUOUS
 62
     7
100
AcDbLine
 10
1328.4132057054
 20
120.0212357373
 30
0.0
 11
1328.5860834356
 21
128.4816908797
 31
0.0
  0
LINE
  5
136
330
1F
100
AcDbEntity
  8
0
  6
CONTINUOUS
 62
     7
100
AcDbLine
 10
1732.5226709567
 20
120.9816908797
 30
0.0
 11
1732.5226709567
 21
118.4816908797
 31
0.0
  0
LINE
  5
137
330
1F
100
AcDbEntity
  8
0
  6
CONTINUOUS
 62
     7
100
AcDbLine
 10
1772.5200408883
 20
120.9816908797
 30
0.0
 11
1772.5200408883
 21
118.4816908797
 31
0.0
  0
LINE
  5
138
330
1F
100
AcDbEntity
  8
0
  6
CONTINUOUS
 62
     7
100
AcDbLine
 10
1732.5149254262
 20
128.4816908797
 30
0.0
 11
1732.5226241749
 21
121.07192671
 31
0.0
  0
ARC
  5
139
330
1F
100
AcDbEntity
  8
0
  6
CONTINUOUS
 62
     7
100
AcDbCircle
 10
1645.6366925521
 20
120.9817637776
 30
0.0
 40
86.88597840463933
100
AcDbArc
 50
359.9999519285
 51
0.059456733
  0
ARC
  5
13A
330
1F
100
AcDbEntity
  8
0
  6
CONTINUOUS
 62
     7
100
AcDbCircle
 10
1710.7129594457
 20
118.2317237545
 30
0.0
 40
21.8111439350756
100
AcDbArc
 50
358.0293471854
 51
0.6566539963
  0
LINE
  5
13B
330
1F
100
AcDbEntity
  8
0
  6
CONTINUOUS
 62
     7
100
AcDbLine
 10
1732.5112036512
 20
117.4816908797
 30
0.0
 11
1732.3735959854
 21
117.4816908797
 31
0.0
  0
ARC
  5
13C
330
1F
100
AcDbEntity
  8
0
  6
CONTINUOUS
 62
     7
100
AcDbCircle
 10
1754.1718401904
 20
118.2317237544
 30
0.0
 40
21.81114393451007
100
AcDbArc
 50
179.3433460036
 51
181.9706528146
  0
LINE
  5
13D
330
1F
100
AcDbEntity
  8
0
  6
CONTINUOUS
 62
     7
100
AcDbLine
 10
1732.3621286799
 20
118.4816908797
 30
0.0
 11
1732.3621286799
 21
120.9816908797
 31
0.0
  0
ARC
  5
13E
330
1F
100
AcDbEntity
  8
0
  6
CONTINUOUS
 62
     7
100
AcDbCircle
 10
1819.2481060545
 20
120.9817637783
 30
0.0
 40
86.88597737454768
100
AcDbArc
 50
179.9405432668
 51
180.000048072
  0
LINE
  5
13F
330
1F
100
AcDbEntity
  8
0
  6
CONTINUOUS
 62
     7
100
AcDbLine
 10
1732.3621754617
 20
121.07192671
 30
0.0
 11
1732.3651987081
 21
123.9816908797
 31
0.0
  0
POLYLINE
  5
140
330
1F
100
AcDbEntity
  8
0
  6
CONTINUOUS
 62
     7
100
AcDb2dPolyline
 66
     1
 10
0.0
 20
0.0
 30
0.0
 70
   128
  0
VERTEX
  5
458
330
140
100
AcDbEntity
  8
0
  6
CONTINUOUS
 62
     7
100
AcDbVertex
100
AcDb2dVertex
 10
1732.4137315546
 20
123.9816908797
 30
0.0
  0
VERTEX
  5
459
330
140
100
AcDbEntity
  8
0
  6
CONTINUOUS
 62
     7
100
AcDbVertex
100
AcDb2dVertex
 10
1732.4158014097
 20
123.9096300789
 30
0.0
  0
VERTEX
  5
45A
330
140
100
AcDbEntity
  8
0
  6
CONTINUOUS
 62
     7
100
AcDbVertex
100
AcDb2dVertex
 10
1732.4333561734
 20
123.529711537
 30
0.0
  0
VERTEX
  5
45B
330
140
100
AcDbEntity
  8
0
  6
CONTINUOUS
 62
     7
100
AcDbVertex
100
AcDb2dVertex
 10
1732.4514434632
 20
123.529711537
 30
0.0
  0
VERTEX
  5
45C
330
140
100
AcDbEntity
  8
0
  6
CONTINUOUS
 62
     7
100
AcDbVertex
100
AcDb2dVertex
 10
1732.4689982269
 20
123.9096300789
 30
0.0
  0
VERTEX
  5
45D
330
140
100
AcDbEntity
  8
0
  6
CONTINUOUS
 62
     7
100
AcDbVertex
100
AcDb2dVertex
 10
1732.4849867691
 20
124.647096028
 30
0.0
  0
VERTEX
  5
45E
330
140
100
AcDbEntity
  8
0
  6
CONTINUOUS
 62
     7
100
AcDbVertex
100
AcDb2dVertex
 10
1732.49846762
 20
125.6986844178
 30
0.0
  0
VERTEX
  5
45F
330
140
100
AcDbEntity
  8
0
  6
CONTINUOUS
 62
     7
100
AcDbVertex
100
AcDb2dVertex
 10
1732.5086469728
 20
127.0024734863
 30
0.0
  0
VERTEX
  5
460
330
140
100
AcDbEntity
  8
0
  6
CONTINUOUS
 62
     7
100
AcDbVertex
100
AcDb2dVertex
 10
1732.5149254262
 20
128.4816908797
 30
0.0
  0
SEQEND
  5
66A
330
140
100
AcDbEntity
  8
0
  6
CONTINUOUS
 62
     7
  0
LINE
  5
141
330
1F
100
AcDbEntity
  8
0
  6
CONTINUOUS
 62
     7
100
AcDbLine
 10
1732.5112036512
 20
117.4816908797
 30
0.0
 11
1772.5085735828
 21
117.4816908797
 31
0.0
  0
ARC
  5
142
330
1F
100
AcDbEntity
  8
0
  6
CONTINUOUS
 62
     7
100
AcDbCircle
 10
1750.7103293769
 20
118.2317237545
 30
0.0
 40
21.81114393544985
100
AcDbArc
 50
358.0293471855
 51
0.6566539963
  0
ARC
  5
143
330
1F
100
AcDbEntity
  8
0
  6
CONTINUOUS
 62
     7
100
AcDbCircle
 10
1685.6340629517
 20
120.9817637781
 30
0.0
 40
86.88597793664474
100
AcDbArc
 50
359.9999519282
 51
0.059456733
  0
LINE
  5
144
330
1F
100
AcDbEntity
  8
0
  6
CONTINUOUS
 62
     7
100
AcDbLine
 10
1732.5149254262
 20
128.4816908797
 30
0.0
 11
1772.5122953578
 21
128.4816908797
 31
0.0
  0
LINE
  5
145
330
1F
100
AcDbEntity
  8
0
  6
CONTINUOUS
 62
     7
100
AcDbLine
 10
1772.5122953578
 20
128.4816908797
 30
0.0
 11
1772.5199941066
 21
121.07192671
 31
0.0
  0
ARC
  5
146
330
1F
100
AcDbEntity
  8
0
  6
CONTINUOUS
 62
     7
100
AcDbCircle
 10
1384.0589223751
 20
540.4178720668
 30
0.0
 40
6.000000000000065
100
AcDbArc
 50
348.6034817743
 51
168.6034817743
  0
ARC
  5
147
330
1F
100
AcDbEntity
  8
0
  6
CONTINUOUS
 62
     7
100
AcDbCircle
 10
1630.6564152945
 20
540.4178720668
 30
0.0
 40
6.0
100
AcDbArc
 50
90.0
 51
237.3507020335
  0
ARC
  5
148
330
1F
100
AcDbEntity
  8
0
  6
CONTINUOUS
 62
     7
100
AcDbCircle
 10
1630.6564152945
 20
540.4178720668
 30
0.0
 40
6.0
100
AcDbArc
 50
237.3507020335
 51
270.0
  0
LINE
  5
149
330
1F
100
AcDbEntity
  8
0
  6
CONTINUOUS
 62
     7
100
AcDbLine
 10
1389.2550747978
 20
543.4178720668
 30
0.0
 11
1412.0589223751
 21
543.4178720668
 31
0.0
  0
LINE
  5
14A
330
1F
100
AcDbEntity
  8
0
  6
CONTINUOUS
 62
     7
100
AcDbLine
 10
1384.0589223751
 20
546.4178720668
 30
0.0
 11
1412.0589223751
 21
546.4178720668
 31
0.0
  0
LINE
  5
14B
330
1F
100
AcDbEntity
  8
0
  6
CONTINUOUS
 62
     7
100
AcDbLine
 10
1424.0589223751
 20
543.4178720668
 30
0.0
 11
1424.0589223751
 21
546.4178720668
 31
0.0
  0
LINE
  5
14C
330
1F
100
AcDbEntity
  8
0
  6
CONTINUOUS
 62
     7
100
AcDbLine
 10
1412.0589223751
 20
543.4178720668
 30
0.0
 11
1424.0589223751
 21
543.4178720668
 31
0.0
  0
LINE
  5
14D
330
1F
100
AcDbEntity
  8
0
  6
CONTINUOUS
 62
     7
100
AcDbLine
 10
1412.0589223751
 20
546.4178720668
 30
0.0
 11
1424.0589223751
 21
546.4178720668
 31
0.0
  0
LINE
  5
14E
330
1F
100
AcDbEntity
  8
0
  6
CONTINUOUS
 62
     7
100
AcDbLine
 10
1590.6564152945
 20
543.4178720668
 30
0.0
 11
1602.6564152945
 21
543.4178720668
 31
0.0
  0
LINE
  5
14F
330
1F
100
AcDbEntity
  8
0
  6
CONTINUOUS
 62
     7
100
AcDbLine
 10
1590.6564152945
 20
543.4178720668
 30
0.0
 11
1590.6564152945
 21
546.4178720668
 31
0.0
  0
LINE
  5
150
330
1F
100
AcDbEntity
  8
0
  6
CONTINUOUS
 62
     7
100
AcDbLine
 10
1590.6564152945
 20
546.4178720668
 30
0.0
 11
1602.6564152945
 21
546.4178720668
 31
0.0
  0
LINE
  5
151
330
1F
100
AcDbEntity
  8
0
  6
CONTINUOUS
 62
     7
100
AcDbLine
 10
1602.6564152945
 20
543.4178720668
 30
0.0
 11
1625.4602628718
 21
543.4178720668
 31
0.0
  0
LINE
  5
152
330
1F
100
AcDbEntity
  8
0
  6
CONTINUOUS
 62
     7
100
AcDbLine
 10
1602.6564152945
 20
546.4178720668
 30
0.0
 11
1630.6564152945
 21
546.4178720668
 31
0.0
  0
POLYLINE
  5
153
330
1F
100
AcDbEntity
  8
0
  6
CONTINUOUS
 62
     7
100
AcDb2dPolyline
 66
     1
 10
0.0
 20
0.0
 30
0.0
 70
   128
  0
VERTEX
  5
461
330
153
100
AcDbEntity
  8
0
  6
CONTINUOUS
 62
     7
100
AcDbVertex
100
AcDb2dVertex
 10
698.4639678685
 20
1735.639720554
 30
0.0
  0
VERTEX
  5
462
330
153
100
AcDbEntity
  8
0
  6
CONTINUOUS
 62
     7
100
AcDbVertex
100
AcDb2dVertex
 10
698.4636341472
 20
1735.6396448974
 30
0.0
  0
VERTEX
  5
463
330
153
100
AcDbEntity
  8
0
  6
CONTINUOUS
 62
     7
100
AcDbVertex
100
AcDb2dVertex
 10
699.0531781543
 20
1735.319859693
 30
0.0
  0
VERTEX
  5
464
330
153
100
AcDbEntity
  8
0
  6
CONTINUOUS
 62
     7
100
AcDbVertex
100
AcDb2dVertex
 10
699.9337849693
 20
1735.0755548049
 30
0.0
  0
VERTEX
  5
465
330
153
100
AcDbEntity
  8
0
  6
CONTINUOUS
 62
     7
100
AcDbVertex
100
AcDb2dVertex
 10
701.5079542554
 20
1734.7116729087
 30
0.0
  0
VERTEX
  5
466
330
153
100
AcDbEntity
  8
0
  6
CONTINUOUS
 62
     7
100
AcDbVertex
100
AcDb2dVertex
 10
703.78457875
 20
1734.2134785397
 30
0.0
  0
VERTEX
  5
467
330
153
100
AcDbEntity
  8
0
  6
CONTINUOUS
 62
     7
100
AcDbVertex
100
AcDb2dVertex
 10
706.7622618044
 20
1733.5674411225
 30
0.0
  0
VERTEX
  5
468
330
153
100
AcDbEntity
  8
0
  6
CONTINUOUS
 62
     7
100
AcDbVertex
100
AcDb2dVertex
 10
711.8204071009
 20
1732.4518338972
 30
0.0
  0
VERTEX
  5
469
330
153
100
AcDbEntity
  8
0
  6
CONTINUOUS
 62
     7
100
AcDbVertex
100
AcDb2dVertex
 10
718.1189715732
 20
1731.0146227679
 30
0.0
  0
VERTEX
  5
46A
330
153
100
AcDbEntity
  8
0
  6
CONTINUOUS
 62
     7
100
AcDbVertex
100
AcDb2dVertex
 10
725.6563937368
 20
1729.2228185691
 30
0.0
  0
VERTEX
  5
46B
330
153
100
AcDbEntity
  8
0
  6
CONTINUOUS
 62
     7
100
AcDbVertex
100
AcDb2dVertex
 10
734.4341824425
 20
1727.0482043302
 30
0.0
  0
VERTEX
  5
46C
330
153
100
AcDbEntity
  8
0
  6
CONTINUOUS
 62
     7
100
AcDbVertex
100
AcDb2dVertex
 10
734.4703468286
 20
1727.0389081571
 30
0.0
  0
SEQEND
  5
66B
330
153
100
AcDbEntity
  8
0
  6
CONTINUOUS
 62
     7
  0
POLYLINE
  5
154
330
1F
100
AcDbEntity
  8
0
  6
CONTINUOUS
 62
     7
100
AcDb2dPolyline
 66
     1
 10
0.0
 20
0.0
 30
0.0
 70
   128
  0
VERTEX
  5
46D
330
154
100
AcDbEntity
  8
0
  6
CONTINUOUS
 62
     7
100
AcDbVertex
100
AcDb2dVertex
 10
361.462322669
 20
1727.0505578555
 30
0.0
  0
VERTEX
  5
46E
330
154
100
AcDbEntity
  8
0
  6
CONTINUOUS
 62
     7
100
AcDbVertex
100
AcDb2dVertex
 10
370.2348736012
 20
1729.2215736591
 30
0.0
  0
VERTEX
  5
46F
330
154
100
AcDbEntity
  8
0
  6
CONTINUOUS
 62
     7
100
AcDbVertex
100
AcDb2dVertex
 10
377.7723872332
 20
1731.0118024934
 30
0.0
  0
VERTEX
  5
470
330
154
100
AcDbEntity
  8
0
  6
CONTINUOUS
 62
     7
100
AcDbVertex
100
AcDb2dVertex
 10
384.0711751606
 20
1732.4483875531
 30
0.0
  0
VERTEX
  5
471
330
154
100
AcDbEntity
  8
0
  6
CONTINUOUS
 62
     7
100
AcDbVertex
100
AcDb2dVertex
 10
389.1296407219
 20
1733.5641485504
 30
0.0
  0
VERTEX
  5
472
330
154
100
AcDbEntity
  8
0
  6
CONTINUOUS
 62
     7
100
AcDbVertex
100
AcDb2dVertex
 10
392.1075146516
 20
1734.2105464108
 30
0.0
  0
VERTEX
  5
473
330
154
100
AcDbEntity
  8
0
  6
CONTINUOUS
 62
     7
100
AcDbVertex
100
AcDb2dVertex
 10
394.3842397035
 20
1734.7091350122
 30
0.0
  0
VERTEX
  5
474
330
154
100
AcDbEntity
  8
0
  6
CONTINUOUS
 62
     7
100
AcDbVertex
100
AcDb2dVertex
 10
395.9584102494
 20
1735.0733288235
 30
0.0
  0
VERTEX
  5
475
330
154
100
AcDbEntity
  8
0
  6
CONTINUOUS
 62
     7
100
AcDbVertex
100
AcDb2dVertex
 10
396.8389614609
 20
1735.3177844022
 30
0.0
  0
VERTEX
  5
476
330
154
100
AcDbEntity
  8
0
  6
CONTINUOUS
 62
     7
100
AcDbVertex
100
AcDb2dVertex
 10
397.4284140748
 20
1735.6376620137
 30
0.0
  0
VERTEX
  5
477
330
154
100
AcDbEntity
  8
0
  6
CONTINUOUS
 62
     7
100
AcDbVertex
100
AcDb2dVertex
 10
397.428191007
 20
1735.6377125101
 30
0.0
  0
SEQEND
  5
66C
330
154
100
AcDbEntity
  8
0
  6
CONTINUOUS
 62
     7
  0
POLYLINE
  5
155
330
1F
100
AcDbEntity
  8
0
  6
CONTINUOUS
 62
     7
100
AcDb2dPolyline
 66
     1
 10
0.0
 20
0.0
 30
0.0
 70
   128
  0
VERTEX
  5
478
330
155
100
AcDbEntity
  8
0
  6
CONTINUOUS
 62
     7
100
AcDbVertex
100
AcDb2dVertex
 10
743.3330184449
 20
1741.4598511332
 30
0.0
  0
VERTEX
  5
479
330
155
100
AcDbEntity
  8
0
  6
CONTINUOUS
 62
     7
100
AcDbVertex
100
AcDb2dVertex
 10
741.2881157538
 20
1741.673031469
 30
0.0
  0
VERTEX
  5
47A
330
155
100
AcDbEntity
  8
0
  6
CONTINUOUS
 62
     7
100
AcDbVertex
100
AcDb2dVertex
 10
735.0308200866
 20
1742.3225832789
 30
0.0
  0
VERTEX
  5
47B
330
155
100
AcDbEntity
  8
0
  6
CONTINUOUS
 62
     7
100
AcDbVertex
100
AcDb2dVertex
 10
731.7724254068
 20
1742.660464824
 30
0.0
  0
SEQEND
  5
66D
330
155
100
AcDbEntity
  8
0
  6
CONTINUOUS
 62
     7
  0
POLYLINE
  5
156
330
1F
100
AcDbEntity
  8
0
  6
CONTINUOUS
 62
     7
100
AcDb2dPolyline
 66
     1
 10
0.0
 20
0.0
 30
0.0
 70
   128
  0
VERTEX
  5
47C
330
156
100
AcDbEntity
  8
0
  6
CONTINUOUS
 62
     7
100
AcDbVertex
100
AcDb2dVertex
 10
364.1166738521
 20
1742.6619127052
 30
0.0
  0
VERTEX
  5
47D
330
156
100
AcDbEntity
  8
0
  6
CONTINUOUS
 62
     7
100
AcDbVertex
100
AcDb2dVertex
 10
360.8613690375
 20
1742.3252229759
 30
0.0
  0
VERTEX
  5
47E
330
156
100
AcDbEntity
  8
0
  6
CONTINUOUS
 62
     7
100
AcDbVertex
100
AcDb2dVertex
 10
354.6032060221
 20
1741.676891287
 30
0.0
  0
VERTEX
  5
47F
330
156
100
AcDbEntity
  8
0
  6
CONTINUOUS
 62
     7
100
AcDbVertex
100
AcDb2dVertex
 10
352.5552849104
 20
1741.4634578719
 30
0.0
  0
SEQEND
  5
66E
330
156
100
AcDbEntity
  8
0
  6
CONTINUOUS
 62
     7
  0
POLYLINE
  5
157
330
1F
100
AcDbEntity
  8
0
  6
CONTINUOUS
 62
     7
100
AcDb2dPolyline
 66
     1
 10
0.0
 20
0.0
 30
0.0
 70
   128
  0
VERTEX
  5
480
330
157
100
AcDbEntity
  8
0
  6
CONTINUOUS
 62
     7
100
AcDbVertex
100
AcDb2dVertex
 10
741.0544150944
 20
1394.8748498354
 30
0.0
  0
VERTEX
  5
481
330
157
100
AcDbEntity
  8
0
  6
CONTINUOUS
 62
     7
100
AcDbVertex
100
AcDb2dVertex
 10
741.5769100832
 20
1395.8303477911
 30
0.0
  0
VERTEX
  5
482
330
157
100
AcDbEntity
  8
0
  6
CONTINUOUS
 62
     7
100
AcDbVertex
100
AcDb2dVertex
 10
742.2428991882
 20
1397.0247120159
 30
0.0
  0
SEQEND
  5
66F
330
157
100
AcDbEntity
  8
0
  6
CONTINUOUS
 62
     7
  0
POLYLINE
  5
158
330
1F
100
AcDbEntity
  8
0
  6
CONTINUOUS
 62
     7
100
AcDb2dPolyline
 66
     1
 10
0.0
 20
0.0
 30
0.0
 70
   128
  0
VERTEX
  5
483
330
158
100
AcDbEntity
  8
0
  6
CONTINUOUS
 62
     7
100
AcDbVertex
100
AcDb2dVertex
 10
353.6424393152
 20
1397.0349544791
 30
0.0
  0
VERTEX
  5
484
330
158
100
AcDbEntity
  8
0
  6
CONTINUOUS
 62
     7
100
AcDbVertex
100
AcDb2dVertex
 10
354.308442626
 20
1395.839821791
 30
0.0
  0
VERTEX
  5
485
330
158
100
AcDbEntity
  8
0
  6
CONTINUOUS
 62
     7
100
AcDbVertex
100
AcDb2dVertex
 10
354.8302695021
 20
1394.8849007425
 30
0.0
  0
SEQEND
  5
670
330
158
100
AcDbEntity
  8
0
  6
CONTINUOUS
 62
     7
  0
LINE
  5
159
330
1F
100
AcDbEntity
  8
0
  6
CONTINUOUS
 62
     7
100
AcDbLine
 10
344.3518852125
 20
1672.6083180995
 30
0.0
 11
345.7252878489
 21
1671.2349154631
 31
0.0
  0
POLYLINE
  5
15A
330
1F
100
AcDbEntity
  8
0
  6
CONTINUOUS
 62
     7
100
AcDb2dPolyline
 66
     1
 10
0.0
 20
0.0
 30
0.0
 70
   128
  0
VERTEX
  5
486
330
15A
100
AcDbEntity
  8
0
  6
CONTINUOUS
 62
     7
100
AcDbVertex
100
AcDb2dVertex
 10
346.7729738107
 20
1687.7058376228
 30
0.0
  0
VERTEX
  5
487
330
15A
100
AcDbEntity
  8
0
  6
CONTINUOUS
 62
     7
100
AcDbVertex
100
AcDb2dVertex
 10
346.0392668237
 20
1688.5903843848
 30
0.0
  0
VERTEX
  5
488
330
15A
100
AcDbEntity
  8
0
  6
CONTINUOUS
 62
     7
100
AcDbVertex
100
AcDb2dVertex
 10
344.9173425482
 20
1690.0260593085
 30
0.0
  0
VERTEX
  5
489
330
15A
100
AcDbEntity
  8
0
  6
CONTINUOUS
 62
     7
100
AcDbVertex
100
AcDb2dVertex
 10
343.9919006892
 20
1691.2975526063
 30
0.0
  0
VERTEX
  5
48A
330
15A
100
AcDbEntity
  8
0
  6
CONTINUOUS
 62
     7
100
AcDbVertex
100
AcDb2dVertex
 10
343.2841146664
 20
1692.3600016297
 30
0.0
  0
VERTEX
  5
48B
330
15A
100
AcDbEntity
  8
0
  6
CONTINUOUS
 62
     7
100
AcDbVertex
100
AcDb2dVertex
 10
342.8516572101
 20
1693.0833795602
 30
0.0
  0
VERTEX
  5
48C
330
15A
100
AcDbEntity
  8
0
  6
CONTINUOUS
 62
     7
100
AcDbVertex
100
AcDb2dVertex
 10
342.6053551894
 20
1693.5533904733
 30
0.0
  0
VERTEX
  5
48D
330
15A
100
AcDbEntity
  8
0
  6
CONTINUOUS
 62
     7
100
AcDbVertex
100
AcDb2dVertex
 10
342.5121505758
 20
1693.763473913
 30
0.0
  0
VERTEX
  5
48E
330
15A
100
AcDbEntity
  8
0
  6
CONTINUOUS
 62
     7
100
AcDbVertex
100
AcDb2dVertex
 10
342.5162987979
 20
1693.7489747894
 30
0.0
  0
SEQEND
  5
671
330
15A
100
AcDbEntity
  8
0
  6
CONTINUOUS
 62
     7
  0
POLYLINE
  5
15B
330
1F
100
AcDbEntity
  8
0
  6
CONTINUOUS
 62
     7
100
AcDb2dPolyline
 66
     1
 10
0.0
 20
0.0
 30
0.0
 70
   128
  0
VERTEX
  5
48F
330
15B
100
AcDbEntity
  8
0
  6
CONTINUOUS
 62
     7
100
AcDbVertex
100
AcDb2dVertex
 10
330.9228506929
 20
1690.6554180991
 30
0.0
  0
VERTEX
  5
490
330
15B
100
AcDbEntity
  8
0
  6
CONTINUOUS
 62
     7
100
AcDbVertex
100
AcDb2dVertex
 10
331.2257652563
 20
1689.6864475778
 30
0.0
  0
VERTEX
  5
491
330
15B
100
AcDbEntity
  8
0
  6
CONTINUOUS
 62
     7
100
AcDbVertex
100
AcDb2dVertex
 10
331.8162451058
 20
1688.3001140955
 30
0.0
  0
VERTEX
  5
492
330
15B
100
AcDbEntity
  8
0
  6
CONTINUOUS
 62
     7
100
AcDbVertex
100
AcDb2dVertex
 10
332.8036339612
 20
1686.4945430611
 30
0.0
  0
VERTEX
  5
493
330
15B
100
AcDbEntity
  8
0
  6
CONTINUOUS
 62
     7
100
AcDbVertex
100
AcDb2dVertex
 10
333.8698103876
 20
1684.8382460492
 30
0.0
  0
VERTEX
  5
494
330
15B
100
AcDbEntity
  8
0
  6
CONTINUOUS
 62
     7
100
AcDbVertex
100
AcDb2dVertex
 10
335.1902977844
 20
1682.9950243933
 30
0.0
  0
VERTEX
  5
495
330
15B
100
AcDbEntity
  8
0
  6
CONTINUOUS
 62
     7
100
AcDbVertex
100
AcDb2dVertex
 10
336.6244784688
 20
1681.1490999692
 30
0.0
  0
VERTEX
  5
496
330
15B
100
AcDbEntity
  8
0
  6
CONTINUOUS
 62
     7
100
AcDbVertex
100
AcDb2dVertex
 10
338.1739446767
 20
1679.2774351501
 30
0.0
  0
VERTEX
  5
497
330
15B
100
AcDbEntity
  8
0
  6
CONTINUOUS
 62
     7
100
AcDbVertex
100
AcDb2dVertex
 10
339.8295895934
 20
1677.381804932
 30
0.0
  0
VERTEX
  5
498
330
15B
100
AcDbEntity
  8
0
  6
CONTINUOUS
 62
     7
100
AcDbVertex
100
AcDb2dVertex
 10
341.5755712334
 20
1675.4758078655
 30
0.0
  0
VERTEX
  5
499
330
15B
100
AcDbEntity
  8
0
  6
CONTINUOUS
 62
     7
100
AcDbVertex
100
AcDb2dVertex
 10
343.392369929
 20
1673.5784096197
 30
0.0
  0
VERTEX
  5
49A
330
15B
100
AcDbEntity
  8
0
  6
CONTINUOUS
 62
     7
100
AcDbVertex
100
AcDb2dVertex
 10
344.3518852125
 20
1672.6083180995
 30
0.0
  0
SEQEND
  5
672
330
15B
100
AcDbEntity
  8
0
  6
CONTINUOUS
 62
     7
  0
LINE
  5
15C
330
1F
100
AcDbEntity
  8
0
  6
CONTINUOUS
 62
     7
100
AcDbLine
 10
750.1640746114
 20
1671.233254024
 30
0.0
 11
751.5391386869
 21
1672.6083180995
 31
0.0
  0
POLYLINE
  5
15D
330
1F
100
AcDbEntity
  8
0
  6
CONTINUOUS
 62
     7
100
AcDb2dPolyline
 66
     1
 10
0.0
 20
0.0
 30
0.0
 70
   128
  0
VERTEX
  5
49B
330
15D
100
AcDbEntity
  8
0
  6
CONTINUOUS
 62
     7
100
AcDbVertex
100
AcDb2dVertex
 10
753.3814377922
 20
1693.7684862417
 30
0.0
  0
VERTEX
  5
49C
330
15D
100
AcDbEntity
  8
0
  6
CONTINUOUS
 62
     7
100
AcDbVertex
100
AcDb2dVertex
 10
753.383737895
 20
1693.7763485068
 30
0.0
  0
VERTEX
  5
49D
330
15D
100
AcDbEntity
  8
0
  6
CONTINUOUS
 62
     7
100
AcDbVertex
100
AcDb2dVertex
 10
753.3288296619
 20
1693.645961247
 30
0.0
  0
VERTEX
  5
49E
330
15D
100
AcDbEntity
  8
0
  6
CONTINUOUS
 62
     7
100
AcDbVertex
100
AcDb2dVertex
 10
753.1469503317
 20
1693.2802310274
 30
0.0
  0
VERTEX
  5
49F
330
15D
100
AcDbEntity
  8
0
  6
CONTINUOUS
 62
     7
100
AcDbVertex
100
AcDb2dVertex
 10
752.7967729549
 20
1692.6673948957
 30
0.0
  0
VERTEX
  5
4A0
330
15D
100
AcDbEntity
  8
0
  6
CONTINUOUS
 62
     7
100
AcDbVertex
100
AcDb2dVertex
 10
752.2481028417
 20
1691.8081252839
 30
0.0
  0
VERTEX
  5
4A1
330
15D
100
AcDbEntity
  8
0
  6
CONTINUOUS
 62
     7
100
AcDbVertex
100
AcDb2dVertex
 10
751.4879438088
 20
1690.7201574856
 30
0.0
  0
VERTEX
  5
4A2
330
15D
100
AcDbEntity
  8
0
  6
CONTINUOUS
 62
     7
100
AcDbVertex
100
AcDb2dVertex
 10
750.5202735058
 20
1689.4345398557
 30
0.0
  0
VERTEX
  5
4A3
330
15D
100
AcDbEntity
  8
0
  6
CONTINUOUS
 62
     7
100
AcDbVertex
100
AcDb2dVertex
 10
749.3614377399
 20
1687.9889773701
 30
0.0
  0
VERTEX
  5
4A4
330
15D
100
AcDbEntity
  8
0
  6
CONTINUOUS
 62
     7
100
AcDbVertex
100
AcDb2dVertex
 10
749.1169371417
 20
1687.7002563582
 30
0.0
  0
SEQEND
  5
673
330
15D
100
AcDbEntity
  8
0
  6
CONTINUOUS
 62
     7
  0
POLYLINE
  5
15E
330
1F
100
AcDbEntity
  8
0
  6
CONTINUOUS
 62
     7
100
AcDb2dPolyline
 66
     1
 10
0.0
 20
0.0
 30
0.0
 70
   128
  0
VERTEX
  5
4A5
330
15E
100
AcDbEntity
  8
0
  6
CONTINUOUS
 62
     7
100
AcDbVertex
100
AcDb2dVertex
 10
751.5391386869
 20
1672.6083180995
 30
0.0
  0
VERTEX
  5
4A6
330
15E
100
AcDbEntity
  8
0
  6
CONTINUOUS
 62
     7
100
AcDbVertex
100
AcDb2dVertex
 10
752.5136583595
 20
1673.5937496098
 30
0.0
  0
VERTEX
  5
4A7
330
15E
100
AcDbEntity
  8
0
  6
CONTINUOUS
 62
     7
100
AcDbVertex
100
AcDb2dVertex
 10
754.3250577011
 20
1675.4860613625
 30
0.0
  0
VERTEX
  5
4A8
330
15E
100
AcDbEntity
  8
0
  6
CONTINUOUS
 62
     7
100
AcDbVertex
100
AcDb2dVertex
 10
756.0607280983
 20
1677.3810159059
 30
0.0
  0
VERTEX
  5
4A9
330
15E
100
AcDbEntity
  8
0
  6
CONTINUOUS
 62
     7
100
AcDbVertex
100
AcDb2dVertex
 10
757.6990866921
 20
1679.2563043807
 30
0.0
  0
VERTEX
  5
4AA
330
15E
100
AcDbEntity
  8
0
  6
CONTINUOUS
 62
     7
100
AcDbVertex
100
AcDb2dVertex
 10
759.2215049978
 20
1681.0930975324
 30
0.0
  0
VERTEX
  5
4AB
330
15E
100
AcDbEntity
  8
0
  6
CONTINUOUS
 62
     7
100
AcDbVertex
100
AcDb2dVertex
 10
760.6124948307
 20
1682.8774879913
 30
0.0
  0
VERTEX
  5
4AC
330
15E
100
AcDbEntity
  8
0
  6
CONTINUOUS
 62
     7
100
AcDbVertex
100
AcDb2dVertex
 10
761.8611012858
 20
1684.604874747
 30
0.0
  0
VERTEX
  5
4AD
330
15E
100
AcDbEntity
  8
0
  6
CONTINUOUS
 62
     7
100
AcDbVertex
100
AcDb2dVertex
 10
762.9630527275
 20
1686.2900381209
 30
0.0
  0
VERTEX
  5
4AE
330
15E
100
AcDbEntity
  8
0
  6
CONTINUOUS
 62
     7
100
AcDbVertex
100
AcDb2dVertex
 10
763.92404274
 20
1687.9961927159
 30
0.0
  0
VERTEX
  5
4AF
330
15E
100
AcDbEntity
  8
0
  6
CONTINUOUS
 62
     7
100
AcDbVertex
100
AcDb2dVertex
 10
764.7553252999
 20
1689.9440092533
 30
0.0
  0
VERTEX
  5
4B0
330
15E
100
AcDbEntity
  8
0
  6
CONTINUOUS
 62
     7
100
AcDbVertex
100
AcDb2dVertex
 10
764.9681732065
 20
1690.6554180991
 30
0.0
  0
SEQEND
  5
674
330
15E
100
AcDbEntity
  8
0
  6
CONTINUOUS
 62
     7
  0
POLYLINE
  5
15F
330
1F
100
AcDbEntity
  8
0
  6
CONTINUOUS
 62
     7
100
AcDb2dPolyline
 66
     1
 10
0.0
 20
0.0
 30
0.0
 70
   128
  0
VERTEX
  5
4B1
330
15F
100
AcDbEntity
  8
0
  6
CONTINUOUS
 62
     7
100
AcDbVertex
100
AcDb2dVertex
 10
740.8488686124
 20
1394.8237685272
 30
0.0
  0
VERTEX
  5
4B2
330
15F
100
AcDbEntity
  8
0
  6
CONTINUOUS
 62
     7
100
AcDbVertex
100
AcDb2dVertex
 10
742.9149735793
 20
1394.717514162
 30
0.0
  0
VERTEX
  5
4B3
330
15F
100
AcDbEntity
  8
0
  6
CONTINUOUS
 62
     7
100
AcDbVertex
100
AcDb2dVertex
 10
745.0694282586
 20
1394.5474419404
 30
0.0
  0
VERTEX
  5
4B4
330
15F
100
AcDbEntity
  8
0
  6
CONTINUOUS
 62
     7
100
AcDbVertex
100
AcDb2dVertex
 10
747.057768841
 20
1394.3302936311
 30
0.0
  0
VERTEX
  5
4B5
330
15F
100
AcDbEntity
  8
0
  6
CONTINUOUS
 62
     7
100
AcDbVertex
100
AcDb2dVertex
 10
748.8326812657
 20
1394.0752873341
 30
0.0
  0
VERTEX
  5
4B6
330
15F
100
AcDbEntity
  8
0
  6
CONTINUOUS
 62
     7
100
AcDbVertex
100
AcDb2dVertex
 10
750.3470158291
 20
1393.7961254276
 30
0.0
  0
VERTEX
  5
4B7
330
15F
100
AcDbEntity
  8
0
  6
CONTINUOUS
 62
     7
100
AcDbVertex
100
AcDb2dVertex
 10
751.5542675389
 20
1393.5134058868
 30
0.0
  0
VERTEX
  5
4B8
330
15F
100
AcDbEntity
  8
0
  6
CONTINUOUS
 62
     7
100
AcDbVertex
100
AcDb2dVertex
 10
752.3289780821
 20
1393.2859248534
 30
0.0
  0
VERTEX
  5
4B9
330
15F
100
AcDbEntity
  8
0
  6
CONTINUOUS
 62
     7
100
AcDbVertex
100
AcDb2dVertex
 10
752.7983764462
 20
1393.1153388698
 30
0.0
  0
VERTEX
  5
4BA
330
15F
100
AcDbEntity
  8
0
  6
CONTINUOUS
 62
     7
100
AcDbVertex
100
AcDb2dVertex
 10
752.9838220527
 20
1393.0324964012
 30
0.0
  0
VERTEX
  5
4BB
330
15F
100
AcDbEntity
  8
0
  6
CONTINUOUS
 62
     7
100
AcDbVertex
100
AcDb2dVertex
 10
752.9693757915
 20
1393.0414646341
 30
0.0
  0
SEQEND
  5
675
330
15F
100
AcDbEntity
  8
0
  6
CONTINUOUS
 62
     7
  0
POLYLINE
  5
160
330
1F
100
AcDbEntity
  8
0
  6
CONTINUOUS
 62
     7
100
AcDb2dPolyline
 66
     1
 10
0.0
 20
0.0
 30
0.0
 70
   128
  0
VERTEX
  5
4BC
330
160
100
AcDbEntity
  8
0
  6
CONTINUOUS
 62
     7
100
AcDbVertex
100
AcDb2dVertex
 10
762.7887672984
 20
1398.8483184223
 30
0.0
  0
VERTEX
  5
4BD
330
160
100
AcDbEntity
  8
0
  6
CONTINUOUS
 62
     7
100
AcDbVertex
100
AcDb2dVertex
 10
762.263870978
 20
1400.1489677993
 30
0.0
  0
VERTEX
  5
4BE
330
160
100
AcDbEntity
  8
0
  6
CONTINUOUS
 62
     7
100
AcDbVertex
100
AcDb2dVertex
 10
761.5861319966
 20
1401.2047574441
 30
0.0
  0
VERTEX
  5
4BF
330
160
100
AcDbEntity
  8
0
  6
CONTINUOUS
 62
     7
100
AcDbVertex
100
AcDb2dVertex
 10
760.7760269121
 20
1402.1019673836
 30
0.0
  0
VERTEX
  5
4C0
330
160
100
AcDbEntity
  8
0
  6
CONTINUOUS
 62
     7
100
AcDbVertex
100
AcDb2dVertex
 10
759.850621271
 20
1402.8664851632
 30
0.0
  0
VERTEX
  5
4C1
330
160
100
AcDbEntity
  8
0
  6
CONTINUOUS
 62
     7
100
AcDbVertex
100
AcDb2dVertex
 10
758.7747487111
 20
1403.5429186183
 30
0.0
  0
VERTEX
  5
4C2
330
160
100
AcDbEntity
  8
0
  6
CONTINUOUS
 62
     7
100
AcDbVertex
100
AcDb2dVertex
 10
757.4303394598
 20
1404.1854378866
 30
0.0
  0
VERTEX
  5
4C3
330
160
100
AcDbEntity
  8
0
  6
CONTINUOUS
 62
     7
100
AcDbVertex
100
AcDb2dVertex
 10
755.5860981649
 20
1404.8409454966
 30
0.0
  0
VERTEX
  5
4C4
330
160
100
AcDbEntity
  8
0
  6
CONTINUOUS
 62
     7
100
AcDbVertex
100
AcDb2dVertex
 10
753.6135878834
 20
1405.3641092513
 30
0.0
  0
VERTEX
  5
4C5
330
160
100
AcDbEntity
  8
0
  6
CONTINUOUS
 62
     7
100
AcDbVertex
100
AcDb2dVertex
 10
751.3328602123
 20
1405.822806415
 30
0.0
  0
VERTEX
  5
4C6
330
160
100
AcDbEntity
  8
0
  6
CONTINUOUS
 62
     7
100
AcDbVertex
100
AcDb2dVertex
 10
748.9838772709
 20
1406.1811307059
 30
0.0
  0
VERTEX
  5
4C7
330
160
100
AcDbEntity
  8
0
  6
CONTINUOUS
 62
     7
100
AcDbVertex
100
AcDb2dVertex
 10
746.6379679189
 20
1406.4502611521
 30
0.0
  0
SEQEND
  5
676
330
160
100
AcDbEntity
  8
0
  6
CONTINUOUS
 62
     7
  0
POLYLINE
  5
161
330
1F
100
AcDbEntity
  8
0
  6
CONTINUOUS
 62
     7
100
AcDb2dPolyline
 66
     1
 10
0.0
 20
0.0
 30
0.0
 70
   128
  0
VERTEX
  5
4C8
330
161
100
AcDbEntity
  8
0
  6
CONTINUOUS
 62
     7
100
AcDbVertex
100
AcDb2dVertex
 10
342.9077481801
 20
1393.0324727553
 30
0.0
  0
VERTEX
  5
4C9
330
161
100
AcDbEntity
  8
0
  6
CONTINUOUS
 62
     7
100
AcDbVertex
100
AcDb2dVertex
 10
342.9984899523
 20
1393.075347072
 30
0.0
  0
VERTEX
  5
4CA
330
161
100
AcDbEntity
  8
0
  6
CONTINUOUS
 62
     7
100
AcDbVertex
100
AcDb2dVertex
 10
343.3459361901
 20
1393.2118768922
 30
0.0
  0
VERTEX
  5
4CB
330
161
100
AcDbEntity
  8
0
  6
CONTINUOUS
 62
     7
100
AcDbVertex
100
AcDb2dVertex
 10
343.9800597807
 20
1393.4146794023
 30
0.0
  0
VERTEX
  5
4CC
330
161
100
AcDbEntity
  8
0
  6
CONTINUOUS
 62
     7
100
AcDbVertex
100
AcDb2dVertex
 10
344.923591676
 20
1393.659283413
 30
0.0
  0
VERTEX
  5
4CD
330
161
100
AcDbEntity
  8
0
  6
CONTINUOUS
 62
     7
100
AcDbVertex
100
AcDb2dVertex
 10
346.1771965468
 20
1393.9211835134
 30
0.0
  0
VERTEX
  5
4CE
330
161
100
AcDbEntity
  8
0
  6
CONTINUOUS
 62
     7
100
AcDbVertex
100
AcDb2dVertex
 10
347.7201075914
 20
1394.1781864258
 30
0.0
  0
VERTEX
  5
4CF
330
161
100
AcDbEntity
  8
0
  6
CONTINUOUS
 62
     7
100
AcDbVertex
100
AcDb2dVertex
 10
349.516611519
 20
1394.4122118405
 30
0.0
  0
VERTEX
  5
4D0
330
161
100
AcDbEntity
  8
0
  6
CONTINUOUS
 62
     7
100
AcDbVertex
100
AcDb2dVertex
 10
351.5229176066
 20
1394.6096598044
 30
0.0
  0
VERTEX
  5
4D1
330
161
100
AcDbEntity
  8
0
  6
CONTINUOUS
 62
     7
100
AcDbVertex
100
AcDb2dVertex
 10
353.6916781041
 20
1394.7608644177
 30
0.0
  0
VERTEX
  5
4D2
330
161
100
AcDbEntity
  8
0
  6
CONTINUOUS
 62
     7
100
AcDbVertex
100
AcDb2dVertex
 10
355.0434107337
 20
1394.8191762259
 30
0.0
  0
SEQEND
  5
677
330
161
100
AcDbEntity
  8
0
  6
CONTINUOUS
 62
     7
  0
POLYLINE
  5
162
330
1F
100
AcDbEntity
  8
0
  6
CONTINUOUS
 62
     7
100
AcDb2dPolyline
 66
     1
 10
0.0
 20
0.0
 30
0.0
 70
   128
  0
VERTEX
  5
4D3
330
162
100
AcDbEntity
  8
0
  6
CONTINUOUS
 62
     7
100
AcDbVertex
100
AcDb2dVertex
 10
349.2591463855
 20
1406.4466381922
 30
0.0
  0
VERTEX
  5
4D4
330
162
100
AcDbEntity
  8
0
  6
CONTINUOUS
 62
     7
100
AcDbVertex
100
AcDb2dVertex
 10
347.2930067975
 20
1406.2310937875
 30
0.0
  0
VERTEX
  5
4D5
330
162
100
AcDbEntity
  8
0
  6
CONTINUOUS
 62
     7
100
AcDbVertex
100
AcDb2dVertex
 10
345.0141526393
 20
1405.9003030741
 30
0.0
  0
VERTEX
  5
4D6
330
162
100
AcDbEntity
  8
0
  6
CONTINUOUS
 62
     7
100
AcDbVertex
100
AcDb2dVertex
 10
342.8685892738
 20
1405.495712083
 30
0.0
  0
VERTEX
  5
4D7
330
162
100
AcDbEntity
  8
0
  6
CONTINUOUS
 62
     7
100
AcDbVertex
100
AcDb2dVertex
 10
340.845917224
 20
1404.9992388927
 30
0.0
  0
VERTEX
  5
4D8
330
162
100
AcDbEntity
  8
0
  6
CONTINUOUS
 62
     7
100
AcDbVertex
100
AcDb2dVertex
 10
338.8952951601
 20
1404.3591746705
 30
0.0
  0
VERTEX
  5
4D9
330
162
100
AcDbEntity
  8
0
  6
CONTINUOUS
 62
     7
100
AcDbVertex
100
AcDb2dVertex
 10
337.1995674554
 20
1403.5883180967
 30
0.0
  0
VERTEX
  5
4DA
330
162
100
AcDbEntity
  8
0
  6
CONTINUOUS
 62
     7
100
AcDbVertex
100
AcDb2dVertex
 10
336.0454473829
 20
1402.8701137182
 30
0.0
  0
VERTEX
  5
4DB
330
162
100
AcDbEntity
  8
0
  6
CONTINUOUS
 62
     7
100
AcDbVertex
100
AcDb2dVertex
 10
335.0545017278
 20
1402.0438383411
 30
0.0
  0
VERTEX
  5
4DC
330
162
100
AcDbEntity
  8
0
  6
CONTINUOUS
 62
     7
100
AcDbVertex
100
AcDb2dVertex
 10
334.2033588185
 20
1401.0697383674
 30
0.0
  0
VERTEX
  5
4DD
330
162
100
AcDbEntity
  8
0
  6
CONTINUOUS
 62
     7
100
AcDbVertex
100
AcDb2dVertex
 10
333.5189739803
 20
1399.934280038
 30
0.0
  0
VERTEX
  5
4DE
330
162
100
AcDbEntity
  8
0
  6
CONTINUOUS
 62
     7
100
AcDbVertex
100
AcDb2dVertex
 10
333.102256601
 20
1398.8483184223
 30
0.0
  0
SEQEND
  5
678
330
162
100
AcDbEntity
  8
0
  6
CONTINUOUS
 62
     7
  0
LINE
  5
163
330
1F
100
AcDbEntity
  8
0
  6
CONTINUOUS
 62
     7
100
AcDbLine
 10
764.9681732065
 20
1690.6554180991
 30
0.0
 11
796.5278242159
 21
1811.7630548812
 31
0.0
  0
LINE
  5
164
330
1F
100
AcDbEntity
  8
0
  6
CONTINUOUS
 62
     7
100
AcDbLine
 10
784.9156293858
 20
1814.7890970535
 30
0.0
 11
753.3559783764
 21
1693.6814602714
 31
0.0
  0
LINE
  5
165
330
1F
100
AcDbEntity
  8
0
  6
CONTINUOUS
 62
     7
100
AcDbLine
 10
342.535045523
 20
1693.6814602714
 30
0.0
 11
310.9753945136
 21
1814.7890970535
 31
0.0
  0
LINE
  5
166
330
1F
100
AcDbEntity
  8
0
  6
CONTINUOUS
 62
     7
100
AcDbLine
 10
299.3631996835
 20
1811.7630548812
 30
0.0
 11
330.9228506929
 21
1690.6554180991
 31
0.0
  0
LINE
  5
167
330
1F
100
AcDbEntity
  8
0
  6
CONTINUOUS
 62
     7
100
AcDbLine
 10
339.1791589482
 20
1376.7248957875
 30
0.0
 11
344.0240314185
 21
1393.4260787403
 31
0.0
  0
LINE
  5
168
330
1F
100
AcDbEntity
  8
0
  6
CONTINUOUS
 62
     7
100
AcDbLine
 10
323.0751741333
 20
1321.211443512
 30
0.0
 11
337.5737491134
 21
1371.1907473597
 31
0.0
  0
LINE
  5
169
330
1F
100
AcDbEntity
  8
0
  6
CONTINUOUS
 62
     7
100
AcDbLine
 10
333.102256601
 20
1398.8483184223
 30
0.0
 11
311.5503068296
 21
1324.554710422
 31
0.0
  0
LINE
  5
16A
330
1F
100
AcDbEntity
  8
0
  6
CONTINUOUS
 62
     7
100
AcDbLine
 10
784.3407170698
 20
1324.554710422
 30
0.0
 11
762.7887672984
 21
1398.8483184223
 31
0.0
  0
LINE
  5
16B
330
1F
100
AcDbEntity
  8
0
  6
CONTINUOUS
 62
     7
100
AcDbLine
 10
758.317274786
 20
1371.1907473597
 30
0.0
 11
772.815849766
 21
1321.211443512
 31
0.0
  0
LINE
  5
16C
330
1F
100
AcDbEntity
  8
0
  6
CONTINUOUS
 62
     7
100
AcDbLine
 10
751.8684192519
 20
1393.4211603934
 30
0.0
 11
756.7118649512
 21
1376.7248957875
 31
0.0
  0
LINE
  5
16D
330
1F
100
AcDbEntity
  8
0
  6
CONTINUOUS
 62
     7
100
AcDbLine
 10
334.1865113834
 20
1371.1907473597
 30
0.0
 11
374.5873088364
 21
1371.1907473597
 31
0.0
  0
LINE
  5
16E
330
1F
100
AcDbEntity
  8
0
  6
CONTINUOUS
 62
     7
100
AcDbLine
 10
721.2990944273
 20
1371.1907473597
 30
0.0
 11
761.704512516
 21
1371.1907473597
 31
0.0
  0
LINE
  5
16F
330
1F
100
AcDbEntity
  8
0
  6
CONTINUOUS
 62
     7
100
AcDbLine
 10
754.8361758837
 20
1383.1907473597
 30
0.0
 11
733.2997105263
 21
1383.1907473597
 31
0.0
  0
LINE
  5
170
330
1F
100
AcDbEntity
  8
0
  6
CONTINUOUS
 62
     7
100
AcDbLine
 10
362.5855410585
 20
1383.1907473597
 30
0.0
 11
341.0548480157
 21
1383.1907473597
 31
0.0
  0
POLYLINE
  5
171
330
1F
100
AcDbEntity
  8
0
  6
CONTINUOUS
 62
     7
100
AcDb2dPolyline
 66
     1
 10
0.0
 20
0.0
 30
0.0
 70
   128
  0
VERTEX
  5
4DF
330
171
100
AcDbEntity
  8
0
  6
CONTINUOUS
 62
     7
100
AcDbVertex
100
AcDb2dVertex
 10
310.9753945136
 20
1814.7890970535
 30
0.0
  0
VERTEX
  5
4E0
330
171
100
AcDbEntity
  8
0
  6
CONTINUOUS
 62
     7
100
AcDbVertex
100
AcDb2dVertex
 10
310.746743428
 20
1815.5601249432
 30
0.0
  0
VERTEX
  5
4E1
330
171
100
AcDbEntity
  8
0
  6
CONTINUOUS
 62
     7
100
AcDbVertex
100
AcDb2dVertex
 10
310.4420720502
 20
1816.3435767414
 30
0.0
  0
VERTEX
  5
4E2
330
171
100
AcDbEntity
  8
0
  6
CONTINUOUS
 62
     7
100
AcDbVertex
100
AcDb2dVertex
 10
310.0249293816
 20
1817.1461219129
 30
0.0
  0
VERTEX
  5
4E3
330
171
100
AcDbEntity
  8
0
  6
CONTINUOUS
 62
     7
100
AcDbVertex
100
AcDb2dVertex
 10
309.4353403456
 20
1817.9794488835
 30
0.0
  0
VERTEX
  5
4E4
330
171
100
AcDbEntity
  8
0
  6
CONTINUOUS
 62
     7
100
AcDbVertex
100
AcDb2dVertex
 10
308.6399120887
 20
1818.7843442978
 30
0.0
  0
VERTEX
  5
4E5
330
171
100
AcDbEntity
  8
0
  6
CONTINUOUS
 62
     7
100
AcDbVertex
100
AcDb2dVertex
 10
307.6318914296
 20
1819.4818806845
 30
0.0
  0
VERTEX
  5
4E6
330
171
100
AcDbEntity
  8
0
  6
CONTINUOUS
 62
     7
100
AcDbVertex
100
AcDb2dVertex
 10
306.4509857472
 20
1819.9862800893
 30
0.0
  0
VERTEX
  5
4E7
330
171
100
AcDbEntity
  8
0
  6
CONTINUOUS
 62
     7
100
AcDbVertex
100
AcDb2dVertex
 10
305.1619870701
 20
1820.2383926622
 30
0.0
  0
VERTEX
  5
4E8
330
171
100
AcDbEntity
  8
0
  6
CONTINUOUS
 62
     7
100
AcDbVertex
100
AcDb2dVertex
 10
303.7295546838
 20
1820.1950709531
 30
0.0
  0
VERTEX
  5
4E9
330
171
100
AcDbEntity
  8
0
  6
CONTINUOUS
 62
     7
100
AcDbVertex
100
AcDb2dVertex
 10
302.4646049588
 20
1819.8681821551
 30
0.0
  0
VERTEX
  5
4EA
330
171
100
AcDbEntity
  8
0
  6
CONTINUOUS
 62
     7
100
AcDbVertex
100
AcDb2dVertex
 10
301.3883278076
 20
1819.3411062457
 30
0.0
  0
VERTEX
  5
4EB
330
171
100
AcDbEntity
  8
0
  6
CONTINUOUS
 62
     7
100
AcDbVertex
100
AcDb2dVertex
 10
300.502815395
 20
1818.6825389115
 30
0.0
  0
VERTEX
  5
4EC
330
171
100
AcDbEntity
  8
0
  6
CONTINUOUS
 62
     7
100
AcDbVertex
100
AcDb2dVertex
 10
299.8051624353
 20
1817.9573291772
 30
0.0
  0
VERTEX
  5
4ED
330
171
100
AcDbEntity
  8
0
  6
CONTINUOUS
 62
     7
100
AcDbVertex
100
AcDb2dVertex
 10
299.2758368752
 20
1817.218312182
 30
0.0
  0
VERTEX
  5
4EE
330
171
100
AcDbEntity
  8
0
  6
CONTINUOUS
 62
     7
100
AcDbVertex
100
AcDb2dVertex
 10
298.8775583284
 20
1816.4875510964
 30
0.0
  0
VERTEX
  5
4EF
330
171
100
AcDbEntity
  8
0
  6
CONTINUOUS
 62
     7
100
AcDbVertex
100
AcDb2dVertex
 10
298.5636859201
 20
1815.7384863908
 30
0.0
  0
VERTEX
  5
4F0
330
171
100
AcDbEntity
  8
0
  6
CONTINUOUS
 62
     7
100
AcDbVertex
100
AcDb2dVertex
 10
298.2842904725
 20
1814.8669037873
 30
0.0
  0
VERTEX
  5
4F1
330
171
100
AcDbEntity
  8
0
  6
CONTINUOUS
 62
     7
100
AcDbVertex
100
AcDb2dVertex
 10
297.9814255989
 20
1813.589501964
 30
0.0
  0
VERTEX
  5
4F2
330
171
100
AcDbEntity
  8
0
  6
CONTINUOUS
 62
     7
100
AcDbVertex
100
AcDb2dVertex
 10
297.7036771902
 20
1811.9872377854
 30
0.0
  0
VERTEX
  5
4F3
330
171
100
AcDbEntity
  8
0
  6
CONTINUOUS
 62
     7
100
AcDbVertex
100
AcDb2dVertex
 10
297.4795153863
 20
1810.2919475344
 30
0.0
  0
VERTEX
  5
4F4
330
171
100
AcDbEntity
  8
0
  6
CONTINUOUS
 62
     7
100
AcDbVertex
100
AcDb2dVertex
 10
297.2701919131
 20
1808.2765257907
 30
0.0
  0
VERTEX
  5
4F5
330
171
100
AcDbEntity
  8
0
  6
CONTINUOUS
 62
     7
100
AcDbVertex
100
AcDb2dVertex
 10
297.0938027303
 20
1806.1296647699
 30
0.0
  0
VERTEX
  5
4F6
330
171
100
AcDbEntity
  8
0
  6
CONTINUOUS
 62
     7
100
AcDbVertex
100
AcDb2dVertex
 10
296.9453304825
 20
1803.8479852966
 30
0.0
  0
VERTEX
  5
4F7
330
171
100
AcDbEntity
  8
0
  6
CONTINUOUS
 62
     7
100
AcDbVertex
100
AcDb2dVertex
 10
296.8237647816
 20
1801.4479870826
 30
0.0
  0
VERTEX
  5
4F8
330
171
100
AcDbEntity
  8
0
  6
CONTINUOUS
 62
     7
100
AcDbVertex
100
AcDb2dVertex
 10
296.7293997456
 20
1798.955999575
 30
0.0
  0
VERTEX
  5
4F9
330
171
100
AcDbEntity
  8
0
  6
CONTINUOUS
 62
     7
100
AcDbVertex
100
AcDb2dVertex
 10
296.6628690293
 20
1796.4033285781
 30
0.0
  0
VERTEX
  5
4FA
330
171
100
AcDbEntity
  8
0
  6
CONTINUOUS
 62
     7
100
AcDbVertex
100
AcDb2dVertex
 10
296.6302289103
 20
1794.3518022663
 30
0.0
  0
SEQEND
  5
679
330
171
100
AcDbEntity
  8
0
  6
CONTINUOUS
 62
     7
  0
LINE
  5
172
330
1F
100
AcDbEntity
  8
0
  6
CONTINUOUS
 62
     7
100
AcDbLine
 10
299.3655947606
 20
1811.7561715828
 30
0.0
 11
299.3631996835
 21
1811.7630548812
 31
0.0
  0
POLYLINE
  5
173
330
1F
100
AcDbEntity
  8
0
  6
CONTINUOUS
 62
     7
100
AcDb2dPolyline
 66
     1
 10
0.0
 20
0.0
 30
0.0
 70
   128
  0
VERTEX
  5
4FB
330
173
100
AcDbEntity
  8
0
  6
CONTINUOUS
 62
     7
100
AcDbVertex
100
AcDb2dVertex
 10
799.2607949891
 20
1794.3518022663
 30
0.0
  0
VERTEX
  5
4FC
330
173
100
AcDbEntity
  8
0
  6
CONTINUOUS
 62
     7
100
AcDbVertex
100
AcDb2dVertex
 10
799.2413023629
 20
1795.7058521666
 30
0.0
  0
VERTEX
  5
4FD
330
173
100
AcDbEntity
  8
0
  6
CONTINUOUS
 62
     7
100
AcDbVertex
100
AcDb2dVertex
 10
799.1825526758
 20
1798.2645934503
 30
0.0
  0
VERTEX
  5
4FE
330
173
100
AcDbEntity
  8
0
  6
CONTINUOUS
 62
     7
100
AcDbVertex
100
AcDb2dVertex
 10
799.0960518867
 20
1800.767993785
 30
0.0
  0
VERTEX
  5
4FF
330
173
100
AcDbEntity
  8
0
  6
CONTINUOUS
 62
     7
100
AcDbVertex
100
AcDb2dVertex
 10
798.9827515244
 20
1803.1811763345
 30
0.0
  0
VERTEX
  5
500
330
173
100
AcDbEntity
  8
0
  6
CONTINUOUS
 62
     7
100
AcDbVertex
100
AcDb2dVertex
 10
798.8436364094
 20
1805.4730377086
 30
0.0
  0
VERTEX
  5
501
330
173
100
AcDbEntity
  8
0
  6
CONTINUOUS
 62
     7
100
AcDbVertex
100
AcDb2dVertex
 10
798.6794535232
 20
1807.6166399554
 30
0.0
  0
VERTEX
  5
502
330
173
100
AcDbEntity
  8
0
  6
CONTINUOUS
 62
     7
100
AcDbVertex
100
AcDb2dVertex
 10
798.4900509226
 20
1809.5917814917
 30
0.0
  0
VERTEX
  5
503
330
173
100
AcDbEntity
  8
0
  6
CONTINUOUS
 62
     7
100
AcDbVertex
100
AcDb2dVertex
 10
798.2726659919
 20
1811.39021686
 30
0.0
  0
VERTEX
  5
504
330
173
100
AcDbEntity
  8
0
  6
CONTINUOUS
 62
     7
100
AcDbVertex
100
AcDb2dVertex
 10
798.0164129739
 20
1813.0296237057
 30
0.0
  0
VERTEX
  5
505
330
173
100
AcDbEntity
  8
0
  6
CONTINUOUS
 62
     7
100
AcDbVertex
100
AcDb2dVertex
 10
797.6765373604
 20
1814.6079868317
 30
0.0
  0
VERTEX
  5
506
330
173
100
AcDbEntity
  8
0
  6
CONTINUOUS
 62
     7
100
AcDbVertex
100
AcDb2dVertex
 10
797.386370412
 20
1815.5734206733
 30
0.0
  0
VERTEX
  5
507
330
173
100
AcDbEntity
  8
0
  6
CONTINUOUS
 62
     7
100
AcDbVertex
100
AcDb2dVertex
 10
797.0386936184
 20
1816.4340849508
 30
0.0
  0
VERTEX
  5
508
330
173
100
AcDbEntity
  8
0
  6
CONTINUOUS
 62
     7
100
AcDbVertex
100
AcDb2dVertex
 10
796.613050927
 20
1817.2217498372
 30
0.0
  0
VERTEX
  5
509
330
173
100
AcDbEntity
  8
0
  6
CONTINUOUS
 62
     7
100
AcDbVertex
100
AcDb2dVertex
 10
796.0161057996
 20
1818.0406321282
 30
0.0
  0
VERTEX
  5
50A
330
173
100
AcDbEntity
  8
0
  6
CONTINUOUS
 62
     7
100
AcDbVertex
100
AcDb2dVertex
 10
795.2150636585
 20
1818.8309965292
 30
0.0
  0
VERTEX
  5
50B
330
173
100
AcDbEntity
  8
0
  6
CONTINUOUS
 62
     7
100
AcDbVertex
100
AcDb2dVertex
 10
794.2028855581
 20
1819.5143512213
 30
0.0
  0
VERTEX
  5
50C
330
173
100
AcDbEntity
  8
0
  6
CONTINUOUS
 62
     7
100
AcDbVertex
100
AcDb2dVertex
 10
793.0188483307
 20
1820.0050726208
 30
0.0
  0
VERTEX
  5
50D
330
173
100
AcDbEntity
  8
0
  6
CONTINUOUS
 62
     7
100
AcDbVertex
100
AcDb2dVertex
 10
791.7284223568
 20
1820.2435402213
 30
0.0
  0
VERTEX
  5
50E
330
173
100
AcDbEntity
  8
0
  6
CONTINUOUS
 62
     7
100
AcDbVertex
100
AcDb2dVertex
 10
790.2893137859
 20
1820.1843175898
 30
0.0
  0
VERTEX
  5
50F
330
173
100
AcDbEntity
  8
0
  6
CONTINUOUS
 62
     7
100
AcDbVertex
100
AcDb2dVertex
 10
789.0223369794
 20
1819.8405972024
 30
0.0
  0
VERTEX
  5
510
330
173
100
AcDbEntity
  8
0
  6
CONTINUOUS
 62
     7
100
AcDbVertex
100
AcDb2dVertex
 10
787.9485174168
 20
1819.2972774677
 30
0.0
  0
VERTEX
  5
511
330
173
100
AcDbEntity
  8
0
  6
CONTINUOUS
 62
     7
100
AcDbVertex
100
AcDb2dVertex
 10
787.0684230453
 20
1818.6234711299
 30
0.0
  0
VERTEX
  5
512
330
173
100
AcDbEntity
  8
0
  6
CONTINUOUS
 62
     7
100
AcDbVertex
100
AcDb2dVertex
 10
786.378216541
 20
1817.8841797179
 30
0.0
  0
VERTEX
  5
513
330
173
100
AcDbEntity
  8
0
  6
CONTINUOUS
 62
     7
100
AcDbVertex
100
AcDb2dVertex
 10
785.8581931852
 20
1817.1329448119
 30
0.0
  0
VERTEX
  5
514
330
173
100
AcDbEntity
  8
0
  6
CONTINUOUS
 62
     7
100
AcDbVertex
100
AcDb2dVertex
 10
785.4710916527
 20
1816.3927017901
 30
0.0
  0
VERTEX
  5
515
330
173
100
AcDbEntity
  8
0
  6
CONTINUOUS
 62
     7
100
AcDbVertex
100
AcDb2dVertex
 10
785.1713353566
 20
1815.639278344
 30
0.0
  0
VERTEX
  5
516
330
173
100
AcDbEntity
  8
0
  6
CONTINUOUS
 62
     7
100
AcDbVertex
100
AcDb2dVertex
 10
784.9156293858
 20
1814.7890970535
 30
0.0
  0
SEQEND
  5
67A
330
173
100
AcDbEntity
  8
0
  6
CONTINUOUS
 62
     7
  0
LINE
  5
174
330
1F
100
AcDbEntity
  8
0
  6
CONTINUOUS
 62
     7
100
AcDbLine
 10
796.5278242159
 20
1811.7630548812
 30
0.0
 11
796.5233910454
 21
1811.7499678701
 31
0.0
  0
POLYLINE
  5
175
330
1F
100
AcDbEntity
  8
0
  6
CONTINUOUS
 62
     7
100
AcDb2dPolyline
 66
     1
 10
0.0
 20
0.0
 30
0.0
 70
   128
  0
VERTEX
  5
517
330
175
100
AcDbEntity
  8
0
  6
CONTINUOUS
 62
     7
100
AcDbVertex
100
AcDb2dVertex
 10
304.0038439599
 20
1339.7148575513
 30
0.0
  0
VERTEX
  5
518
330
175
100
AcDbEntity
  8
0
  6
CONTINUOUS
 62
     7
100
AcDbVertex
100
AcDb2dVertex
 10
304.358683447
 20
1338.4001588446
 30
0.0
  0
VERTEX
  5
519
330
175
100
AcDbEntity
  8
0
  6
CONTINUOUS
 62
     7
100
AcDbVertex
100
AcDb2dVertex
 10
305.0551857626
 20
1335.922299943
 30
0.0
  0
VERTEX
  5
51A
330
175
100
AcDbEntity
  8
0
  6
CONTINUOUS
 62
     7
100
AcDbVertex
100
AcDb2dVertex
 10
305.771288019
 20
1333.5057366798
 30
0.0
  0
VERTEX
  5
51B
330
175
100
AcDbEntity
  8
0
  6
CONTINUOUS
 62
     7
100
AcDbVertex
100
AcDb2dVertex
 10
306.4977045637
 20
1331.1830933125
 30
0.0
  0
VERTEX
  5
51C
330
175
100
AcDbEntity
  8
0
  6
CONTINUOUS
 62
     7
100
AcDbVertex
100
AcDb2dVertex
 10
307.2261653431
 20
1328.9831429949
 30
0.0
  0
VERTEX
  5
51D
330
175
100
AcDbEntity
  8
0
  6
CONTINUOUS
 62
     7
100
AcDbVertex
100
AcDb2dVertex
 10
307.9499470793
 20
1326.9303211944
 30
0.0
  0
VERTEX
  5
51E
330
175
100
AcDbEntity
  8
0
  6
CONTINUOUS
 62
     7
100
AcDbVertex
100
AcDb2dVertex
 10
308.6655427469
 20
1325.0420471399
 30
0.0
  0
VERTEX
  5
51F
330
175
100
AcDbEntity
  8
0
  6
CONTINUOUS
 62
     7
100
AcDbVertex
100
AcDb2dVertex
 10
309.3766464848
 20
1323.3232590483
 30
0.0
  0
VERTEX
  5
520
330
175
100
AcDbEntity
  8
0
  6
CONTINUOUS
 62
     7
100
AcDbVertex
100
AcDb2dVertex
 10
310.1063766557
 20
1321.7517908912
 30
0.0
  0
VERTEX
  5
521
330
175
100
AcDbEntity
  8
0
  6
CONTINUOUS
 62
     7
100
AcDbVertex
100
AcDb2dVertex
 10
310.9524137937
 20
1320.2220876096
 30
0.0
  0
VERTEX
  5
522
330
175
100
AcDbEntity
  8
0
  6
CONTINUOUS
 62
     7
100
AcDbVertex
100
AcDb2dVertex
 10
311.6049125276
 20
1319.2782287891
 30
0.0
  0
VERTEX
  5
523
330
175
100
AcDbEntity
  8
0
  6
CONTINUOUS
 62
     7
100
AcDbVertex
100
AcDb2dVertex
 10
312.2080803263
 20
1318.5769418083
 30
0.0
  0
VERTEX
  5
524
330
175
100
AcDbEntity
  8
0
  6
CONTINUOUS
 62
     7
100
AcDbVertex
100
AcDb2dVertex
 10
312.9492892776
 20
1317.9014398644
 30
0.0
  0
VERTEX
  5
525
330
175
100
AcDbEntity
  8
0
  6
CONTINUOUS
 62
     7
100
AcDbVertex
100
AcDb2dVertex
 10
313.866046911
 20
1317.2877818783
 30
0.0
  0
VERTEX
  5
526
330
175
100
AcDbEntity
  8
0
  6
CONTINUOUS
 62
     7
100
AcDbVertex
100
AcDb2dVertex
 10
314.9633213488
 20
1316.8032836869
 30
0.0
  0
VERTEX
  5
527
330
175
100
AcDbEntity
  8
0
  6
CONTINUOUS
 62
     7
100
AcDbVertex
100
AcDb2dVertex
 10
316.2014957224
 20
1316.5229334715
 30
0.0
  0
VERTEX
  5
528
330
175
100
AcDbEntity
  8
0
  6
CONTINUOUS
 62
     7
100
AcDbVertex
100
AcDb2dVertex
 10
317.5114007591
 20
1316.500178102
 30
0.0
  0
VERTEX
  5
529
330
175
100
AcDbEntity
  8
0
  6
CONTINUOUS
 62
     7
100
AcDbVertex
100
AcDb2dVertex
 10
318.8153034837
 20
1316.7567628445
 30
0.0
  0
VERTEX
  5
52A
330
175
100
AcDbEntity
  8
0
  6
CONTINUOUS
 62
     7
100
AcDbVertex
100
AcDb2dVertex
 10
320.0776350779
 20
1317.3080264642
 30
0.0
  0
VERTEX
  5
52B
330
175
100
AcDbEntity
  8
0
  6
CONTINUOUS
 62
     7
100
AcDbVertex
100
AcDb2dVertex
 10
321.1033965343
 20
1318.0450723833
 30
0.0
  0
VERTEX
  5
52C
330
175
100
AcDbEntity
  8
0
  6
CONTINUOUS
 62
     7
100
AcDbVertex
100
AcDb2dVertex
 10
321.902513965
 20
1318.8934936273
 30
0.0
  0
VERTEX
  5
52D
330
175
100
AcDbEntity
  8
0
  6
CONTINUOUS
 62
     7
100
AcDbVertex
100
AcDb2dVertex
 10
322.4930278198
 20
1319.7913051698
 30
0.0
  0
VERTEX
  5
52E
330
175
100
AcDbEntity
  8
0
  6
CONTINUOUS
 62
     7
100
AcDbVertex
100
AcDb2dVertex
 10
322.9023555127
 20
1320.6887949172
 30
0.0
  0
VERTEX
  5
52F
330
175
100
AcDbEntity
  8
0
  6
CONTINUOUS
 62
     7
100
AcDbVertex
100
AcDb2dVertex
 10
323.0751741333
 20
1321.211443512
 30
0.0
  0
SEQEND
  5
67B
330
175
100
AcDbEntity
  8
0
  6
CONTINUOUS
 62
     7
  0
POLYLINE
  5
176
330
1F
100
AcDbEntity
  8
0
  6
CONTINUOUS
 62
     7
100
AcDb2dPolyline
 66
     1
 10
0.0
 20
0.0
 30
0.0
 70
   128
  0
VERTEX
  5
530
330
176
100
AcDbEntity
  8
0
  6
CONTINUOUS
 62
     7
100
AcDbVertex
100
AcDb2dVertex
 10
316.2042077928
 20
1340.5975788167
 30
0.0
  0
VERTEX
  5
531
330
176
100
AcDbEntity
  8
0
  6
CONTINUOUS
 62
     7
100
AcDbVertex
100
AcDb2dVertex
 10
315.7255998549
 20
1342.3323162213
 30
0.0
  0
VERTEX
  5
532
330
176
100
AcDbEntity
  8
0
  6
CONTINUOUS
 62
     7
100
AcDbVertex
100
AcDb2dVertex
 10
315.6003247772
 20
1342.800571837
 30
0.0
  0
SEQEND
  5
67C
330
176
100
AcDbEntity
  8
0
  6
CONTINUOUS
 62
     7
  0
POLYLINE
  5
177
330
1F
100
AcDbEntity
  8
0
  6
CONTINUOUS
 62
     7
100
AcDb2dPolyline
 66
     1
 10
0.0
 20
0.0
 30
0.0
 70
   128
  0
VERTEX
  5
533
330
177
100
AcDbEntity
  8
0
  6
CONTINUOUS
 62
     7
100
AcDbVertex
100
AcDb2dVertex
 10
772.815849766
 20
1321.211443512
 30
0.0
  0
VERTEX
  5
534
330
177
100
AcDbEntity
  8
0
  6
CONTINUOUS
 62
     7
100
AcDbVertex
100
AcDb2dVertex
 10
773.1734933956
 20
1320.2409773506
 30
0.0
  0
VERTEX
  5
535
330
177
100
AcDbEntity
  8
0
  6
CONTINUOUS
 62
     7
100
AcDbVertex
100
AcDb2dVertex
 10
773.7278489323
 20
1319.2508838249
 30
0.0
  0
VERTEX
  5
536
330
177
100
AcDbEntity
  8
0
  6
CONTINUOUS
 62
     7
100
AcDbVertex
100
AcDb2dVertex
 10
774.5075486598
 20
1318.3080231505
 30
0.0
  0
VERTEX
  5
537
330
177
100
AcDbEntity
  8
0
  6
CONTINUOUS
 62
     7
100
AcDbVertex
100
AcDb2dVertex
 10
775.5042330268
 20
1317.498090999
 30
0.0
  0
VERTEX
  5
538
330
177
100
AcDbEntity
  8
0
  6
CONTINUOUS
 62
     7
100
AcDbVertex
100
AcDb2dVertex
 10
776.6763441858
 20
1316.895806757
 30
0.0
  0
VERTEX
  5
539
330
177
100
AcDbEntity
  8
0
  6
CONTINUOUS
 62
     7
100
AcDbVertex
100
AcDb2dVertex
 10
778.0887881847
 20
1316.5325946133
 30
0.0
  0
VERTEX
  5
53A
330
177
100
AcDbEntity
  8
0
  6
CONTINUOUS
 62
     7
100
AcDbVertex
100
AcDb2dVertex
 10
779.422827118
 20
1316.4959837207
 30
0.0
  0
VERTEX
  5
53B
330
177
100
AcDbEntity
  8
0
  6
CONTINUOUS
 62
     7
100
AcDbVertex
100
AcDb2dVertex
 10
780.6287431216
 20
1316.7113784109
 30
0.0
  0
VERTEX
  5
53C
330
177
100
AcDbEntity
  8
0
  6
CONTINUOUS
 62
     7
100
AcDbVertex
100
AcDb2dVertex
 10
781.6869389415
 20
1317.1122691863
 30
0.0
  0
VERTEX
  5
53D
330
177
100
AcDbEntity
  8
0
  6
CONTINUOUS
 62
     7
100
AcDbVertex
100
AcDb2dVertex
 10
782.5856130165
 20
1317.6371793119
 30
0.0
  0
VERTEX
  5
53E
330
177
100
AcDbEntity
  8
0
  6
CONTINUOUS
 62
     7
100
AcDbVertex
100
AcDb2dVertex
 10
783.3321055537
 20
1318.2342757189
 30
0.0
  0
VERTEX
  5
53F
330
177
100
AcDbEntity
  8
0
  6
CONTINUOUS
 62
     7
100
AcDbVertex
100
AcDb2dVertex
 10
783.9579208159
 20
1318.8778540296
 30
0.0
  0
VERTEX
  5
540
330
177
100
AcDbEntity
  8
0
  6
CONTINUOUS
 62
     7
100
AcDbVertex
100
AcDb2dVertex
 10
784.5221028281
 20
1319.596081069
 30
0.0
  0
VERTEX
  5
541
330
177
100
AcDbEntity
  8
0
  6
CONTINUOUS
 62
     7
100
AcDbVertex
100
AcDb2dVertex
 10
785.1089705551
 20
1320.5026083991
 30
0.0
  0
VERTEX
  5
542
330
177
100
AcDbEntity
  8
0
  6
CONTINUOUS
 62
     7
100
AcDbVertex
100
AcDb2dVertex
 10
785.877981176
 20
1321.9406531735
 30
0.0
  0
VERTEX
  5
543
330
177
100
AcDbEntity
  8
0
  6
CONTINUOUS
 62
     7
100
AcDbVertex
100
AcDb2dVertex
 10
786.5989042184
 20
1323.5185201984
 30
0.0
  0
VERTEX
  5
544
330
177
100
AcDbEntity
  8
0
  6
CONTINUOUS
 62
     7
100
AcDbVertex
100
AcDb2dVertex
 10
787.2900450631
 20
1325.2062226389
 30
0.0
  0
VERTEX
  5
545
330
177
100
AcDbEntity
  8
0
  6
CONTINUOUS
 62
     7
100
AcDbVertex
100
AcDb2dVertex
 10
788.0384828382
 20
1327.1985343892
 30
0.0
  0
VERTEX
  5
546
330
177
100
AcDbEntity
  8
0
  6
CONTINUOUS
 62
     7
100
AcDbVertex
100
AcDb2dVertex
 10
788.7798069592
 20
1329.3215596758
 30
0.0
  0
VERTEX
  5
547
330
177
100
AcDbEntity
  8
0
  6
CONTINUOUS
 62
     7
100
AcDbVertex
100
AcDb2dVertex
 10
789.5174599946
 20
1331.5709499112
 30
0.0
  0
VERTEX
  5
548
330
177
100
AcDbEntity
  8
0
  6
CONTINUOUS
 62
     7
100
AcDbVertex
100
AcDb2dVertex
 10
790.2476900135
 20
1333.9281698916
 30
0.0
  0
VERTEX
  5
549
330
177
100
AcDbEntity
  8
0
  6
CONTINUOUS
 62
     7
100
AcDbVertex
100
AcDb2dVertex
 10
790.9635425724
 20
1336.3669145225
 30
0.0
  0
VERTEX
  5
54A
330
177
100
AcDbEntity
  8
0
  6
CONTINUOUS
 62
     7
100
AcDbVertex
100
AcDb2dVertex
 10
791.6567219111
 20
1338.8567802704
 30
0.0
  0
VERTEX
  5
54B
330
177
100
AcDbEntity
  8
0
  6
CONTINUOUS
 62
     7
100
AcDbVertex
100
AcDb2dVertex
 10
791.8871799395
 20
1339.7148575513
 30
0.0
  0
SEQEND
  5
67D
330
177
100
AcDbEntity
  8
0
  6
CONTINUOUS
 62
     7
  0
POLYLINE
  5
178
330
1F
100
AcDbEntity
  8
0
  6
CONTINUOUS
 62
     7
100
AcDb2dPolyline
 66
     1
 10
0.0
 20
0.0
 30
0.0
 70
   128
  0
VERTEX
  5
54C
330
178
100
AcDbEntity
  8
0
  6
CONTINUOUS
 62
     7
100
AcDbVertex
100
AcDb2dVertex
 10
780.2906991222
 20
1342.800571837
 30
0.0
  0
VERTEX
  5
54D
330
178
100
AcDbEntity
  8
0
  6
CONTINUOUS
 62
     7
100
AcDbVertex
100
AcDb2dVertex
 10
779.9581205216
 20
1341.5683496522
 30
0.0
  0
VERTEX
  5
54E
330
178
100
AcDbEntity
  8
0
  6
CONTINUOUS
 62
     7
100
AcDbVertex
100
AcDb2dVertex
 10
779.6860196079
 20
1340.6003244969
 30
0.0
  0
SEQEND
  5
67E
330
178
100
AcDbEntity
  8
0
  6
CONTINUOUS
 62
     7
  0
ARC
  5
179
330
1F
100
AcDbEntity
  8
0
  6
CONTINUOUS
 62
     7
100
AcDbCircle
 10
317.9755270565
 20
1388.3187239814
 30
0.0
 40
13.99999999999917
100
AcDbArc
 50
179.342957393
 51
194.9005966878
  0
ARC
  5
17A
330
1F
100
AcDbEntity
  8
0
  6
CONTINUOUS
 62
     7
100
AcDbCircle
 10
317.9755270565
 20
1388.3187239814
 30
0.0
 40
25.99999999999916
100
AcDbArc
 50
179.342957393
 51
194.9005966878
  0
LINE
  5
17B
330
1F
100
AcDbEntity
  8
0
  6
CONTINUOUS
 62
     7
100
AcDbLine
 10
296.6302289103
 20
1794.3518022663
 30
0.0
 11
291.9772366009
 21
1388.6168739239
 31
0.0
  0
LINE
  5
17C
330
1F
100
AcDbEntity
  8
0
  6
CONTINUOUS
 62
     7
100
AcDbLine
 10
303.9764475804
 20
1388.4792662582
 30
0.0
 11
308.4316107928
 21
1776.9637524906
 31
0.0
  0
LINE
  5
17D
330
1F
100
AcDbEntity
  8
0
  6
CONTINUOUS
 62
     7
100
AcDbLine
 10
292.8498186189
 20
1381.6330096957
 30
0.0
 11
304.0038439599
 21
1339.7148575513
 31
0.0
  0
LINE
  5
17E
330
1F
100
AcDbEntity
  8
0
  6
CONTINUOUS
 62
     7
100
AcDbLine
 10
315.6003247772
 20
1342.800571837
 30
0.0
 11
304.4462994362
 21
1384.7187239814
 31
0.0
  0
LINE
  5
17F
330
1F
100
AcDbEntity
  8
0
  6
CONTINUOUS
 62
     7
100
AcDbLine
 10
787.4594131066
 20
1776.9637524906
 30
0.0
 11
791.914576319
 21
1388.4792662582
 31
0.0
  0
LINE
  5
180
330
1F
100
AcDbEntity
  8
0
  6
CONTINUOUS
 62
     7
100
AcDbLine
 10
803.9137872985
 20
1388.6168739239
 30
0.0
 11
799.2607949891
 21
1794.3518022663
 31
0.0
  0
LINE
  5
181
330
1F
100
AcDbEntity
  8
0
  6
CONTINUOUS
 62
     7
100
AcDbLine
 10
791.4447244632
 20
1384.7187239814
 30
0.0
 11
780.2906991222
 21
1342.800571837
 31
0.0
  0
LINE
  5
182
330
1F
100
AcDbEntity
  8
0
  6
CONTINUOUS
 62
     7
100
AcDbLine
 10
791.8871799395
 20
1339.7148575513
 30
0.0
 11
803.0412052805
 21
1381.6330096957
 31
0.0
  0
ARC
  5
183
330
1F
100
AcDbEntity
  8
0
  6
CONTINUOUS
 62
     7
100
AcDbCircle
 10
777.9154968429
 20
1388.3187239814
 30
0.0
 40
13.99999999999918
100
AcDbArc
 50
345.0994033122
 51
0.657042607
  0
ARC
  5
184
330
1F
100
AcDbEntity
  8
0
  6
CONTINUOUS
 62
     7
100
AcDbCircle
 10
777.9154968429
 20
1388.3187239814
 30
0.0
 40
25.99999999999916
100
AcDbArc
 50
345.0994033122
 51
0.657042607
  0
POLYLINE
  5
185
330
1F
100
AcDbEntity
  8
0
  6
CONTINUOUS
 62
     7
100
AcDb2dPolyline
 66
     1
 10
0.0
 20
0.0
 30
0.0
 70
   128
  0
VERTEX
  5
54F
330
185
100
AcDbEntity
  8
0
  6
CONTINUOUS
 62
     7
100
AcDbVertex
100
AcDb2dVertex
 10
369.5632066348
 20
1737.5016473968
 30
0.0
  0
VERTEX
  5
550
330
185
100
AcDbEntity
  8
0
  6
CONTINUOUS
 62
     7
100
AcDbVertex
100
AcDb2dVertex
 10
370.8586461257
 20
1739.1650458131
 30
0.0
  0
VERTEX
  5
551
330
185
100
AcDbEntity
  8
0
  6
CONTINUOUS
 62
     7
100
AcDbVertex
100
AcDb2dVertex
 10
372.9869532482
 20
1741.0503789326
 30
0.0
  0
VERTEX
  5
552
330
185
100
AcDbEntity
  8
0
  6
CONTINUOUS
 62
     7
100
AcDbVertex
100
AcDb2dVertex
 10
375.9271938516
 20
1743.1333785526
 30
0.0
  0
VERTEX
  5
553
330
185
100
AcDbEntity
  8
0
  6
CONTINUOUS
 62
     7
100
AcDbVertex
100
AcDb2dVertex
 10
379.6774904073
 20
1745.3970281231
 30
0.0
  0
VERTEX
  5
554
330
185
100
AcDbEntity
  8
0
  6
CONTINUOUS
 62
     7
100
AcDbVertex
100
AcDb2dVertex
 10
384.1504987912
 20
1747.779756093
 30
0.0
  0
VERTEX
  5
555
330
185
100
AcDbEntity
  8
0
  6
CONTINUOUS
 62
     7
100
AcDbVertex
100
AcDb2dVertex
 10
389.3044100652
 20
1750.251439449
 30
0.0
  0
VERTEX
  5
556
330
185
100
AcDbEntity
  8
0
  6
CONTINUOUS
 62
     7
100
AcDbVertex
100
AcDb2dVertex
 10
395.1347732623
 20
1752.7954512216
 30
0.0
  0
VERTEX
  5
557
330
185
100
AcDbEntity
  8
0
  6
CONTINUOUS
 62
     7
100
AcDbVertex
100
AcDb2dVertex
 10
401.6128396373
 20
1755.3688087441
 30
0.0
  0
VERTEX
  5
558
330
185
100
AcDbEntity
  8
0
  6
CONTINUOUS
 62
     7
100
AcDbVertex
100
AcDb2dVertex
 10
408.6085226062
 20
1757.8845597873
 30
0.0
  0
VERTEX
  5
559
330
185
100
AcDbEntity
  8
0
  6
CONTINUOUS
 62
     7
100
AcDbVertex
100
AcDb2dVertex
 10
416.1147274499
 20
1760.312680323
 30
0.0
  0
VERTEX
  5
55A
330
185
100
AcDbEntity
  8
0
  6
CONTINUOUS
 62
     7
100
AcDbVertex
100
AcDb2dVertex
 10
424.14247196
 20
1762.6314967755
 30
0.0
  0
VERTEX
  5
55B
330
185
100
AcDbEntity
  8
0
  6
CONTINUOUS
 62
     7
100
AcDbVertex
100
AcDb2dVertex
 10
432.6043594641
 20
1764.7936438978
 30
0.0
  0
VERTEX
  5
55C
330
185
100
AcDbEntity
  8
0
  6
CONTINUOUS
 62
     7
100
AcDbVertex
100
AcDb2dVertex
 10
441.3445943121
 20
1766.7482476306
 30
0.0
  0
VERTEX
  5
55D
330
185
100
AcDbEntity
  8
0
  6
CONTINUOUS
 62
     7
100
AcDbVertex
100
AcDb2dVertex
 10
450.3639723249
 20
1768.4885490071
 30
0.0
  0
VERTEX
  5
55E
330
185
100
AcDbEntity
  8
0
  6
CONTINUOUS
 62
     7
100
AcDbVertex
100
AcDb2dVertex
 10
459.6672862557
 20
1770.0064493439
 30
0.0
  0
VERTEX
  5
55F
330
185
100
AcDbEntity
  8
0
  6
CONTINUOUS
 62
     7
100
AcDbVertex
100
AcDb2dVertex
 10
469.1398745366
 20
1771.2794872303
 30
0.0
  0
SEQEND
  5
67F
330
185
100
AcDbEntity
  8
0
  6
CONTINUOUS
 62
     7
  0
POLYLINE
  5
186
330
1F
100
AcDbEntity
  8
0
  6
CONTINUOUS
 62
     7
100
AcDb2dPolyline
 66
     1
 10
0.0
 20
0.0
 30
0.0
 70
   128
  0
VERTEX
  5
560
330
186
100
AcDbEntity
  8
0
  6
CONTINUOUS
 62
     7
100
AcDbVertex
100
AcDb2dVertex
 10
469.1398745366
 20
1771.2794872303
 30
0.0
  0
VERTEX
  5
561
330
186
100
AcDbEntity
  8
0
  6
CONTINUOUS
 62
     7
100
AcDbVertex
100
AcDb2dVertex
 10
495.4083242146
 20
1773.877589009
 30
0.0
  0
VERTEX
  5
562
330
186
100
AcDbEntity
  8
0
  6
CONTINUOUS
 62
     7
100
AcDbVertex
100
AcDb2dVertex
 10
521.6769588059
 20
1775.4117642116
 30
0.0
  0
VERTEX
  5
563
330
186
100
AcDbEntity
  8
0
  6
CONTINUOUS
 62
     7
100
AcDbVertex
100
AcDb2dVertex
 10
547.9455037123
 20
1775.9174004164
 30
0.0
  0
VERTEX
  5
564
330
186
100
AcDbEntity
  8
0
  6
CONTINUOUS
 62
     7
100
AcDbVertex
100
AcDb2dVertex
 10
574.2140504267
 20
1775.4050616621
 30
0.0
  0
VERTEX
  5
565
330
186
100
AcDbEntity
  8
0
  6
CONTINUOUS
 62
     7
100
AcDbVertex
100
AcDb2dVertex
 10
600.4826326962
 20
1773.8733678892
 30
0.0
  0
VERTEX
  5
566
330
186
100
AcDbEntity
  8
0
  6
CONTINUOUS
 62
     7
100
AcDbVertex
100
AcDb2dVertex
 10
626.7511493628
 20
1771.2797671725
 30
0.0
  0
SEQEND
  5
680
330
186
100
AcDbEntity
  8
0
  6
CONTINUOUS
 62
     7
  0
POLYLINE
  5
187
330
1F
100
AcDbEntity
  8
0
  6
CONTINUOUS
 62
     7
100
AcDb2dPolyline
 66
     1
 10
0.0
 20
0.0
 30
0.0
 70
   128
  0
VERTEX
  5
567
330
187
100
AcDbEntity
  8
0
  6
CONTINUOUS
 62
     7
100
AcDbVertex
100
AcDb2dVertex
 10
626.7511493628
 20
1771.2797671725
 30
0.0
  0
VERTEX
  5
568
330
187
100
AcDbEntity
  8
0
  6
CONTINUOUS
 62
     7
100
AcDbVertex
100
AcDb2dVertex
 10
636.1651001977
 20
1770.0167857263
 30
0.0
  0
VERTEX
  5
569
330
187
100
AcDbEntity
  8
0
  6
CONTINUOUS
 62
     7
100
AcDbVertex
100
AcDb2dVertex
 10
645.3919283273
 20
1768.5138698267
 30
0.0
  0
VERTEX
  5
56A
330
187
100
AcDbEntity
  8
0
  6
CONTINUOUS
 62
     7
100
AcDbVertex
100
AcDb2dVertex
 10
654.4349417631
 20
1766.7723448268
 30
0.0
  0
VERTEX
  5
56B
330
187
100
AcDbEntity
  8
0
  6
CONTINUOUS
 62
     7
100
AcDbVertex
100
AcDb2dVertex
 10
663.2685604354
 20
1764.7968507818
 30
0.0
  0
VERTEX
  5
56C
330
187
100
AcDbEntity
  8
0
  6
CONTINUOUS
 62
     7
100
AcDbVertex
100
AcDb2dVertex
 10
671.6941752207
 20
1762.6430507938
 30
0.0
  0
VERTEX
  5
56D
330
187
100
AcDbEntity
  8
0
  6
CONTINUOUS
 62
     7
100
AcDbVertex
100
AcDb2dVertex
 10
679.6808600194
 20
1760.3389193058
 30
0.0
  0
VERTEX
  5
56E
330
187
100
AcDbEntity
  8
0
  6
CONTINUOUS
 62
     7
100
AcDbVertex
100
AcDb2dVertex
 10
687.2365822052
 20
1757.8998696789
 30
0.0
  0
VERTEX
  5
56F
330
187
100
AcDbEntity
  8
0
  6
CONTINUOUS
 62
     7
100
AcDbVertex
100
AcDb2dVertex
 10
694.2839149982
 20
1755.36865806
 30
0.0
  0
VERTEX
  5
570
330
187
100
AcDbEntity
  8
0
  6
CONTINUOUS
 62
     7
100
AcDbVertex
100
AcDb2dVertex
 10
700.7098477376
 20
1752.8189073282
 30
0.0
  0
VERTEX
  5
571
330
187
100
AcDbEntity
  8
0
  6
CONTINUOUS
 62
     7
100
AcDbVertex
100
AcDb2dVertex
 10
706.524117883
 20
1750.2838619948
 30
0.0
  0
VERTEX
  5
572
330
187
100
AcDbEntity
  8
0
  6
CONTINUOUS
 62
     7
100
AcDbVertex
100
AcDb2dVertex
 10
711.7229794414
 20
1747.7916922874
 30
0.0
  0
VERTEX
  5
573
330
187
100
AcDbEntity
  8
0
  6
CONTINUOUS
 62
     7
100
AcDbVertex
100
AcDb2dVertex
 10
716.2023135874
 20
1745.4059899853
 30
0.0
  0
VERTEX
  5
574
330
187
100
AcDbEntity
  8
0
  6
CONTINUOUS
 62
     7
100
AcDbVertex
100
AcDb2dVertex
 10
719.9184321847
 20
1743.1647407935
 30
0.0
  0
VERTEX
  5
575
330
187
100
AcDbEntity
  8
0
  6
CONTINUOUS
 62
     7
100
AcDbVertex
100
AcDb2dVertex
 10
722.866241938
 20
1741.0805861234
 30
0.0
  0
VERTEX
  5
576
330
187
100
AcDbEntity
  8
0
  6
CONTINUOUS
 62
     7
100
AcDbVertex
100
AcDb2dVertex
 10
725.0203968111
 20
1739.1751158663
 30
0.0
  0
VERTEX
  5
577
330
187
100
AcDbEntity
  8
0
  6
CONTINUOUS
 62
     7
100
AcDbVertex
100
AcDb2dVertex
 10
726.3278172646
 20
1737.5010055204
 30
0.0
  0
SEQEND
  5
681
330
187
100
AcDbEntity
  8
0
  6
CONTINUOUS
 62
     7
  0
POLYLINE
  5
188
330
1F
100
AcDbEntity
  8
0
  6
CONTINUOUS
 62
     7
100
AcDb2dPolyline
 66
     1
 10
0.0
 20
0.0
 30
0.0
 70
   128
  0
VERTEX
  5
578
330
188
100
AcDbEntity
  8
0
  6
CONTINUOUS
 62
     7
100
AcDbVertex
100
AcDb2dVertex
 10
726.3278172646
 20
1737.5010055204
 30
0.0
  0
VERTEX
  5
579
330
188
100
AcDbEntity
  8
0
  6
CONTINUOUS
 62
     7
100
AcDbVertex
100
AcDb2dVertex
 10
727.918112099
 20
1734.7219099957
 30
0.0
  0
VERTEX
  5
57A
330
188
100
AcDbEntity
  8
0
  6
CONTINUOUS
 62
     7
100
AcDbVertex
100
AcDb2dVertex
 10
729.5094272558
 20
1732.0791493551
 30
0.0
  0
VERTEX
  5
57B
330
188
100
AcDbEntity
  8
0
  6
CONTINUOUS
 62
     7
100
AcDbVertex
100
AcDb2dVertex
 10
731.1027582347
 20
1729.7082465908
 30
0.0
  0
VERTEX
  5
57C
330
188
100
AcDbEntity
  8
0
  6
CONTINUOUS
 62
     7
100
AcDbVertex
100
AcDb2dVertex
 10
732.700410498
 20
1727.919036513
 30
0.0
  0
VERTEX
  5
57D
330
188
100
AcDbEntity
  8
0
  6
CONTINUOUS
 62
     7
100
AcDbVertex
100
AcDb2dVertex
 10
734.3050320646
 20
1727.0679717759
 30
0.0
  0
VERTEX
  5
57E
330
188
100
AcDbEntity
  8
0
  6
CONTINUOUS
 62
     7
100
AcDbVertex
100
AcDb2dVertex
 10
735.9170890787
 20
1727.1848925129
 30
0.0
  0
VERTEX
  5
57F
330
188
100
AcDbEntity
  8
0
  6
CONTINUOUS
 62
     7
100
AcDbVertex
100
AcDb2dVertex
 10
737.5344787134
 20
1728.1047756296
 30
0.0
  0
VERTEX
  5
580
330
188
100
AcDbEntity
  8
0
  6
CONTINUOUS
 62
     7
100
AcDbVertex
100
AcDb2dVertex
 10
738.6667190744
 20
1729.108457085
 30
0.0
  0
VERTEX
  5
581
330
188
100
AcDbEntity
  8
0
  6
CONTINUOUS
 62
     7
100
AcDbVertex
100
AcDb2dVertex
 10
739.7984137201
 20
1730.1876577952
 30
0.0
  0
VERTEX
  5
582
330
188
100
AcDbEntity
  8
0
  6
CONTINUOUS
 62
     7
100
AcDbVertex
100
AcDb2dVertex
 10
740.9314515652
 20
1731.0886731205
 30
0.0
  0
VERTEX
  5
583
330
188
100
AcDbEntity
  8
0
  6
CONTINUOUS
 62
     7
100
AcDbVertex
100
AcDb2dVertex
 10
742.0663879702
 20
1731.514152821
 30
0.0
  0
VERTEX
  5
584
330
188
100
AcDbEntity
  8
0
  6
CONTINUOUS
 62
     7
100
AcDbVertex
100
AcDb2dVertex
 10
743.2012670705
 20
1731.1448384122
 30
0.0
  0
VERTEX
  5
585
330
188
100
AcDbEntity
  8
0
  6
CONTINUOUS
 62
     7
100
AcDbVertex
100
AcDb2dVertex
 10
743.9049103919
 20
1730.3541347744
 30
0.0
  0
VERTEX
  5
586
330
188
100
AcDbEntity
  8
0
  6
CONTINUOUS
 62
     7
100
AcDbVertex
100
AcDb2dVertex
 10
744.5984289522
 20
1728.9933445702
 30
0.0
  0
VERTEX
  5
587
330
188
100
AcDbEntity
  8
0
  6
CONTINUOUS
 62
     7
100
AcDbVertex
100
AcDb2dVertex
 10
745.2788296395
 20
1726.8939371168
 30
0.0
  0
VERTEX
  5
588
330
188
100
AcDbEntity
  8
0
  6
CONTINUOUS
 62
     7
100
AcDbVertex
100
AcDb2dVertex
 10
745.9335926186
 20
1723.8714496508
 30
0.0
  0
VERTEX
  5
589
330
188
100
AcDbEntity
  8
0
  6
CONTINUOUS
 62
     7
100
AcDbVertex
100
AcDb2dVertex
 10
746.5382160747
 20
1719.897484867
 30
0.0
  0
VERTEX
  5
58A
330
188
100
AcDbEntity
  8
0
  6
CONTINUOUS
 62
     7
100
AcDbVertex
100
AcDb2dVertex
 10
747.0851516296
 20
1714.9371110273
 30
0.0
  0
VERTEX
  5
58B
330
188
100
AcDbEntity
  8
0
  6
CONTINUOUS
 62
     7
100
AcDbVertex
100
AcDb2dVertex
 10
747.5536335133
 20
1709.1944220903
 30
0.0
  0
VERTEX
  5
58C
330
188
100
AcDbEntity
  8
0
  6
CONTINUOUS
 62
     7
100
AcDbVertex
100
AcDb2dVertex
 10
747.9455103963
 20
1702.7655902792
 30
0.0
  0
SEQEND
  5
682
330
188
100
AcDbEntity
  8
0
  6
CONTINUOUS
 62
     7
  0
LINE
  5
189
330
1F
100
AcDbEntity
  8
0
  6
CONTINUOUS
 62
     7
100
AcDbLine
 10
749.9965938417
 20
1663.9059661646
 30
0.0
 11
747.9459986074
 21
1702.7656096517
 31
0.0
  0
POLYLINE
  5
18A
330
1F
100
AcDbEntity
  8
0
  6
CONTINUOUS
 62
     7
100
AcDb2dPolyline
 66
     1
 10
0.0
 20
0.0
 30
0.0
 70
   128
  0
VERTEX
  5
58D
330
18A
100
AcDbEntity
  8
0
  6
CONTINUOUS
 62
     7
100
AcDbVertex
100
AcDb2dVertex
 10
751.774233754
 20
1461.9546079611
 30
0.0
  0
VERTEX
  5
58E
330
18A
100
AcDbEntity
  8
0
  6
CONTINUOUS
 62
     7
100
AcDbVertex
100
AcDb2dVertex
 10
752.7101281147
 20
1495.6166986313
 30
0.0
  0
VERTEX
  5
58F
330
18A
100
AcDbEntity
  8
0
  6
CONTINUOUS
 62
     7
100
AcDbVertex
100
AcDb2dVertex
 10
753.1530338665
 20
1529.2815014924
 30
0.0
  0
VERTEX
  5
590
330
18A
100
AcDbEntity
  8
0
  6
CONTINUOUS
 62
     7
100
AcDbVertex
100
AcDb2dVertex
 10
753.1031307839
 20
1562.9474119933
 30
0.0
  0
VERTEX
  5
591
330
18A
100
AcDbEntity
  8
0
  6
CONTINUOUS
 62
     7
100
AcDbVertex
100
AcDb2dVertex
 10
752.8933942696
 20
1579.7788883329
 30
0.0
  0
VERTEX
  5
592
330
18A
100
AcDbEntity
  8
0
  6
CONTINUOUS
 62
     7
100
AcDbVertex
100
AcDb2dVertex
 10
752.5605164288
 20
1596.606850613
 30
0.0
  0
VERTEX
  5
593
330
18A
100
AcDbEntity
  8
0
  6
CONTINUOUS
 62
     7
100
AcDbVertex
100
AcDb2dVertex
 10
752.104501533
 20
1613.4319478168
 30
0.0
  0
VERTEX
  5
594
330
18A
100
AcDbEntity
  8
0
  6
CONTINUOUS
 62
     7
100
AcDbVertex
100
AcDb2dVertex
 10
751.5253189427
 20
1630.2547287654
 30
0.0
  0
VERTEX
  5
595
330
18A
100
AcDbEntity
  8
0
  6
CONTINUOUS
 62
     7
100
AcDbVertex
100
AcDb2dVertex
 10
750.8228463703
 20
1647.0769439026
 30
0.0
  0
VERTEX
  5
596
330
18A
100
AcDbEntity
  8
0
  6
CONTINUOUS
 62
     7
100
AcDbVertex
100
AcDb2dVertex
 10
749.9965938417
 20
1663.9059661646
 30
0.0
  0
SEQEND
  5
683
330
18A
100
AcDbEntity
  8
0
  6
CONTINUOUS
 62
     7
  0
POLYLINE
  5
18B
330
1F
100
AcDbEntity
  8
0
  6
CONTINUOUS
 62
     7
100
AcDb2dPolyline
 66
     1
 10
0.0
 20
0.0
 30
0.0
 70
   128
  0
VERTEX
  5
597
330
18B
100
AcDbEntity
  8
0
  6
CONTINUOUS
 62
     7
100
AcDbVertex
100
AcDb2dVertex
 10
750.6572909735
 20
1430.1606292056
 30
0.0
  0
VERTEX
  5
598
330
18B
100
AcDbEntity
  8
0
  6
CONTINUOUS
 62
     7
100
AcDbVertex
100
AcDb2dVertex
 10
751.2157283654
 20
1446.0542053468
 30
0.0
  0
VERTEX
  5
599
330
18B
100
AcDbEntity
  8
0
  6
CONTINUOUS
 62
     7
100
AcDbVertex
100
AcDb2dVertex
 10
751.774233754
 20
1461.9546079611
 30
0.0
  0
SEQEND
  5
684
330
18B
100
AcDbEntity
  8
0
  6
CONTINUOUS
 62
     7
  0
ARC
  5
18C
330
1F
100
AcDbEntity
  8
0
  6
CONTINUOUS
 62
     7
100
AcDbCircle
 10
670.7066117968
 20
1432.9693476296
 30
0.0
 40
79.9999999999995
100
AcDbArc
 50
270.0
 51
357.9879901139
  0
LINE
  5
18D
330
1F
100
AcDbEntity
  8
0
  6
CONTINUOUS
 62
     7
100
AcDbLine
 10
425.1844121026
 20
1352.9693476296
 30
0.0
 11
670.7066117968
 21
1352.9693476296
 31
0.0
  0
ARC
  5
18E
330
1F
100
AcDbEntity
  8
0
  6
CONTINUOUS
 62
     7
100
AcDbCircle
 10
425.1833077708
 20
1432.9682038206
 30
0.0
 40
79.998856198683
100
AcDbArc
 50
182.0112189554
 51
270.0007909307
  0
POLYLINE
  5
18F
330
1F
100
AcDbEntity
  8
0
  6
CONTINUOUS
 62
     7
100
AcDb2dPolyline
 66
     1
 10
0.0
 20
0.0
 30
0.0
 70
   128
  0
VERTEX
  5
59A
330
18F
100
AcDbEntity
  8
0
  6
CONTINUOUS
 62
     7
100
AcDbVertex
100
AcDb2dVertex
 10
344.1167901454
 20
1461.9546079612
 30
0.0
  0
VERTEX
  5
59B
330
18F
100
AcDbEntity
  8
0
  6
CONTINUOUS
 62
     7
100
AcDbVertex
100
AcDb2dVertex
 10
344.6752938153
 20
1446.0542130398
 30
0.0
  0
VERTEX
  5
59C
330
18F
100
AcDbEntity
  8
0
  6
CONTINUOUS
 62
     7
100
AcDbVertex
100
AcDb2dVertex
 10
345.2337329259
 20
1430.1606292056
 30
0.0
  0
SEQEND
  5
685
330
18F
100
AcDbEntity
  8
0
  6
CONTINUOUS
 62
     7
  0
POLYLINE
  5
190
330
1F
100
AcDbEntity
  8
0
  6
CONTINUOUS
 62
     7
100
AcDb2dPolyline
 66
     1
 10
0.0
 20
0.0
 30
0.0
 70
   128
  0
VERTEX
  5
59D
330
190
100
AcDbEntity
  8
0
  6
CONTINUOUS
 62
     7
100
AcDbVertex
100
AcDb2dVertex
 10
345.8944300577
 20
1663.9059661646
 30
0.0
  0
VERTEX
  5
59E
330
190
100
AcDbEntity
  8
0
  6
CONTINUOUS
 62
     7
100
AcDbVertex
100
AcDb2dVertex
 10
345.0683403569
 20
1647.0805273929
 30
0.0
  0
VERTEX
  5
59F
330
190
100
AcDbEntity
  8
0
  6
CONTINUOUS
 62
     7
100
AcDbVertex
100
AcDb2dVertex
 10
344.3658652875
 20
1630.2589370162
 30
0.0
  0
VERTEX
  5
5A0
330
190
100
AcDbEntity
  8
0
  6
CONTINUOUS
 62
     7
100
AcDbVertex
100
AcDb2dVertex
 10
343.7866339988
 20
1613.4355762422
 30
0.0
  0
VERTEX
  5
5A1
330
190
100
AcDbEntity
  8
0
  6
CONTINUOUS
 62
     7
100
AcDbVertex
100
AcDb2dVertex
 10
343.3305604724
 20
1596.6091100316
 30
0.0
  0
VERTEX
  5
5A2
330
190
100
AcDbEntity
  8
0
  6
CONTINUOUS
 62
     7
100
AcDbVertex
100
AcDb2dVertex
 10
342.9976361953
 20
1579.7791978492
 30
0.0
  0
VERTEX
  5
5A3
330
190
100
AcDbEntity
  8
0
  6
CONTINUOUS
 62
     7
100
AcDbVertex
100
AcDb2dVertex
 10
342.7878952476
 20
1562.9476542417
 30
0.0
  0
VERTEX
  5
5A4
330
190
100
AcDbEntity
  8
0
  6
CONTINUOUS
 62
     7
100
AcDbVertex
100
AcDb2dVertex
 10
342.7379681318
 20
1529.2852602611
 30
0.0
  0
VERTEX
  5
5A5
330
190
100
AcDbEntity
  8
0
  6
CONTINUOUS
 62
     7
100
AcDbVertex
100
AcDb2dVertex
 10
343.1808246423
 20
1495.6201749624
 30
0.0
  0
VERTEX
  5
5A6
330
190
100
AcDbEntity
  8
0
  6
CONTINUOUS
 62
     7
100
AcDbVertex
100
AcDb2dVertex
 10
344.1167901454
 20
1461.9546079611
 30
0.0
  0
SEQEND
  5
686
330
190
100
AcDbEntity
  8
0
  6
CONTINUOUS
 62
     7
  0
LINE
  5
191
330
1F
100
AcDbEntity
  8
0
  6
CONTINUOUS
 62
     7
100
AcDbLine
 10
347.9455119497
 20
1702.7748320202
 30
0.0
 11
345.8944300577
 21
1663.9059661646
 31
0.0
  0
POLYLINE
  5
192
330
1F
100
AcDbEntity
  8
0
  6
CONTINUOUS
 62
     7
100
AcDb2dPolyline
 66
     1
 10
0.0
 20
0.0
 30
0.0
 70
   128
  0
VERTEX
  5
5A7
330
192
100
AcDbEntity
  8
0
  6
CONTINUOUS
 62
     7
100
AcDbVertex
100
AcDb2dVertex
 10
347.9455119497
 20
1702.7748320202
 30
0.0
  0
VERTEX
  5
5A8
330
192
100
AcDbEntity
  8
0
  6
CONTINUOUS
 62
     7
100
AcDbVertex
100
AcDb2dVertex
 10
348.3393446385
 20
1709.2301500867
 30
0.0
  0
VERTEX
  5
5A9
330
192
100
AcDbEntity
  8
0
  6
CONTINUOUS
 62
     7
100
AcDbVertex
100
AcDb2dVertex
 10
348.8111660931
 20
1714.9999574309
 30
0.0
  0
VERTEX
  5
5AA
330
192
100
AcDbEntity
  8
0
  6
CONTINUOUS
 62
     7
100
AcDbVertex
100
AcDb2dVertex
 10
349.3606782745
 20
1719.9645919192
 30
0.0
  0
VERTEX
  5
5AB
330
192
100
AcDbEntity
  8
0
  6
CONTINUOUS
 62
     7
100
AcDbVertex
100
AcDb2dVertex
 10
349.967950267
 20
1723.9350786012
 30
0.0
  0
VERTEX
  5
5AC
330
192
100
AcDbEntity
  8
0
  6
CONTINUOUS
 62
     7
100
AcDbVertex
100
AcDb2dVertex
 10
350.626105101
 20
1726.9515241749
 30
0.0
  0
VERTEX
  5
5AD
330
192
100
AcDbEntity
  8
0
  6
CONTINUOUS
 62
     7
100
AcDbVertex
100
AcDb2dVertex
 10
351.3090764156
 20
1729.0385465297
 30
0.0
  0
VERTEX
  5
5AE
330
192
100
AcDbEntity
  8
0
  6
CONTINUOUS
 62
     7
100
AcDbVertex
100
AcDb2dVertex
 10
352.0063227905
 20
1730.3888730834
 30
0.0
  0
VERTEX
  5
5AF
330
192
100
AcDbEntity
  8
0
  6
CONTINUOUS
 62
     7
100
AcDbVertex
100
AcDb2dVertex
 10
352.7145326715
 20
1731.1680703973
 30
0.0
  0
VERTEX
  5
5B0
330
192
100
AcDbEntity
  8
0
  6
CONTINUOUS
 62
     7
100
AcDbVertex
100
AcDb2dVertex
 10
353.8509733846
 20
1731.5161331088
 30
0.0
  0
VERTEX
  5
5B1
330
192
100
AcDbEntity
  8
0
  6
CONTINUOUS
 62
     7
100
AcDbVertex
100
AcDb2dVertex
 10
354.9842760674
 20
1731.0767956623
 30
0.0
  0
VERTEX
  5
5B2
330
192
100
AcDbEntity
  8
0
  6
CONTINUOUS
 62
     7
100
AcDbVertex
100
AcDb2dVertex
 10
356.1157160242
 20
1730.1700596721
 30
0.0
  0
VERTEX
  5
5B3
330
192
100
AcDbEntity
  8
0
  6
CONTINUOUS
 62
     7
100
AcDbVertex
100
AcDb2dVertex
 10
357.2464841875
 20
1729.0907681512
 30
0.0
  0
VERTEX
  5
5B4
330
192
100
AcDbEntity
  8
0
  6
CONTINUOUS
 62
     7
100
AcDbVertex
100
AcDb2dVertex
 10
358.3770726018
 20
1728.0921487841
 30
0.0
  0
VERTEX
  5
5B5
330
192
100
AcDbEntity
  8
0
  6
CONTINUOUS
 62
     7
100
AcDbVertex
100
AcDb2dVertex
 10
360.2573430988
 20
1727.1045522594
 30
0.0
  0
VERTEX
  5
5B6
330
192
100
AcDbEntity
  8
0
  6
CONTINUOUS
 62
     7
100
AcDbVertex
100
AcDb2dVertex
 10
362.1306024413
 20
1727.2429142767
 30
0.0
  0
VERTEX
  5
5B7
330
192
100
AcDbEntity
  8
0
  6
CONTINUOUS
 62
     7
100
AcDbVertex
100
AcDb2dVertex
 10
363.9954847818
 20
1728.7265835807
 30
0.0
  0
VERTEX
  5
5B8
330
192
100
AcDbEntity
  8
0
  6
CONTINUOUS
 62
     7
100
AcDbVertex
100
AcDb2dVertex
 10
365.8538813004
 20
1731.2518454939
 30
0.0
  0
VERTEX
  5
5B9
330
192
100
AcDbEntity
  8
0
  6
CONTINUOUS
 62
     7
100
AcDbVertex
100
AcDb2dVertex
 10
367.7091878925
 20
1734.2738228281
 30
0.0
  0
VERTEX
  5
5BA
330
192
100
AcDbEntity
  8
0
  6
CONTINUOUS
 62
     7
100
AcDbVertex
100
AcDb2dVertex
 10
369.5632066348
 20
1737.5016473968
 30
0.0
  0
SEQEND
  5
687
330
192
100
AcDbEntity
  8
0
  6
CONTINUOUS
 62
     7
  0
POLYLINE
  5
193
330
1F
100
AcDbEntity
  8
0
  6
CONTINUOUS
 62
     7
100
AcDb2dPolyline
 66
     1
 10
0.0
 20
0.0
 30
0.0
 70
   128
  0
VERTEX
  5
5BB
330
193
100
AcDbEntity
  8
0
  6
CONTINUOUS
 62
     7
100
AcDbVertex
100
AcDb2dVertex
 10
366.6402192725
 20
1746.9783674965
 30
0.0
  0
VERTEX
  5
5BC
330
193
100
AcDbEntity
  8
0
  6
CONTINUOUS
 62
     7
100
AcDbVertex
100
AcDb2dVertex
 10
367.9529320839
 20
1748.6449097986
 30
0.0
  0
VERTEX
  5
5BD
330
193
100
AcDbEntity
  8
0
  6
CONTINUOUS
 62
     7
100
AcDbVertex
100
AcDb2dVertex
 10
370.1120154662
 20
1750.5390313339
 30
0.0
  0
VERTEX
  5
5BE
330
193
100
AcDbEntity
  8
0
  6
CONTINUOUS
 62
     7
100
AcDbVertex
100
AcDb2dVertex
 10
373.0937368648
 20
1752.6349964004
 30
0.0
  0
VERTEX
  5
5BF
330
193
100
AcDbEntity
  8
0
  6
CONTINUOUS
 62
     7
100
AcDbVertex
100
AcDb2dVertex
 10
376.8943076642
 20
1754.9140525274
 30
0.0
  0
VERTEX
  5
5C0
330
193
100
AcDbEntity
  8
0
  6
CONTINUOUS
 62
     7
100
AcDbVertex
100
AcDb2dVertex
 10
381.4258999935
 20
1757.314060153
 30
0.0
  0
VERTEX
  5
5C1
330
193
100
AcDbEntity
  8
0
  6
CONTINUOUS
 62
     7
100
AcDbVertex
100
AcDb2dVertex
 10
386.6498162755
 20
1759.8054684569
 30
0.0
  0
VERTEX
  5
5C2
330
193
100
AcDbEntity
  8
0
  6
CONTINUOUS
 62
     7
100
AcDbVertex
100
AcDb2dVertex
 10
392.5672399584
 20
1762.3731749808
 30
0.0
  0
VERTEX
  5
5C3
330
193
100
AcDbEntity
  8
0
  6
CONTINUOUS
 62
     7
100
AcDbVertex
100
AcDb2dVertex
 10
399.1574058772
 20
1764.9764505174
 30
0.0
  0
VERTEX
  5
5C4
330
193
100
AcDbEntity
  8
0
  6
CONTINUOUS
 62
     7
100
AcDbVertex
100
AcDb2dVertex
 10
406.2888705391
 20
1767.5271123063
 30
0.0
  0
VERTEX
  5
5C5
330
193
100
AcDbEntity
  8
0
  6
CONTINUOUS
 62
     7
100
AcDbVertex
100
AcDb2dVertex
 10
413.9458333065
 20
1769.9916821162
 30
0.0
  0
VERTEX
  5
5C6
330
193
100
AcDbEntity
  8
0
  6
CONTINUOUS
 62
     7
100
AcDbVertex
100
AcDb2dVertex
 10
422.1340895085
 20
1772.3463142532
 30
0.0
  0
VERTEX
  5
5C7
330
193
100
AcDbEntity
  8
0
  6
CONTINUOUS
 62
     7
100
AcDbVertex
100
AcDb2dVertex
 10
430.7624173961
 20
1774.5422945865
 30
0.0
  0
VERTEX
  5
5C8
330
193
100
AcDbEntity
  8
0
  6
CONTINUOUS
 62
     7
100
AcDbVertex
100
AcDb2dVertex
 10
439.6702441082
 20
1776.5275740684
 30
0.0
  0
VERTEX
  5
5C9
330
193
100
AcDbEntity
  8
0
  6
CONTINUOUS
 62
     7
100
AcDbVertex
100
AcDb2dVertex
 10
448.8567730821
 20
1778.2951654745
 30
0.0
  0
VERTEX
  5
5CA
330
193
100
AcDbEntity
  8
0
  6
CONTINUOUS
 62
     7
100
AcDbVertex
100
AcDb2dVertex
 10
458.3245401851
 20
1779.8367494643
 30
0.0
  0
VERTEX
  5
5CB
330
193
100
AcDbEntity
  8
0
  6
CONTINUOUS
 62
     7
100
AcDbVertex
100
AcDb2dVertex
 10
467.9565607342
 20
1781.1299530059
 30
0.0
  0
SEQEND
  5
688
330
193
100
AcDbEntity
  8
0
  6
CONTINUOUS
 62
     7
  0
POLYLINE
  5
194
330
1F
100
AcDbEntity
  8
0
  6
CONTINUOUS
 62
     7
100
AcDb2dPolyline
 66
     1
 10
0.0
 20
0.0
 30
0.0
 70
   128
  0
VERTEX
  5
5CC
330
194
100
AcDbEntity
  8
0
  6
CONTINUOUS
 62
     7
100
AcDbVertex
100
AcDb2dVertex
 10
467.9565607342
 20
1781.1299530059
 30
0.0
  0
VERTEX
  5
5CD
330
194
100
AcDbEntity
  8
0
  6
CONTINUOUS
 62
     7
100
AcDbVertex
100
AcDb2dVertex
 10
494.6340700074
 20
1783.7680074362
 30
0.0
  0
VERTEX
  5
5CE
330
194
100
AcDbEntity
  8
0
  6
CONTINUOUS
 62
     7
100
AcDbVertex
100
AcDb2dVertex
 10
521.2929897748
 20
1785.324444974
 30
0.0
  0
VERTEX
  5
5CF
330
194
100
AcDbEntity
  8
0
  6
CONTINUOUS
 62
     7
100
AcDbVertex
100
AcDb2dVertex
 10
547.9470998674
 20
1785.8373129095
 30
0.0
  0
VERTEX
  5
5D0
330
194
100
AcDbEntity
  8
0
  6
CONTINUOUS
 62
     7
100
AcDbVertex
100
AcDb2dVertex
 10
574.5992200826
 20
1785.3177055665
 30
0.0
  0
VERTEX
  5
5D1
330
194
100
AcDbEntity
  8
0
  6
CONTINUOUS
 62
     7
100
AcDbVertex
100
AcDb2dVertex
 10
601.2543895919
 20
1783.7639589964
 30
0.0
  0
VERTEX
  5
5D2
330
194
100
AcDbEntity
  8
0
  6
CONTINUOUS
 62
     7
100
AcDbVertex
100
AcDb2dVertex
 10
627.9342579516
 20
1781.130256713
 30
0.0
  0
SEQEND
  5
689
330
194
100
AcDbEntity
  8
0
  6
CONTINUOUS
 62
     7
  0
POLYLINE
  5
195
330
1F
100
AcDbEntity
  8
0
  6
CONTINUOUS
 62
     7
100
AcDb2dPolyline
 66
     1
 10
0.0
 20
0.0
 30
0.0
 70
   128
  0
VERTEX
  5
5D3
330
195
100
AcDbEntity
  8
0
  6
CONTINUOUS
 62
     7
100
AcDbVertex
100
AcDb2dVertex
 10
627.9342579516
 20
1781.130256713
 30
0.0
  0
VERTEX
  5
5D4
330
195
100
AcDbEntity
  8
0
  6
CONTINUOUS
 62
     7
100
AcDbVertex
100
AcDb2dVertex
 10
637.5061628876
 20
1779.8473219449
 30
0.0
  0
VERTEX
  5
5D5
330
195
100
AcDbEntity
  8
0
  6
CONTINUOUS
 62
     7
100
AcDbVertex
100
AcDb2dVertex
 10
646.8963805016
 20
1778.3209049791
 30
0.0
  0
VERTEX
  5
5D6
330
195
100
AcDbEntity
  8
0
  6
CONTINUOUS
 62
     7
100
AcDbVertex
100
AcDb2dVertex
 10
656.1085697813
 20
1776.5518095462
 30
0.0
  0
VERTEX
  5
5D7
330
195
100
AcDbEntity
  8
0
  6
CONTINUOUS
 62
     7
100
AcDbVertex
100
AcDb2dVertex
 10
665.1135033653
 20
1774.5449469472
 30
0.0
  0
VERTEX
  5
5D8
330
195
100
AcDbEntity
  8
0
  6
CONTINUOUS
 62
     7
100
AcDbVertex
100
AcDb2dVertex
 10
673.7028363274
 20
1772.3578323576
 30
0.0
  0
VERTEX
  5
5D9
330
195
100
AcDbEntity
  8
0
  6
CONTINUOUS
 62
     7
100
AcDbVertex
100
AcDb2dVertex
 10
681.8454904692
 20
1770.0188863745
 30
0.0
  0
VERTEX
  5
5DA
330
195
100
AcDbEntity
  8
0
  6
CONTINUOUS
 62
     7
100
AcDbVertex
100
AcDb2dVertex
 10
689.5511487397
 20
1767.5436748346
 30
0.0
  0
VERTEX
  5
5DB
330
195
100
AcDbEntity
  8
0
  6
CONTINUOUS
 62
     7
100
AcDbVertex
100
AcDb2dVertex
 10
696.7368562847
 20
1764.9769217821
 30
0.0
  0
VERTEX
  5
5DC
330
195
100
AcDbEntity
  8
0
  6
CONTINUOUS
 62
     7
100
AcDbVertex
100
AcDb2dVertex
 10
703.2750734196
 20
1762.3972745704
 30
0.0
  0
VERTEX
  5
5DD
330
195
100
AcDbEntity
  8
0
  6
CONTINUOUS
 62
     7
100
AcDbVertex
100
AcDb2dVertex
 10
709.177773117
 20
1759.838144676
 30
0.0
  0
VERTEX
  5
5DE
330
195
100
AcDbEntity
  8
0
  6
CONTINUOUS
 62
     7
100
AcDbVertex
100
AcDb2dVertex
 10
714.4483433065
 20
1757.3257998565
 30
0.0
  0
VERTEX
  5
5DF
330
195
100
AcDbEntity
  8
0
  6
CONTINUOUS
 62
     7
100
AcDbVertex
100
AcDb2dVertex
 10
718.9874727878
 20
1754.922445276
 30
0.0
  0
VERTEX
  5
5E0
330
195
100
AcDbEntity
  8
0
  6
CONTINUOUS
 62
     7
100
AcDbVertex
100
AcDb2dVertex
 10
722.7540931693
 20
1752.6656615519
 30
0.0
  0
VERTEX
  5
5E1
330
195
100
AcDbEntity
  8
0
  6
CONTINUOUS
 62
     7
100
AcDbVertex
100
AcDb2dVertex
 10
725.743623141
 20
1750.5685152193
 30
0.0
  0
VERTEX
  5
5E2
330
195
100
AcDbEntity
  8
0
  6
CONTINUOUS
 62
     7
100
AcDbVertex
100
AcDb2dVertex
 10
727.9290616135
 20
1748.654085324
 30
0.0
  0
VERTEX
  5
5E3
330
195
100
AcDbEntity
  8
0
  6
CONTINUOUS
 62
     7
100
AcDbVertex
100
AcDb2dVertex
 10
729.2539652095
 20
1746.9767680476
 30
0.0
  0
SEQEND
  5
68A
330
195
100
AcDbEntity
  8
0
  6
CONTINUOUS
 62
     7
  0
POLYLINE
  5
196
330
1F
100
AcDbEntity
  8
0
  6
CONTINUOUS
 62
     7
100
AcDb2dPolyline
 66
     1
 10
0.0
 20
0.0
 30
0.0
 70
   128
  0
VERTEX
  5
5E4
330
196
100
AcDbEntity
  8
0
  6
CONTINUOUS
 62
     7
100
AcDbVertex
100
AcDb2dVertex
 10
347.9424794389
 20
1707.7263750051
 30
0.0
  0
VERTEX
  5
5E5
330
196
100
AcDbEntity
  8
0
  6
CONTINUOUS
 62
     7
100
AcDbVertex
100
AcDb2dVertex
 10
347.5558472406
 20
1700.7185425644
 30
0.0
  0
VERTEX
  5
5E6
330
196
100
AcDbEntity
  8
0
  6
CONTINUOUS
 62
     7
100
AcDbVertex
100
AcDb2dVertex
 10
347.1355315917
 20
1693.5960782109
 30
0.0
  0
VERTEX
  5
5E7
330
196
100
AcDbEntity
  8
0
  6
CONTINUOUS
 62
     7
100
AcDbVertex
100
AcDb2dVertex
 10
346.691731717
 20
1686.385950139
 30
0.0
  0
VERTEX
  5
5E8
330
196
100
AcDbEntity
  8
0
  6
CONTINUOUS
 62
     7
100
AcDbVertex
100
AcDb2dVertex
 10
346.0010634005
 20
1675.4761806192
 30
0.0
  0
VERTEX
  5
5E9
330
196
100
AcDbEntity
  8
0
  6
CONTINUOUS
 62
     7
100
AcDbVertex
100
AcDb2dVertex
 10
345.2967381991
 20
1664.6440748786
 30
0.0
  0
SEQEND
  5
68B
330
196
100
AcDbEntity
  8
0
  6
CONTINUOUS
 62
     7
  0
POLYLINE
  5
197
330
1F
100
AcDbEntity
  8
0
  6
CONTINUOUS
 62
     7
100
AcDb2dPolyline
 66
     1
 10
0.0
 20
0.0
 30
0.0
 70
   128
  0
VERTEX
  5
5EA
330
197
100
AcDbEntity
  8
0
  6
CONTINUOUS
 62
     7
100
AcDbVertex
100
AcDb2dVertex
 10
345.2967381991
 20
1664.6440748786
 30
0.0
  0
VERTEX
  5
5EB
330
197
100
AcDbEntity
  8
0
  6
CONTINUOUS
 62
     7
100
AcDbVertex
100
AcDb2dVertex
 10
344.3487254419
 20
1649.6506408679
 30
0.0
  0
VERTEX
  5
5EC
330
197
100
AcDbEntity
  8
0
  6
CONTINUOUS
 62
     7
100
AcDbVertex
100
AcDb2dVertex
 10
343.522841664
 20
1634.9630241794
 30
0.0
  0
VERTEX
  5
5ED
330
197
100
AcDbEntity
  8
0
  6
CONTINUOUS
 62
     7
100
AcDbVertex
100
AcDb2dVertex
 10
342.8361254829
 20
1620.4642028738
 30
0.0
  0
VERTEX
  5
5EE
330
197
100
AcDbEntity
  8
0
  6
CONTINUOUS
 62
     7
100
AcDbVertex
100
AcDb2dVertex
 10
342.2785434251
 20
1605.9875729609
 30
0.0
  0
VERTEX
  5
5EF
330
197
100
AcDbEntity
  8
0
  6
CONTINUOUS
 62
     7
100
AcDbVertex
100
AcDb2dVertex
 10
341.8477347418
 20
1591.5246744335
 30
0.0
  0
VERTEX
  5
5F0
330
197
100
AcDbEntity
  8
0
  6
CONTINUOUS
 62
     7
100
AcDbVertex
100
AcDb2dVertex
 10
341.528131111
 20
1577.0726910015
 30
0.0
  0
VERTEX
  5
5F1
330
197
100
AcDbEntity
  8
0
  6
CONTINUOUS
 62
     7
100
AcDbVertex
100
AcDb2dVertex
 10
341.3112600059
 20
1562.6473128031
 30
0.0
  0
VERTEX
  5
5F2
330
197
100
AcDbEntity
  8
0
  6
CONTINUOUS
 62
     7
100
AcDbVertex
100
AcDb2dVertex
 10
341.2204531231
 20
1529.1164306925
 30
0.0
  0
VERTEX
  5
5F3
330
197
100
AcDbEntity
  8
0
  6
CONTINUOUS
 62
     7
100
AcDbVertex
100
AcDb2dVertex
 10
341.7039060733
 20
1495.5931965495
 30
0.0
  0
VERTEX
  5
5F4
330
197
100
AcDbEntity
  8
0
  6
CONTINUOUS
 62
     7
100
AcDbVertex
100
AcDb2dVertex
 10
342.7566786323
 20
1462.0338495816
 30
0.0
  0
SEQEND
  5
68C
330
197
100
AcDbEntity
  8
0
  6
CONTINUOUS
 62
     7
  0
LINE
  5
198
330
1F
100
AcDbEntity
  8
0
  6
CONTINUOUS
 62
     7
100
AcDbLine
 10
342.7566786323
 20
1462.0338495816
 30
0.0
 11
344.0952638803
 21
1430.5307770902
 31
0.0
  0
ARC
  5
199
330
1F
100
AcDbEntity
  8
0
  6
CONTINUOUS
 62
     7
100
AcDbCircle
 10
413.9186412361
 20
1432.6685790828
 30
0.0
 40
69.85609653227623
100
AcDbArc
 50
181.75369316
 51
210.5907306284
  0
ARC
  5
19A
330
1F
100
AcDbEntity
  8
0
  6
CONTINUOUS
 62
     7
100
AcDbCircle
 10
681.4753686964
 20
1432.80836776
 30
0.0
 40
70.35594388392528
100
AcDbArc
 50
329.5077885461
 51
358.1448918314
  0
LINE
  5
19B
330
1F
100
AcDbEntity
  8
0
  6
CONTINUOUS
 62
     7
100
AcDbLine
 10
751.7944380864
 20
1430.5307988977
 30
0.0
 11
753.1326026007
 21
1462.0338808743
 31
0.0
  0
POLYLINE
  5
19C
330
1F
100
AcDbEntity
  8
0
  6
CONTINUOUS
 62
     7
100
AcDb2dPolyline
 66
     1
 10
0.0
 20
0.0
 30
0.0
 70
   128
  0
VERTEX
  5
5F5
330
19C
100
AcDbEntity
  8
0
  6
CONTINUOUS
 62
     7
100
AcDbVertex
100
AcDb2dVertex
 10
753.1326026007
 20
1462.0338808743
 30
0.0
  0
VERTEX
  5
5F6
330
19C
100
AcDbEntity
  8
0
  6
CONTINUOUS
 62
     7
100
AcDbVertex
100
AcDb2dVertex
 10
754.1849022198
 20
1495.5897577319
 30
0.0
  0
VERTEX
  5
5F7
330
19C
100
AcDbEntity
  8
0
  6
CONTINUOUS
 62
     7
100
AcDbVertex
100
AcDb2dVertex
 10
754.6681855185
 20
1529.11270738
 30
0.0
  0
VERTEX
  5
5F8
330
19C
100
AcDbEntity
  8
0
  6
CONTINUOUS
 62
     7
100
AcDbVertex
100
AcDb2dVertex
 10
754.577312475
 20
1562.6470866165
 30
0.0
  0
VERTEX
  5
5F9
330
19C
100
AcDbEntity
  8
0
  6
CONTINUOUS
 62
     7
100
AcDbVertex
100
AcDb2dVertex
 10
754.3604344803
 20
1577.0726385606
 30
0.0
  0
VERTEX
  5
5FA
330
19C
100
AcDbEntity
  8
0
  6
CONTINUOUS
 62
     7
100
AcDbVertex
100
AcDb2dVertex
 10
754.040890898
 20
1591.5229536965
 30
0.0
  0
VERTEX
  5
5FB
330
19C
100
AcDbEntity
  8
0
  6
CONTINUOUS
 62
     7
100
AcDbVertex
100
AcDb2dVertex
 10
753.6101982729
 20
1605.9844638667
 30
0.0
  0
VERTEX
  5
5FC
330
19C
100
AcDbEntity
  8
0
  6
CONTINUOUS
 62
     7
100
AcDbVertex
100
AcDb2dVertex
 10
753.0527811958
 20
1620.4602390772
 30
0.0
  0
VERTEX
  5
5FD
330
19C
100
AcDbEntity
  8
0
  6
CONTINUOUS
 62
     7
100
AcDbVertex
100
AcDb2dVertex
 10
752.3662686052
 20
1634.9588351378
 30
0.0
  0
VERTEX
  5
5FE
330
19C
100
AcDbEntity
  8
0
  6
CONTINUOUS
 62
     7
100
AcDbVertex
100
AcDb2dVertex
 10
751.5405328044
 20
1649.6473543724
 30
0.0
  0
VERTEX
  5
5FF
330
19C
100
AcDbEntity
  8
0
  6
CONTINUOUS
 62
     7
100
AcDbVertex
100
AcDb2dVertex
 10
750.5924874752
 20
1664.6442836154
 30
0.0
  0
SEQEND
  5
68D
330
19C
100
AcDbEntity
  8
0
  6
CONTINUOUS
 62
     7
  0
POLYLINE
  5
19D
330
1F
100
AcDbEntity
  8
0
  6
CONTINUOUS
 62
     7
100
AcDb2dPolyline
 66
     1
 10
0.0
 20
0.0
 30
0.0
 70
   128
  0
VERTEX
  5
600
330
19D
100
AcDbEntity
  8
0
  6
CONTINUOUS
 62
     7
100
AcDbVertex
100
AcDb2dVertex
 10
750.5924874752
 20
1664.6442836154
 30
0.0
  0
VERTEX
  5
601
330
19D
100
AcDbEntity
  8
0
  6
CONTINUOUS
 62
     7
100
AcDbVertex
100
AcDb2dVertex
 10
749.8935064875
 20
1675.3945794937
 30
0.0
  0
VERTEX
  5
602
330
19D
100
AcDbEntity
  8
0
  6
CONTINUOUS
 62
     7
100
AcDbVertex
100
AcDb2dVertex
 10
749.2062777798
 20
1686.2493014016
 30
0.0
  0
VERTEX
  5
603
330
19D
100
AcDbEntity
  8
0
  6
CONTINUOUS
 62
     7
100
AcDbVertex
100
AcDb2dVertex
 10
748.7601589768
 20
1693.4945853217
 30
0.0
  0
VERTEX
  5
604
330
19D
100
AcDbEntity
  8
0
  6
CONTINUOUS
 62
     7
100
AcDbVertex
100
AcDb2dVertex
 10
748.3349448402
 20
1700.698953034
 30
0.0
  0
VERTEX
  5
605
330
19D
100
AcDbEntity
  8
0
  6
CONTINUOUS
 62
     7
100
AcDbVertex
100
AcDb2dVertex
 10
747.9478132526
 20
1707.7163088134
 30
0.0
  0
SEQEND
  5
68E
330
19D
100
AcDbEntity
  8
0
  6
CONTINUOUS
 62
     7
  0
POLYLINE
  5
19E
330
1F
100
AcDbEntity
  8
0
  6
CONTINUOUS
 62
     7
100
AcDb2dPolyline
 66
     1
 10
0.0
 20
0.0
 30
0.0
 70
   128
  0
VERTEX
  5
606
330
19E
100
AcDbEntity
  8
0
  6
CONTINUOUS
 62
     7
100
AcDbVertex
100
AcDb2dVertex
 10
729.2539652095
 20
1746.9767680476
 30
0.0
  0
VERTEX
  5
607
330
19E
100
AcDbEntity
  8
0
  6
CONTINUOUS
 62
     7
100
AcDbVertex
100
AcDb2dVertex
 10
730.8510204029
 20
1744.2029762794
 30
0.0
  0
VERTEX
  5
608
330
19E
100
AcDbEntity
  8
0
  6
CONTINUOUS
 62
     7
100
AcDbVertex
100
AcDb2dVertex
 10
732.4179578374
 20
1741.5797878528
 30
0.0
  0
VERTEX
  5
609
330
19E
100
AcDbEntity
  8
0
  6
CONTINUOUS
 62
     7
100
AcDbVertex
100
AcDb2dVertex
 10
733.9304098159
 20
1739.2560458652
 30
0.0
  0
VERTEX
  5
60A
330
19E
100
AcDbEntity
  8
0
  6
CONTINUOUS
 62
     7
100
AcDbVertex
100
AcDb2dVertex
 10
735.3614589315
 20
1737.5447880405
 30
0.0
  0
VERTEX
  5
60B
330
19E
100
AcDbEntity
  8
0
  6
CONTINUOUS
 62
     7
100
AcDbVertex
100
AcDb2dVertex
 10
736.7289284395
 20
1736.7697030305
 30
0.0
  0
VERTEX
  5
60C
330
19E
100
AcDbEntity
  8
0
  6
CONTINUOUS
 62
     7
100
AcDbVertex
100
AcDb2dVertex
 10
738.0720409867
 20
1736.9370025725
 30
0.0
  0
VERTEX
  5
60D
330
19E
100
AcDbEntity
  8
0
  6
CONTINUOUS
 62
     7
100
AcDbVertex
100
AcDb2dVertex
 10
739.3971224327
 20
1737.8904649066
 30
0.0
  0
VERTEX
  5
60E
330
19E
100
AcDbEntity
  8
0
  6
CONTINUOUS
 62
     7
100
AcDbVertex
100
AcDb2dVertex
 10
740.4801956027
 20
1739.1034840345
 30
0.0
  0
VERTEX
  5
60F
330
19E
100
AcDbEntity
  8
0
  6
CONTINUOUS
 62
     7
100
AcDbVertex
100
AcDb2dVertex
 10
741.5784880738
 20
1740.3811597843
 30
0.0
  0
VERTEX
  5
610
330
19E
100
AcDbEntity
  8
0
  6
CONTINUOUS
 62
     7
100
AcDbVertex
100
AcDb2dVertex
 10
742.6854045256
 20
1741.2991368164
 30
0.0
  0
VERTEX
  5
611
330
19E
100
AcDbEntity
  8
0
  6
CONTINUOUS
 62
     7
100
AcDbVertex
100
AcDb2dVertex
 10
743.3290694885
 20
1741.4603172091
 30
0.0
  0
VERTEX
  5
612
330
19E
100
AcDbEntity
  8
0
  6
CONTINUOUS
 62
     7
100
AcDbVertex
100
AcDb2dVertex
 10
743.9574869761
 20
1741.1921948469
 30
0.0
  0
VERTEX
  5
613
330
19E
100
AcDbEntity
  8
0
  6
CONTINUOUS
 62
     7
100
AcDbVertex
100
AcDb2dVertex
 10
744.5653927176
 20
1740.3532909189
 30
0.0
  0
VERTEX
  5
614
330
19E
100
AcDbEntity
  8
0
  6
CONTINUOUS
 62
     7
100
AcDbVertex
100
AcDb2dVertex
 10
745.1460495543
 20
1738.7403151658
 30
0.0
  0
VERTEX
  5
615
330
19E
100
AcDbEntity
  8
0
  6
CONTINUOUS
 62
     7
100
AcDbVertex
100
AcDb2dVertex
 10
745.657164089
 20
1736.3386282836
 30
0.0
  0
VERTEX
  5
616
330
19E
100
AcDbEntity
  8
0
  6
CONTINUOUS
 62
     7
100
AcDbVertex
100
AcDb2dVertex
 10
746.1505128937
 20
1732.7849295876
 30
0.0
  0
VERTEX
  5
617
330
19E
100
AcDbEntity
  8
0
  6
CONTINUOUS
 62
     7
100
AcDbVertex
100
AcDb2dVertex
 10
746.4667599332
 20
1729.7549533622
 30
0.0
  0
VERTEX
  5
618
330
19E
100
AcDbEntity
  8
0
  6
CONTINUOUS
 62
     7
100
AcDbVertex
100
AcDb2dVertex
 10
746.7770596346
 20
1726.1766695366
 30
0.0
  0
VERTEX
  5
619
330
19E
100
AcDbEntity
  8
0
  6
CONTINUOUS
 62
     7
100
AcDbVertex
100
AcDb2dVertex
 10
747.081084369
 20
1722.0965155787
 30
0.0
  0
VERTEX
  5
61A
330
19E
100
AcDbEntity
  8
0
  6
CONTINUOUS
 62
     7
100
AcDbVertex
100
AcDb2dVertex
 10
747.3783244823
 20
1717.6211943184
 30
0.0
  0
VERTEX
  5
61B
330
19E
100
AcDbEntity
  8
0
  6
CONTINUOUS
 62
     7
100
AcDbVertex
100
AcDb2dVertex
 10
747.6672045349
 20
1712.8175678146
 30
0.0
  0
VERTEX
  5
61C
330
19E
100
AcDbEntity
  8
0
  6
CONTINUOUS
 62
     7
100
AcDbVertex
100
AcDb2dVertex
 10
747.9473238334
 20
1707.716289442
 30
0.0
  0
SEQEND
  5
68F
330
19E
100
AcDbEntity
  8
0
  6
CONTINUOUS
 62
     7
  0
POLYLINE
  5
19F
330
1F
100
AcDbEntity
  8
0
  6
CONTINUOUS
 62
     7
100
AcDb2dPolyline
 66
     1
 10
0.0
 20
0.0
 30
0.0
 70
   128
  0
VERTEX
  5
61D
330
19F
100
AcDbEntity
  8
0
  6
CONTINUOUS
 62
     7
100
AcDbVertex
100
AcDb2dVertex
 10
347.9424794389
 20
1707.7263750051
 30
0.0
  0
VERTEX
  5
61E
330
19F
100
AcDbEntity
  8
0
  6
CONTINUOUS
 62
     7
100
AcDbVertex
100
AcDb2dVertex
 10
348.2238928119
 20
1712.8482363653
 30
0.0
  0
VERTEX
  5
61F
330
19F
100
AcDbEntity
  8
0
  6
CONTINUOUS
 62
     7
100
AcDbVertex
100
AcDb2dVertex
 10
348.514417838
 20
1717.6737573883
 30
0.0
  0
VERTEX
  5
620
330
19F
100
AcDbEntity
  8
0
  6
CONTINUOUS
 62
     7
100
AcDbVertex
100
AcDb2dVertex
 10
348.8136681774
 20
1722.1709096023
 30
0.0
  0
VERTEX
  5
621
330
19F
100
AcDbEntity
  8
0
  6
CONTINUOUS
 62
     7
100
AcDbVertex
100
AcDb2dVertex
 10
349.1193744698
 20
1726.261929067
 30
0.0
  0
VERTEX
  5
622
330
19F
100
AcDbEntity
  8
0
  6
CONTINUOUS
 62
     7
100
AcDbVertex
100
AcDb2dVertex
 10
349.4303906491
 20
1729.8324673257
 30
0.0
  0
VERTEX
  5
623
330
19F
100
AcDbEntity
  8
0
  6
CONTINUOUS
 62
     7
100
AcDbVertex
100
AcDb2dVertex
 10
349.7480497951
 20
1732.8595719398
 30
0.0
  0
VERTEX
  5
624
330
19F
100
AcDbEntity
  8
0
  6
CONTINUOUS
 62
     7
100
AcDbVertex
100
AcDb2dVertex
 10
350.2442040887
 20
1736.4049373025
 30
0.0
  0
VERTEX
  5
625
330
19F
100
AcDbEntity
  8
0
  6
CONTINUOUS
 62
     7
100
AcDbVertex
100
AcDb2dVertex
 10
350.7574769686
 20
1738.7904999115
 30
0.0
  0
VERTEX
  5
626
330
19F
100
AcDbEntity
  8
0
  6
CONTINUOUS
 62
     7
100
AcDbVertex
100
AcDb2dVertex
 10
351.2875490368
 20
1740.2795365444
 30
0.0
  0
VERTEX
  5
627
330
19F
100
AcDbEntity
  8
0
  6
CONTINUOUS
 62
     7
100
AcDbVertex
100
AcDb2dVertex
 10
351.8415587125
 20
1741.1111521977
 30
0.0
  0
VERTEX
  5
628
330
19F
100
AcDbEntity
  8
0
  6
CONTINUOUS
 62
     7
100
AcDbVertex
100
AcDb2dVertex
 10
352.7587533595
 20
1741.454729913
 30
0.0
  0
VERTEX
  5
629
330
19F
100
AcDbEntity
  8
0
  6
CONTINUOUS
 62
     7
100
AcDbVertex
100
AcDb2dVertex
 10
353.7012780364
 20
1740.9693282279
 30
0.0
  0
VERTEX
  5
62A
330
19F
100
AcDbEntity
  8
0
  6
CONTINUOUS
 62
     7
100
AcDbVertex
100
AcDb2dVertex
 10
354.6484010038
 20
1740.0142099602
 30
0.0
  0
VERTEX
  5
62B
330
19F
100
AcDbEntity
  8
0
  6
CONTINUOUS
 62
     7
100
AcDbVertex
100
AcDb2dVertex
 10
355.586430257
 20
1738.8994636631
 30
0.0
  0
VERTEX
  5
62C
330
19F
100
AcDbEntity
  8
0
  6
CONTINUOUS
 62
     7
100
AcDbVertex
100
AcDb2dVertex
 10
356.5124658718
 20
1737.8778415867
 30
0.0
  0
VERTEX
  5
62D
330
19F
100
AcDbEntity
  8
0
  6
CONTINUOUS
 62
     7
100
AcDbVertex
100
AcDb2dVertex
 10
358.0555758329
 20
1736.8498084682
 30
0.0
  0
VERTEX
  5
62E
330
19F
100
AcDbEntity
  8
0
  6
CONTINUOUS
 62
     7
100
AcDbVertex
100
AcDb2dVertex
 10
359.6246500349
 20
1736.922735217
 30
0.0
  0
VERTEX
  5
62F
330
19F
100
AcDbEntity
  8
0
  6
CONTINUOUS
 62
     7
100
AcDbVertex
100
AcDb2dVertex
 10
361.2417736956
 20
1738.3107482913
 30
0.0
  0
VERTEX
  5
630
330
19F
100
AcDbEntity
  8
0
  6
CONTINUOUS
 62
     7
100
AcDbVertex
100
AcDb2dVertex
 10
362.9673588069
 20
1740.7655298896
 30
0.0
  0
VERTEX
  5
631
330
19F
100
AcDbEntity
  8
0
  6
CONTINUOUS
 62
     7
100
AcDbVertex
100
AcDb2dVertex
 10
364.7808482759
 20
1743.7578080117
 30
0.0
  0
VERTEX
  5
632
330
19F
100
AcDbEntity
  8
0
  6
CONTINUOUS
 62
     7
100
AcDbVertex
100
AcDb2dVertex
 10
366.6402192725
 20
1746.9783674965
 30
0.0
  0
SEQEND
  5
690
330
19F
100
AcDbEntity
  8
0
  6
CONTINUOUS
 62
     7
  0
LINE
  5
1A0
330
1F
100
AcDbEntity
  8
0
  6
CONTINUOUS
 62
     7
100
AcDbLine
 10
791.8056289219
 20
1387.3372053858
 30
0.0
 11
781.5199146362
 21
1348.682269328
 31
0.0
  0
LINE
  5
1A1
330
1F
100
AcDbEntity
  8
0
  6
CONTINUOUS
 62
     7
100
AcDbLine
 10
804.029392997
 20
1384.0845769354
 30
0.0
 11
803.5875403288
 21
1384.2021497673
 31
0.0
  0
LINE
  5
1A2
330
1F
100
AcDbEntity
  8
0
  6
CONTINUOUS
 62
     7
100
AcDbLine
 10
791.8796498354
 20
1387.3175091181
 30
0.0
 11
791.8056289219
 21
1387.3372053858
 31
0.0
  0
LINE
  5
1A3
330
1F
100
AcDbEntity
  8
0
  6
CONTINUOUS
 62
     7
100
AcDbLine
 10
804.029392997
 20
1384.0845769354
 30
0.0
 11
793.7436787113
 21
1345.4296408776
 31
0.0
  0
LINE
  5
1A4
330
1F
100
AcDbEntity
  8
0
  6
CONTINUOUS
 62
     7
100
AcDbLine
 10
793.7436787113
 20
1345.4296408776
 30
0.0
 11
793.4300370824
 21
1345.5130979599
 31
0.0
  0
LINE
  5
1A5
330
1F
100
AcDbEntity
  8
0
  6
CONTINUOUS
 62
     7
100
AcDbLine
 10
781.833556265
 20
1348.5988122456
 30
0.0
 11
781.5199146362
 21
1348.682269328
 31
0.0
  0
LINE
  5
1A6
330
1F
100
AcDbEntity
  8
0
  6
CONTINUOUS
 62
     7
100
AcDbLine
 10
794.3933737563
 20
1345.2567631474
 30
0.0
 11
793.7436787113
 21
1345.4296408776
 31
0.0
  0
LINE
  5
1A7
330
1F
100
AcDbEntity
  8
0
  6
CONTINUOUS
 62
     7
100
AcDbLine
 10
804.679088042
 20
1383.9116992052
 30
0.0
 11
804.029392997
 21
1384.0845769354
 31
0.0
  0
LINE
  5
1A8
330
1F
100
AcDbEntity
  8
0
  6
CONTINUOUS
 62
     7
100
AcDbLine
 10
781.5199146362
 20
1348.682269328
 30
0.0
 11
780.8702195913
 21
1348.8551470582
 31
0.0
  0
LINE
  5
1A9
330
1F
100
AcDbEntity
  8
0
  6
CONTINUOUS
 62
     7
100
AcDbLine
 10
791.8056289219
 20
1387.3372053858
 30
0.0
 11
791.155933877
 21
1387.510083116
 31
0.0
  0
LINE
  5
1AA
330
1F
100
AcDbEntity
  8
0
  6
CONTINUOUS
 62
     7
100
AcDbLine
 10
804.6821247696
 20
1383.9108911606
 30
0.0
 11
794.3964104839
 21
1345.2559551028
 31
0.0
  0
LINE
  5
1AB
330
1F
100
AcDbEntity
  8
0
  6
CONTINUOUS
 62
     7
100
AcDbLine
 10
794.3964104839
 20
1345.2559551028
 30
0.0
 11
794.3933737563
 21
1345.2567631474
 31
0.0
  0
LINE
  5
1AC
330
1F
100
AcDbEntity
  8
0
  6
CONTINUOUS
 62
     7
100
AcDbLine
 10
804.6821247696
 20
1383.9108911606
 30
0.0
 11
804.679088042
 21
1383.9116992052
 31
0.0
  0
LINE
  5
1AD
330
1F
100
AcDbEntity
  8
0
  6
CONTINUOUS
 62
     7
100
AcDbLine
 10
791.1528971494
 20
1387.5108911606
 30
0.0
 11
780.8671828637
 21
1348.8559551028
 31
0.0
  0
LINE
  5
1AE
330
1F
100
AcDbEntity
  8
0
  6
CONTINUOUS
 62
     7
100
AcDbLine
 10
780.8702195913
 20
1348.8551470582
 30
0.0
 11
780.8671828637
 21
1348.8559551028
 31
0.0
  0
LINE
  5
1AF
330
1F
100
AcDbEntity
  8
0
  6
CONTINUOUS
 62
     7
100
AcDbLine
 10
791.155933877
 20
1387.510083116
 30
0.0
 11
791.1528971494
 21
1387.5108911606
 31
0.0
  0
LINE
  5
1B0
330
1F
100
AcDbEntity
  8
0
  6
CONTINUOUS
 62
     7
100
AcDbLine
 10
800.101357716
 20
1749.3584828682
 30
0.0
 11
799.6426654968
 21
1789.3558527998
 31
0.0
  0
LINE
  5
1B1
330
1F
100
AcDbEntity
  8
0
  6
CONTINUOUS
 62
     7
100
AcDbLine
 10
787.4530787759
 20
1749.2134316524
 30
0.0
 11
787.7776127562
 21
1749.2171534274
 31
0.0
  0
LINE
  5
1B2
330
1F
100
AcDbEntity
  8
0
  6
CONTINUOUS
 62
     7
100
AcDbLine
 10
799.7768237357
 20
1749.3547610932
 30
0.0
 11
800.101357716
 21
1749.3584828682
 31
0.0
  0
LINE
  5
1B3
330
1F
100
AcDbEntity
  8
0
  6
CONTINUOUS
 62
     7
100
AcDbLine
 10
787.4530787759
 20
1749.2134316524
 30
0.0
 11
787.1485182322
 21
1775.7707182738
 31
0.0
  0
LINE
  5
1B4
330
1F
100
AcDbEntity
  8
0
  6
CONTINUOUS
 62
     7
100
AcDbLine
 10
799.3181315165
 20
1789.3521310248
 30
0.0
 11
799.6426654968
 21
1789.3558527998
 31
0.0
  0
LINE
  5
1B5
330
1F
100
AcDbEntity
  8
0
  6
CONTINUOUS
 62
     7
100
AcDbLine
 10
786.7817578137
 20
1749.2057329037
 30
0.0
 11
787.4530787759
 21
1749.2134316524
 31
0.0
  0
LINE
  5
1B6
330
1F
100
AcDbEntity
  8
0
  6
CONTINUOUS
 62
     7
100
AcDbLine
 10
800.101357716
 20
1749.3584828682
 30
0.0
 11
800.7726786782
 21
1749.3661816169
 31
0.0
  0
LINE
  5
1B7
330
1F
100
AcDbEntity
  8
0
  6
CONTINUOUS
 62
     7
100
AcDbLine
 10
799.6426654968
 20
1789.3558527998
 30
0.0
 11
800.313986459
 21
1789.3635515486
 31
0.0
  0
LINE
  5
1B8
330
1F
100
AcDbEntity
  8
0
  6
CONTINUOUS
 62
     7
100
AcDbLine
 10
786.7776785079
 20
1749.2056861219
 30
0.0
 11
786.501502837
 21
1773.2878484395
 31
0.0
  0
LINE
  5
1B9
330
1F
100
AcDbEntity
  8
0
  6
CONTINUOUS
 62
     7
100
AcDbLine
 10
786.7776785079
 20
1749.2056861219
 30
0.0
 11
786.7817578137
 21
1749.2057329037
 31
0.0
  0
LINE
  5
1BA
330
1F
100
AcDbEntity
  8
0
  6
CONTINUOUS
 62
     7
100
AcDbLine
 10
800.776757984
 20
1749.3662283987
 30
0.0
 11
800.3180657648
 21
1789.3635983303
 31
0.0
  0
LINE
  5
1BB
330
1F
100
AcDbEntity
  8
0
  6
CONTINUOUS
 62
     7
100
AcDbLine
 10
800.7726786782
 20
1749.3661816169
 30
0.0
 11
800.776757984
 21
1749.3662283987
 31
0.0
  0
LINE
  5
1BC
330
1F
100
AcDbEntity
  8
0
  6
CONTINUOUS
 62
     7
100
AcDbLine
 10
800.313986459
 20
1789.3635515486
 30
0.0
 11
800.3180657648
 21
1789.3635983303
 31
0.0
  0
LINE
  5
1BD
330
1F
100
AcDbEntity
  8
0
  6
CONTINUOUS
 62
     7
100
AcDbLine
 10
291.8616309024
 20
1384.0845769354
 30
0.0
 11
302.1473451881
 21
1345.4296408776
 31
0.0
  0
LINE
  5
1BE
330
1F
100
AcDbEntity
  8
0
  6
CONTINUOUS
 62
     7
100
AcDbLine
 10
291.8616309024
 20
1384.0845769354
 30
0.0
 11
292.3034835706
 21
1384.2021497673
 31
0.0
  0
LINE
  5
1BF
330
1F
100
AcDbEntity
  8
0
  6
CONTINUOUS
 62
     7
100
AcDbLine
 10
304.011374064
 20
1387.3175091181
 30
0.0
 11
304.0853949775
 21
1387.3372053858
 31
0.0
  0
LINE
  5
1C0
330
1F
100
AcDbEntity
  8
0
  6
CONTINUOUS
 62
     7
100
AcDbLine
 10
304.0853949775
 20
1387.3372053858
 30
0.0
 11
314.3711092632
 21
1348.682269328
 31
0.0
  0
LINE
  5
1C1
330
1F
100
AcDbEntity
  8
0
  6
CONTINUOUS
 62
     7
100
AcDbLine
 10
302.1473451881
 20
1345.4296408776
 30
0.0
 11
302.460986817
 21
1345.5130979599
 31
0.0
  0
LINE
  5
1C2
330
1F
100
AcDbEntity
  8
0
  6
CONTINUOUS
 62
     7
100
AcDbLine
 10
314.0574676344
 20
1348.5988122456
 30
0.0
 11
314.3711092632
 21
1348.682269328
 31
0.0
  0
LINE
  5
1C3
330
1F
100
AcDbEntity
  8
0
  6
CONTINUOUS
 62
     7
100
AcDbLine
 10
291.2119358574
 20
1383.9116992052
 30
0.0
 11
291.8616309024
 21
1384.0845769354
 31
0.0
  0
LINE
  5
1C4
330
1F
100
AcDbEntity
  8
0
  6
CONTINUOUS
 62
     7
100
AcDbLine
 10
301.4976501431
 20
1345.2567631474
 30
0.0
 11
302.1473451881
 21
1345.4296408776
 31
0.0
  0
LINE
  5
1C5
330
1F
100
AcDbEntity
  8
0
  6
CONTINUOUS
 62
     7
100
AcDbLine
 10
314.3711092632
 20
1348.682269328
 30
0.0
 11
315.0208043081
 21
1348.8551470582
 31
0.0
  0
LINE
  5
1C6
330
1F
100
AcDbEntity
  8
0
  6
CONTINUOUS
 62
     7
100
AcDbLine
 10
304.0853949775
 20
1387.3372053858
 30
0.0
 11
304.7350900224
 21
1387.510083116
 31
0.0
  0
LINE
  5
1C7
330
1F
100
AcDbEntity
  8
0
  6
CONTINUOUS
 62
     7
100
AcDbLine
 10
291.2088991298
 20
1383.9108911606
 30
0.0
 11
301.4946134155
 21
1345.2559551028
 31
0.0
  0
LINE
  5
1C8
330
1F
100
AcDbEntity
  8
0
  6
CONTINUOUS
 62
     7
100
AcDbLine
 10
301.4946134155
 20
1345.2559551028
 30
0.0
 11
301.4976501431
 21
1345.2567631474
 31
0.0
  0
LINE
  5
1C9
330
1F
100
AcDbEntity
  8
0
  6
CONTINUOUS
 62
     7
100
AcDbLine
 10
291.2088991298
 20
1383.9108911606
 30
0.0
 11
291.2119358574
 21
1383.9116992052
 31
0.0
  0
LINE
  5
1CA
330
1F
100
AcDbEntity
  8
0
  6
CONTINUOUS
 62
     7
100
AcDbLine
 10
304.73812675
 20
1387.5108911606
 30
0.0
 11
315.0238410357
 21
1348.8559551028
 31
0.0
  0
LINE
  5
1CB
330
1F
100
AcDbEntity
  8
0
  6
CONTINUOUS
 62
     7
100
AcDbLine
 10
315.0208043081
 20
1348.8551470582
 30
0.0
 11
315.0238410357
 21
1348.8559551028
 31
0.0
  0
LINE
  5
1CC
330
1F
100
AcDbEntity
  8
0
  6
CONTINUOUS
 62
     7
100
AcDbLine
 10
304.7350900224
 20
1387.510083116
 30
0.0
 11
304.73812675
 21
1387.5108911606
 31
0.0
  0
LINE
  5
1CD
330
1F
100
AcDbEntity
  8
0
  6
CONTINUOUS
 62
     7
100
AcDbLine
 10
309.1092660857
 20
1749.2057329037
 30
0.0
 11
308.4379451234
 21
1749.2134316524
 31
0.0
  0
LINE
  5
1CE
330
1F
100
AcDbEntity
  8
0
  6
CONTINUOUS
 62
     7
100
AcDbLine
 10
308.4379451234
 20
1749.2134316524
 30
0.0
 11
308.7425056672
 21
1775.7707182738
 31
0.0
  0
LINE
  5
1CF
330
1F
100
AcDbEntity
  8
0
  6
CONTINUOUS
 62
     7
100
AcDbLine
 10
295.7896661834
 20
1749.3584828682
 30
0.0
 11
296.2483584026
 21
1789.3558527998
 31
0.0
  0
LINE
  5
1D0
330
1F
100
AcDbEntity
  8
0
  6
CONTINUOUS
 62
     7
100
AcDbLine
 10
296.2483584026
 20
1789.3558527998
 30
0.0
 11
295.5770374404
 21
1789.3635515486
 31
0.0
  0
LINE
  5
1D1
330
1F
100
AcDbEntity
  8
0
  6
CONTINUOUS
 62
     7
100
AcDbLine
 10
295.7896661834
 20
1749.3584828682
 30
0.0
 11
295.1183452212
 21
1749.3661816169
 31
0.0
  0
LINE
  5
1D2
330
1F
100
AcDbEntity
  8
0
  6
CONTINUOUS
 62
     7
100
AcDbLine
 10
296.5728923829
 20
1789.3521310248
 30
0.0
 11
296.2483584026
 21
1789.3558527998
 31
0.0
  0
LINE
  5
1D3
330
1F
100
AcDbEntity
  8
0
  6
CONTINUOUS
 62
     7
100
AcDbLine
 10
308.4379451234
 20
1749.2134316524
 30
0.0
 11
308.1134111432
 21
1749.2171534274
 31
0.0
  0
LINE
  5
1D4
330
1F
100
AcDbEntity
  8
0
  6
CONTINUOUS
 62
     7
100
AcDbLine
 10
296.1142001637
 20
1749.3547610932
 30
0.0
 11
295.7896661834
 21
1749.3584828682
 31
0.0
  0
LINE
  5
1D5
330
1F
100
AcDbEntity
  8
0
  6
CONTINUOUS
 62
     7
100
AcDbLine
 10
295.1142659154
 20
1749.3662283987
 30
0.0
 11
295.5729581346
 21
1789.3635983303
 31
0.0
  0
LINE
  5
1D6
330
1F
100
AcDbEntity
  8
0
  6
CONTINUOUS
 62
     7
100
AcDbLine
 10
295.5770374404
 20
1789.3635515486
 30
0.0
 11
295.5729581346
 21
1789.3635983303
 31
0.0
  0
LINE
  5
1D7
330
1F
100
AcDbEntity
  8
0
  6
CONTINUOUS
 62
     7
100
AcDbLine
 10
295.1183452212
 20
1749.3661816169
 30
0.0
 11
295.1142659154
 21
1749.3662283987
 31
0.0
  0
LINE
  5
1D8
330
1F
100
AcDbEntity
  8
0
  6
CONTINUOUS
 62
     7
100
AcDbLine
 10
309.1133453915
 20
1749.2056861219
 30
0.0
 11
309.3895210624
 21
1773.2878484395
 31
0.0
  0
LINE
  5
1D9
330
1F
100
AcDbEntity
  8
0
  6
CONTINUOUS
 62
     7
100
AcDbLine
 10
309.1133453915
 20
1749.2056861219
 30
0.0
 11
309.1092660857
 21
1749.2057329037
 31
0.0
  0
ELLIPSE
  5
1DA
330
1F
100
AcDbEntity
  8
0
  6
CONTINUOUS
 62
     7
100
AcDbEllipse
 10
333.0669381307
 20
1377.1907473597
 30
0.0
 11
5.424602692560654
 21
4.07460983204669
 31
0.0
210
0.0
220
0.0
230
1.0
 40
0.8119056387
 41
4.164757657696923
 42
5.458927069373495
  0
ELLIPSE
  5
1DB
330
1F
100
AcDbEntity
  8
0
  6
CONTINUOUS
 62
     7
100
AcDbEllipse
 10
333.0669381307
 20
1377.1907473597
 30
0.0
 11
-3.847735876174227
 21
5.122561240095591
 31
0.0
210
0.0
220
0.0
230
1.0
 40
0.8119056387
 41
2.395054564599738
 42
2.593961330903908
  0
ELLIPSE
  5
1DC
330
1F
100
AcDbEntity
  8
0
  6
CONTINUOUS
 62
     7
100
AcDbEllipse
 10
762.8240857687
 20
1377.1907473597
 30
0.0
 11
5.424602692560598
 21
-4.074609832047146
 31
0.0
210
0.0
220
0.0
230
1.0
 40
0.8119056387
 41
3.965850891395965
 42
5.260020303072542
  0
ELLIPSE
  5
1DD
330
1F
100
AcDbEntity
  8
0
  6
CONTINUOUS
 62
     7
100
AcDbEllipse
 10
762.8240857687
 20
1377.1907473597
 30
0.0
 11
3.847735876174283
 21
5.122561240095592
 31
0.0
210
0.0
220
0.0
230
1.0
 40
0.8119056387
 41
3.689223976275704
 42
3.888130742579873
  0
ENDSEC
  0
SECTION
  2
OBJECTS
  0
DICTIONARY
  5
C
330
0
100
AcDbDictionary
  3
ACAD_GROUP
350
D
  3
ACAD_MLINESTYLE
350
17
  3
ACAD_SCALELIST
350
47
1001
ACAD
1000
TREAT_AS_HARD
1070
     0
  0
DICTIONARY
  5
D
102
{ACAD_REACTORS
330
C
102
}
330
C
100
AcDbDictionary
1001
ACAD
1000
TREAT_AS_HARD
1070
     0
  0
DICTIONARY
  5
17
102
{ACAD_REACTORS
330
C
102
}
330
C
100
AcDbDictionary
  3
STANDARD
350
18
1001
ACAD
1000
TREAT_AS_HARD
1070
     0
  0
DICTIONARY
  5
47
102
{ACAD_REACTORS
330
C
102
}
330
C
100
AcDbDictionary
1001
ACAD
1000
TREAT_AS_HARD
1070
     0
  0
MLINESTYLE
  5
18
102
{ACAD_REACTORS
330
17
102
}
330
17
100
AcDbMlineStyle
  2
Standard
 70
     0
  3

 62
   256
 51
90.0
 52
90.0
 71
     2
 49
0.5
 62
   256
  6
BYLAYER
 49
-0.5
 62
   256
  6
BYLAYER
  0
ENDSEC
  0
EOF
