  0
SECTION
  2
HEADER
  9
$ACADVER
  1
AC1012
  9
$DWGCODEPAGE
  3
ansi_1252
  9
$INSBASE
 10
0.0
 20
0.0
 30
0.0
  9
$EXTMIN
 10
0.0
 20
0.0
 30
0.0
  9
$EXTMAX
 10
2000.0
 20
2000.0
 30
0.0
  9
$LIMMIN
 10
0.0
 20
0.0
  9
$LIMMAX
 10
2000.0
 20
2000.0
  9
$ORTHOMODE
 70
     0
  9
$REGENMODE
 70
     1
  9
$FILLMODE
 70
     1
  9
$QTEXTMODE
 70
     0
  9
$MIRRTEXT
 70
     1
  9
$DRAGMODE
 70
     2
  9
$LTSCALE
 40
1.0
  9
$OSMODE
 70
    37
  9
$ATTMODE
 70
     1
  9
$TEXTSIZE
 40
3.5
  9
$TRACEWID
 40
1.0
  9
$TEXTSTYLE
  7
STANDARD
  9
$CLAYER
  8
0
  9
$CELTYPE
  6
BYLAYER
  9
$CECOLOR
 62
   256
  9
$CELTSCALE
 40
1.0
  9
$DELOBJ
 70
     1
  9
$DISPSILH
 70
     0
  9
$DIMSCALE
 40
1.0
  9
$DIMASZ
 40
3.556
  9
$DIMEXO
 40
1.0
  9
$DIMDLI
 40
3.75
  9
$DIMRND
 40
0.0
  9
$DIMDLE
 40
0.0
  9
$DIMEXE
 40
1.0
  9
$DIMTP
 40
0.0
  9
$DIMTM
 40
0.0
  9
$DIMTXT
 40
3.5
  9
$DIMCEN
 40
2.5
  9
$DIMTSZ
 40
0.0
  9
$DIMTOL
 70
     0
  9
$DIMLIM
 70
     0
  9
$DIMTIH
 70
     1
  9
$DIMTOH
 70
     1
  9
$DIMSE1
 70
     0
  9
$DIMSE2
 70
     0
  9
$DIMTAD
 70
     1
  9
$DIMZIN
 70
     0
  9
$DIMBLK
  1

  9
$DIMASO
 70
     1
  9
$DIMSHO
 70
     1
  9
$DIMPOST
  1

  9
$DIMAPOST
  1

  9
$DIMALT
 70
     0
  9
$DIMALTD
 70
     3
  9
$DIMALTF
 40
0.0393700787
  9
$DIMLFAC
 40
1.0
  9
$DIMTOFL
 70
     1
  9
$DIMTVP
 40
0.0
  9
$DIMTIX
 70
     0
  9
$DIMSOXD
 70
     0
  9
$DIMSAH
 70
     0
  9
$DIMBLK1
  1

  9
$DIMBLK2
  1

  9
$DIMSTYLE
  2
ISO-25
  9
$DIMCLRD
 70
     0
  9
$DIMCLRE
 70
     0
  9
$DIMCLRT
 70
     0
  9
$DIMTFAC
 40
1.0
  9
$DIMGAP
 40
1.524
  9
$DIMJUST
 70
     0
  9
$DIMSD1
 70
     0
  9
$DIMSD2
 70
     0
  9
$DIMTOLJ
 70
     0
  9
$DIMTZIN
 70
     0
  9
$DIMALTZ
 70
     0
  9
$DIMALTTZ
 70
     0
  9
$DIMFIT
 70
     3
  9
$DIMUPT
 70
     0
  9
$DIMUNIT
 70
     2
  9
$DIMDEC
 70
     2
  9
$DIMTDEC
 70
     2
  9
$DIMALTU
 70
     2
  9
$DIMALTTD
 70
     3
  9
$DIMTXSTY
  7
STANDARD
  9
$DIMAUNIT
 70
     0
  9
$LUNITS
 70
     2
  9
$LUPREC
 70
     2
  9
$SKETCHINC
 40
1.0
  9
$FILLETRAD
 40
10.0
  9
$AUNITS
 70
     0
  9
$AUPREC
 70
     2
  9
$MENU
  1
.
  9
$ELEVATION
 40
0.0
  9
$PELEVATION
 40
0.0
  9
$THICKNESS
 40
0.0
  9
$LIMCHECK
 70
     0
  9
$CHAMFERA
 40
0.0
  9
$CHAMFERB
 40
0.0
  9
$CHAMFERC
 40
0.0
  9
$CHAMFERD
 40
0.0
  9
$SKPOLY
 70
     0
  9
$TDCREATE
 40
2458597.615598403
  9
$TDUPDATE
 40
2458597.615598403
  9
$TDINDWG
 40
0.0000000116
  9
$TDUSRTIMER
 40
0.0000000116
  9
$USRTIMER
 70
     1
  9
$ANGBASE
 50
0.0
  9
$ANGDIR
 70
     0
  9
$PDMODE
 70
     0
  9
$PDSIZE
 40
-1.0
  9
$PLINEWID
 40
0.0
  9
$COORDS
 70
     1
  9
$SPLFRAME
 70
     0
  9
$SPLINETYPE
 70
     6
  9
$SPLINESEGS
 70
     8
  9
$ATTDIA
 70
     0
  9
$ATTREQ
 70
     1
  9
$HANDLING
 70
     1
  9
$HANDSEED
  5
85D
  9
$SURFTAB1
 70
     6
  9
$SURFTAB2
 70
     6
  9
$SURFTYPE
 70
     6
  9
$SURFU
 70
     6
  9
$SURFV
 70
     6
  9
$UCSNAME
  2

  9
$UCSORG
 10
0.0
 20
0.0
 30
0.0
  9
$UCSXDIR
 10
1.0
 20
0.0
 30
0.0
  9
$UCSYDIR
 10
0.0
 20
1.0
 30
0.0
  9
$PUCSNAME
  2

  9
$PUCSORG
 10
0.0
 20
0.0
 30
0.0
  9
$PUCSXDIR
 10
1.0
 20
0.0
 30
0.0
  9
$PUCSYDIR
 10
0.0
 20
1.0
 30
0.0
  9
$USERI1
 70
     0
  9
$USERI2
 70
     0
  9
$USERI3
 70
     0
  9
$USERI4
 70
     0
  9
$USERI5
 70
     0
  9
$USERR1
 40
0.0
  9
$USERR2
 40
0.0
  9
$USERR3
 40
0.0
  9
$USERR4
 40
0.0
  9
$USERR5
 40
0.0
  9
$WORLDVIEW
 70
     1
  9
$SHADEDGE
 70
     3
  9
$SHADEDIF
 70
    70
  9
$TILEMODE
 70
     1
  9
$MAXACTVP
 70
    64
  9
$PINSBASE
 10
0.0
 20
0.0
 30
0.0
  9
$PLIMCHECK
 70
     0
  9
$PEXTMIN
 10
1.0000000000E+20
 20
1.0000000000E+20
 30
1.0000000000E+20
  9
$PEXTMAX
 10
-1.0000000000E+20
 20
-1.0000000000E+20
 30
-1.0000000000E+20
  9
$PLIMMIN
 10
0.0
 20
0.0
  9
$PLIMMAX
 10
420.0
 20
297.0
  9
$UNITMODE
 70
     0
  9
$VISRETAIN
 70
     1
  9
$PLINEGEN
 70
     0
  9
$PSLTSCALE
 70
     1
  9
$TREEDEPTH
 70
  3020
  9
$PICKSTYLE
 70
     1
  9
$CMLSTYLE
  2
STANDARD
  9
$CMLJUST
 70
     0
  9
$CMLSCALE
 40
20.0
  9
$SAVEIMAGES
 70
     1
  0
ENDSEC
  0
SECTION
  2
CLASSES
  0
CLASS
  1
ACDBDICTIONARYWDFLT
  2
AcDbDictionaryWithDefault
  3
ObjectDBX Classes
 90
    32768
280
     0
281
     0
  0
CLASS
  1
VISUALSTYLE
  2
AcDbVisualStyle
  3
ObjectDBX Classes
 90
     4095
280
     0
281
     0
  0
CLASS
  1
MATERIAL
  2
AcDbMaterial
  3
ObjectDBX Classes
 90
     1153
280
     0
281
     0
  0
CLASS
  1
SCALE
  2
AcDbScale
  3
ObjectDBX Classes
 90
     1153
280
     0
281
     0
  0
CLASS
  1
TABLESTYLE
  2
AcDbTableStyle
  3
ObjectDBX Classes
 90
     4095
280
     0
281
     0
  0
CLASS
  1
MLEADERSTYLE
  2
AcDbMLeaderStyle
  3
ACDB_MLEADERSTYLE_CLASS
 90
     4095
280
     0
281
     0
  0
CLASS
  1
SUN
  2
AcDbSun
  3
SCENEOE
 90
     1153
280
     0
281
     0
  0
CLASS
  1
XRECORD
  2
AcDbXrecord
  3
ObjectDBX Classes
 90
    32768
280
     0
281
     0
  0
ENDSEC
  0
SECTION
  2
TABLES
  0
TABLE
  2
VPORT
  5
8
330
0
100
AcDbSymbolTable
 70
     1
  0
VPORT
  5
29
330
8
100
AcDbSymbolTableRecord
100
AcDbViewportTableRecord
  2
*ACTIVE
 70
     0
 10
0.0
 20
0.0
 11
1.0
 21
1.0
 12
1000.0
 22
1000.0
 13
0.0
 23
0.0
 14
10.0
 24
10.0
 15
10.0
 25
10.0
 16
0.0
 26
0.0
 36
1.0
 17
0.0
 27
0.0
 37
0.0
 40
2000.0
 41
1.0
 42
50.0
 43
0.0
 44
0.0
 50
0.0
 51
0.0
 71
     0
 72
  2000
 73
     1
 74
     3
 75
     0
 76
     0
 77
     0
 78
     0
  0
ENDTAB
  0
TABLE
  2
LTYPE
  5
5
330
0
100
AcDbSymbolTable
 70
     6
  0
LTYPE
  5
14
330
5
100
AcDbSymbolTableRecord
100
AcDbLinetypeTableRecord
  2
BYBLOCK
 70
     0
  3

 72
    65
 73
     0
 40
0.0
  0
LTYPE
  5
15
330
5
100
AcDbSymbolTableRecord
100
AcDbLinetypeTableRecord
  2
BYLAYER
 70
     0
  3

 72
    65
 73
     0
 40
0.0
  0
LTYPE
  5
16
330
5
100
AcDbSymbolTableRecord
100
AcDbLinetypeTableRecord
  2
CONTINUOUS
 70
     0
  3
Solid line
 72
    65
 73
     0
 40
0.0
  0
LTYPE
  5
6E
330
5
100
AcDbSymbolTableRecord
100
AcDbLinetypeTableRecord
  2
HIDDEN
 70
     0
  3
Hidden __ __ __ __ __ __ __ __ __ __ __ __ __ __
 72
    65
 73
     2
 40
1.905
 49
1.27
 74
     0
 49
-0.635
 74
     0
  0
LTYPE
  5
6F
330
5
100
AcDbSymbolTableRecord
100
AcDbLinetypeTableRecord
  2
PHANTOM
 70
     0
  3
Phantom ______  __  __  ______  __  __  ______
 72
    65
 73
     6
 40
12.7
 49
6.35
 74
     0
 49
-1.27
 74
     0
 49
1.27
 74
     0
 49
-1.27
 74
     0
 49
1.27
 74
     0
 49
-1.27
 74
     0
  0
LTYPE
  5
70
330
5
100
AcDbSymbolTableRecord
100
AcDbLinetypeTableRecord
  2
CENTER
 70
     0
  3
Center ____ _ ____ _ ____ _ ____ _ ____ _ ____
 72
    65
 73
     4
 40
10.16
 49
6.35
 74
     0
 49
-1.27
 74
     0
 49
1.27
 74
     0
 49
-1.27
 74
     0
  0
LTYPE
  5
71
330
5
100
AcDbSymbolTableRecord
100
AcDbLinetypeTableRecord
  2
CENTERX2
 70
     0
  3
Center (2x) ________  __  ________  __  _____
 72
    65
 73
     4
 40
20.32
 49
12.7
 74
     0
 49
-2.54
 74
     0
 49
2.54
 74
     0
 49
-2.54
 74
     0
  0
LTYPE
  5
72
330
5
100
AcDbSymbolTableRecord
100
AcDbLinetypeTableRecord
  2
DOT2
 70
     0
  3
Dot (.5x) ........................................
 72
    65
 73
     2
 40
0.635
 49
0.0
 74
     0
 49
-0.635
 74
     0
  0
ENDTAB
  0
TABLE
  2
LAYER
  5
2
330
0
100
AcDbSymbolTable
 70
     1
  0
LAYER
  5
10
330
2
100
AcDbSymbolTableRecord
100
AcDbLayerTableRecord
  2
0
 70
     0
 62
     7
  6
CONTINUOUS
  0
ENDTAB
  0
TABLE
  2
STYLE
  5
3
330
0
100
AcDbSymbolTable
 70
     1
  0
STYLE
  5
11
330
3
100
AcDbSymbolTableRecord
100
AcDbTextStyleTableRecord
  2
STANDARD
 70
     0
 40
0.0
 41
1.0
 50
0.0
 71
     0
 42
3.5
  3
txt
  4

  0
ENDTAB
  0
TABLE
  2
VIEW
  5
6
330
0
100
AcDbSymbolTable
 70
     0
  0
ENDTAB
  0
TABLE
  2
UCS
  5
7
330
0
100
AcDbSymbolTable
 70
     0
  0
ENDTAB
  0
TABLE
  2
APPID
  5
9
330
0
100
AcDbSymbolTable
 70
     1
  0
APPID
  5
12
330
9
100
AcDbSymbolTableRecord
100
AcDbRegAppTableRecord
  2
ACAD
 70
     0
  0
ENDTAB
  0
TABLE
  2
DIMSTYLE
  5
A
330
0
100
AcDbSymbolTable
 70
     1
  0
DIMSTYLE
105
27
330
A
100
AcDbSymbolTableRecord
100
AcDbDimStyleTableRecord
  2
ISO-25
 70
     0
  3

  4

  5

  6

  7

 40
1.0
 41
2.5
 42
0.625
 43
3.75
 44
1.25
 45
0.0
 46
0.0
 47
0.0
 48
0.0
140
2.5
141
2.5
142
0.0
143
0.0393700787
144
1.0
145
0.0
146
1.0
147
0.625
 71
     0
 72
     0
 73
     0
 74
     0
 75
     0
 76
     0
 77
     1
 78
     8
170
     0
171
     3
172
     1
173
     0
174
     0
175
     0
176
     0
177
     0
178
     0
270
     2
271
     2
272
     2
273
     2
274
     3
340
11
275
     0
280
     0
281
     0
282
     0
283
     0
284
     8
285
     0
286
     0
287
     3
288
     0
  0
ENDTAB
  0
TABLE
  2
BLOCK_RECORD
  5
1
330
0
100
AcDbSymbolTable
 70
     1
  0
BLOCK_RECORD
  5
1F
330
1
100
AcDbSymbolTableRecord
100
AcDbBlockTableRecord
  2
*MODEL_SPACE
  0
BLOCK_RECORD
  5
1B
330
1
100
AcDbSymbolTableRecord
100
AcDbBlockTableRecord
  2
*PAPER_SPACE
  0
BLOCK_RECORD
  5
23
330
1
100
AcDbSymbolTableRecord
100
AcDbBlockTableRecord
  2
*PAPER_SPACE0
  0
ENDTAB
  0
ENDSEC
  0
SECTION
  2
BLOCKS
  0
BLOCK
  5
20
330
1F
100
AcDbEntity
  8
0
100
AcDbBlockBegin
  2
*MODEL_SPACE
 70
     0
 10
0.0
 20
0.0
 30
0.0
  3
*MODEL_SPACE
  1

  0
ENDBLK
  5
21
330
1F
100
AcDbEntity
  8
0
100
AcDbBlockEnd
  0
BLOCK
  5
1C
330
1B
100
AcDbEntity
 67
     1
  8
0
100
AcDbBlockBegin
  2
*PAPER_SPACE
 70
     0
 10
0.0
 20
0.0
 30
0.0
  3
*PAPER_SPACE
  1

  0
ENDBLK
  5
1D
330
1B
100
AcDbEntity
 67
     1
  8
0
100
AcDbBlockEnd
  0
BLOCK
  5
24
330
23
100
AcDbEntity
  8
0
100
AcDbBlockBegin
  2
*PAPER_SPACE0
 70
     0
 10
0.0
 20
0.0
 30
0.0
  3
*PAPER_SPACE0
  1

  0
ENDBLK
  5
25
330
23
100
AcDbEntity
  8
0
100
AcDbBlockEnd
  0
ENDSEC
  0
SECTION
  2
ENTITIES
  0
POLYLINE
  5
73
330
1F
100
AcDbEntity
  8
0
  6
CONTINUOUS
 62
     7
100
AcDb2dPolyline
 66
     1
 10
0.0
 20
0.0
 30
0.0
 70
   128
  0
VERTEX
  5
210
330
73
100
AcDbEntity
  8
0
  6
CONTINUOUS
 62
     7
100
AcDbVertex
100
AcDb2dVertex
 10
257.9016225497
 20
824.2429961617
 30
0.0
  0
VERTEX
  5
211
330
73
100
AcDbEntity
  8
0
  6
CONTINUOUS
 62
     7
100
AcDbVertex
100
AcDb2dVertex
 10
256.5137432973
 20
824.1868485863
 30
0.0
  0
VERTEX
  5
212
330
73
100
AcDbEntity
  8
0
  6
CONTINUOUS
 62
     7
100
AcDbVertex
100
AcDb2dVertex
 10
254.0061162869
 20
824.0688313896
 30
0.0
  0
VERTEX
  5
213
330
73
100
AcDbEntity
  8
0
  6
CONTINUOUS
 62
     7
100
AcDbVertex
100
AcDb2dVertex
 10
251.7059283416
 20
823.9374031479
 30
0.0
  0
VERTEX
  5
214
330
73
100
AcDbEntity
  8
0
  6
CONTINUOUS
 62
     7
100
AcDbVertex
100
AcDb2dVertex
 10
249.6244894425
 20
823.7922062332
 30
0.0
  0
VERTEX
  5
215
330
73
100
AcDbEntity
  8
0
  6
CONTINUOUS
 62
     7
100
AcDbVertex
100
AcDb2dVertex
 10
247.7668361823
 20
823.6319889481
 30
0.0
  0
VERTEX
  5
216
330
73
100
AcDbEntity
  8
0
  6
CONTINUOUS
 62
     7
100
AcDbVertex
100
AcDb2dVertex
 10
246.1217777888
 20
823.4515656883
 30
0.0
  0
VERTEX
  5
217
330
73
100
AcDbEntity
  8
0
  6
CONTINUOUS
 62
     7
100
AcDbVertex
100
AcDb2dVertex
 10
244.6327047507
 20
823.2322802002
 30
0.0
  0
VERTEX
  5
218
330
73
100
AcDbEntity
  8
0
  6
CONTINUOUS
 62
     7
100
AcDbVertex
100
AcDb2dVertex
 10
243.3457212607
 20
822.9557742531
 30
0.0
  0
VERTEX
  5
219
330
73
100
AcDbEntity
  8
0
  6
CONTINUOUS
 62
     7
100
AcDbVertex
100
AcDb2dVertex
 10
242.5215082328
 20
822.6981033737
 30
0.0
  0
VERTEX
  5
21A
330
73
100
AcDbEntity
  8
0
  6
CONTINUOUS
 62
     7
100
AcDbVertex
100
AcDb2dVertex
 10
241.8601201932
 20
822.420524543
 30
0.0
  0
VERTEX
  5
21B
330
73
100
AcDbEntity
  8
0
  6
CONTINUOUS
 62
     7
100
AcDbVertex
100
AcDb2dVertex
 10
241.1316024224
 20
822.0170010979
 30
0.0
  0
VERTEX
  5
21C
330
73
100
AcDbEntity
  8
0
  6
CONTINUOUS
 62
     7
100
AcDbVertex
100
AcDb2dVertex
 10
240.352733628
 20
821.4335908348
 30
0.0
  0
VERTEX
  5
21D
330
73
100
AcDbEntity
  8
0
  6
CONTINUOUS
 62
     7
100
AcDbVertex
100
AcDb2dVertex
 10
239.5875440995
 20
820.6340541298
 30
0.0
  0
VERTEX
  5
21E
330
73
100
AcDbEntity
  8
0
  6
CONTINUOUS
 62
     7
100
AcDbVertex
100
AcDb2dVertex
 10
238.9259474437
 20
819.6150531227
 30
0.0
  0
VERTEX
  5
21F
330
73
100
AcDbEntity
  8
0
  6
CONTINUOUS
 62
     7
100
AcDbVertex
100
AcDb2dVertex
 10
238.4611057202
 20
818.4248675758
 30
0.0
  0
VERTEX
  5
220
330
73
100
AcDbEntity
  8
0
  6
CONTINUOUS
 62
     7
100
AcDbVertex
100
AcDb2dVertex
 10
238.252534167
 20
817.134844249
 30
0.0
  0
VERTEX
  5
221
330
73
100
AcDbEntity
  8
0
  6
CONTINUOUS
 62
     7
100
AcDbVertex
100
AcDb2dVertex
 10
238.2440107028
 20
816.812681144
 30
0.0
  0
SEQEND
  5
7E7
330
73
100
AcDbEntity
  8
0
  6
CONTINUOUS
 62
     7
  0
POLYLINE
  5
74
330
1F
100
AcDbEntity
  8
0
  6
CONTINUOUS
 62
     7
100
AcDb2dPolyline
 66
     1
 10
0.0
 20
0.0
 30
0.0
 70
   128
  0
VERTEX
  5
222
330
74
100
AcDbEntity
  8
0
  6
CONTINUOUS
 62
     7
100
AcDbVertex
100
AcDb2dVertex
 10
638.2440166632
 20
816.812681144
 30
0.0
  0
VERTEX
  5
223
330
74
100
AcDbEntity
  8
0
  6
CONTINUOUS
 62
     7
100
AcDbVertex
100
AcDb2dVertex
 10
638.1002055566
 20
818.1288113052
 30
0.0
  0
VERTEX
  5
224
330
74
100
AcDbEntity
  8
0
  6
CONTINUOUS
 62
     7
100
AcDbVertex
100
AcDb2dVertex
 10
637.7004074017
 20
819.329427665
 30
0.0
  0
VERTEX
  5
225
330
74
100
AcDbEntity
  8
0
  6
CONTINUOUS
 62
     7
100
AcDbVertex
100
AcDb2dVertex
 10
637.1256845156
 20
820.3341831619
 30
0.0
  0
VERTEX
  5
226
330
74
100
AcDbEntity
  8
0
  6
CONTINUOUS
 62
     7
100
AcDbVertex
100
AcDb2dVertex
 10
636.4476220767
 20
821.1408724243
 30
0.0
  0
VERTEX
  5
227
330
74
100
AcDbEntity
  8
0
  6
CONTINUOUS
 62
     7
100
AcDbVertex
100
AcDb2dVertex
 10
635.7364790599
 20
821.7552771027
 30
0.0
  0
VERTEX
  5
228
330
74
100
AcDbEntity
  8
0
  6
CONTINUOUS
 62
     7
100
AcDbVertex
100
AcDb2dVertex
 10
635.0468086163
 20
822.2027887756
 30
0.0
  0
VERTEX
  5
229
330
74
100
AcDbEntity
  8
0
  6
CONTINUOUS
 62
     7
100
AcDbVertex
100
AcDb2dVertex
 10
634.3971626918
 20
822.5258459503
 30
0.0
  0
VERTEX
  5
22A
330
74
100
AcDbEntity
  8
0
  6
CONTINUOUS
 62
     7
100
AcDbVertex
100
AcDb2dVertex
 10
633.7675886313
 20
822.7681388313
 30
0.0
  0
VERTEX
  5
22B
330
74
100
AcDbEntity
  8
0
  6
CONTINUOUS
 62
     7
100
AcDbVertex
100
AcDb2dVertex
 10
633.0877678553
 20
822.9701389725
 30
0.0
  0
VERTEX
  5
22C
330
74
100
AcDbEntity
  8
0
  6
CONTINUOUS
 62
     7
100
AcDbVertex
100
AcDb2dVertex
 10
632.2037713687
 20
823.1682052071
 30
0.0
  0
VERTEX
  5
22D
330
74
100
AcDbEntity
  8
0
  6
CONTINUOUS
 62
     7
100
AcDbVertex
100
AcDb2dVertex
 10
630.5535422723
 20
823.4276642258
 30
0.0
  0
VERTEX
  5
22E
330
74
100
AcDbEntity
  8
0
  6
CONTINUOUS
 62
     7
100
AcDbVertex
100
AcDb2dVertex
 10
628.9605336348
 20
823.6084451134
 30
0.0
  0
VERTEX
  5
22F
330
74
100
AcDbEntity
  8
0
  6
CONTINUOUS
 62
     7
100
AcDbVertex
100
AcDb2dVertex
 10
626.9948916594
 20
823.782013839
 30
0.0
  0
VERTEX
  5
230
330
74
100
AcDbEntity
  8
0
  6
CONTINUOUS
 62
     7
100
AcDbVertex
100
AcDb2dVertex
 10
624.8592572371
 20
823.932515567
 30
0.0
  0
VERTEX
  5
231
330
74
100
AcDbEntity
  8
0
  6
CONTINUOUS
 62
     7
100
AcDbVertex
100
AcDb2dVertex
 10
622.5275980393
 20
824.0665068085
 30
0.0
  0
VERTEX
  5
232
330
74
100
AcDbEntity
  8
0
  6
CONTINUOUS
 62
     7
100
AcDbVertex
100
AcDb2dVertex
 10
620.0013594786
 20
824.1856564934
 30
0.0
  0
VERTEX
  5
233
330
74
100
AcDbEntity
  8
0
  6
CONTINUOUS
 62
     7
100
AcDbVertex
100
AcDb2dVertex
 10
618.5864048163
 20
824.2429961617
 30
0.0
  0
SEQEND
  5
7E8
330
74
100
AcDbEntity
  8
0
  6
CONTINUOUS
 62
     7
  0
POLYLINE
  5
75
330
1F
100
AcDbEntity
  8
0
  6
CONTINUOUS
 62
     7
100
AcDb2dPolyline
 66
     1
 10
0.0
 20
0.0
 30
0.0
 70
   128
  0
VERTEX
  5
234
330
75
100
AcDbEntity
  8
0
  6
CONTINUOUS
 62
     7
100
AcDbVertex
100
AcDb2dVertex
 10
238.2440107028
 20
788.0816330368
 30
0.0
  0
VERTEX
  5
235
330
75
100
AcDbEntity
  8
0
  6
CONTINUOUS
 62
     7
100
AcDbVertex
100
AcDb2dVertex
 10
238.3878218095
 20
786.7655624802
 30
0.0
  0
VERTEX
  5
236
330
75
100
AcDbEntity
  8
0
  6
CONTINUOUS
 62
     7
100
AcDbVertex
100
AcDb2dVertex
 10
238.5013835589
 20
786.4245047028
 30
0.0
  0
SEQEND
  5
7E9
330
75
100
AcDbEntity
  8
0
  6
CONTINUOUS
 62
     7
  0
POLYLINE
  5
76
330
1F
100
AcDbEntity
  8
0
  6
CONTINUOUS
 62
     7
100
AcDb2dPolyline
 66
     1
 10
0.0
 20
0.0
 30
0.0
 70
   128
  0
VERTEX
  5
237
330
76
100
AcDbEntity
  8
0
  6
CONTINUOUS
 62
     7
100
AcDbVertex
100
AcDb2dVertex
 10
637.9799382846
 20
786.4256967957
 30
0.0
  0
VERTEX
  5
238
330
76
100
AcDbEntity
  8
0
  6
CONTINUOUS
 62
     7
100
AcDbVertex
100
AcDb2dVertex
 10
638.1381141106
 20
786.9505156929
 30
0.0
  0
VERTEX
  5
239
330
76
100
AcDbEntity
  8
0
  6
CONTINUOUS
 62
     7
100
AcDbVertex
100
AcDb2dVertex
 10
638.2440166632
 20
788.0816330368
 30
0.0
  0
SEQEND
  5
7EA
330
76
100
AcDbEntity
  8
0
  6
CONTINUOUS
 62
     7
  0
LINE
  5
77
330
1F
100
AcDbEntity
  8
0
  6
CONTINUOUS
 62
     7
100
AcDbLine
 10
437.3743501926
 20
780.3022136147
 30
0.0
 11
439.1212613406
 21
780.3022136147
 31
0.0
  0
LINE
  5
78
330
1F
100
AcDbEntity
  8
0
  6
CONTINUOUS
 62
     7
100
AcDbLine
 10
701.7039643685
 20
87.6137943639
 30
0.0
 11
701.4036165635
 21
91.5864581408
 31
0.0
  0
ARC
  5
79
330
1F
100
AcDbEntity
  8
0
  6
CONTINUOUS
 62
     7
100
AcDbCircle
 10
692.3330471646
 20
78.9146461688
 30
0.0
 40
8.000000000000078
100
AcDbArc
 50
22.024312837
 51
55.6663637073
  0
ARC
  5
7A
330
1F
100
AcDbEntity
  8
0
  6
CONTINUOUS
 62
     7
100
AcDbCircle
 10
697.3257830555
 20
86.2612293693
 30
0.0
 40
0.8798674864113049
100
AcDbArc
 50
168.1438249603
 51
236.4242678502
  0
LINE
  5
7B
330
1F
100
AcDbEntity
  8
0
  6
CONTINUOUS
 62
     7
100
AcDbLine
 10
175.0844108025
 20
91.5864581408
 30
0.0
 11
174.7840629975
 21
87.6137943639
 31
0.0
  0
ARC
  5
7C
330
1F
100
AcDbEntity
  8
0
  6
CONTINUOUS
 62
     7
100
AcDbCircle
 10
184.1549802014
 20
78.9146461688
 30
0.0
 40
8.000000000000046
100
AcDbArc
 50
124.3336362927
 51
157.975687163
  0
ARC
  5
7D
330
1F
100
AcDbEntity
  8
0
  6
CONTINUOUS
 62
     7
100
AcDbCircle
 10
179.2123057041
 20
86.2329776488
 30
0.0
 40
0.8230527422191789
100
AcDbArc
 50
305.6109774245
 51
14.9695681831
  0
LINE
  5
7E
330
1F
100
AcDbEntity
  8
0
  6
CONTINUOUS
 62
     7
100
AcDbLine
 10
177.8302179734
 20
91.4920555012
 30
0.0
 11
177.5668548505
 21
87.5068408138
 31
0.0
  0
LINE
  5
7F
330
1F
100
AcDbEntity
  8
0
  6
CONTINUOUS
 62
     7
100
AcDbLine
 10
197.5233094851
 20
86.1880053932
 30
0.0
 11
197.7866726081
 21
90.1732199642
 31
0.0
  0
ARC
  5
80
330
1F
100
AcDbEntity
  8
0
  6
CONTINUOUS
 62
     7
100
AcDbCircle
 10
187.0183456881
 20
78.8769937398
 30
0.0
 40
8.000000000000059
100
AcDbArc
 50
125.0532317898
 51
157.6844928985
  0
POLYLINE
  5
81
330
1F
100
AcDbEntity
  8
0
  6
CONTINUOUS
 62
     7
100
AcDb2dPolyline
 66
     1
 10
0.0
 20
0.0
 30
0.0
 70
   128
  0
VERTEX
  5
23A
330
81
100
AcDbEntity
  8
0
  6
CONTINUOUS
 62
     7
100
AcDbVertex
100
AcDb2dVertex
 10
194.4345371882
 20
81.8769932891
 30
0.0
  0
VERTEX
  5
23B
330
81
100
AcDbEntity
  8
0
  6
CONTINUOUS
 62
     7
100
AcDbVertex
100
AcDb2dVertex
 10
193.6072247187
 20
83.4142455066
 30
0.0
  0
VERTEX
  5
23C
330
81
100
AcDbEntity
  8
0
  6
CONTINUOUS
 62
     7
100
AcDbVertex
100
AcDb2dVertex
 10
192.4349056641
 20
84.7643442618
 30
0.0
  0
SEQEND
  5
7EB
330
81
100
AcDbEntity
  8
0
  6
CONTINUOUS
 62
     7
  0
ARC
  5
82
330
1F
100
AcDbEntity
  8
0
  6
CONTINUOUS
 62
     7
100
AcDbCircle
 10
181.8793580812
 20
86.2238123726
 30
0.0
 40
0.9600728671507972
100
AcDbArc
 50
305.243128143
 51
62.0734619435
  0
ARC
  5
83
330
1F
100
AcDbEntity
  8
0
  6
CONTINUOUS
 62
     7
100
AcDbCircle
 10
193.0821053686
 20
85.4841022985
 30
0.0
 40
0.9615859791485031
100
AcDbArc
 50
109.4867814784
 51
224.7740766856
  0
LINE
  5
84
330
1F
100
AcDbEntity
  8
0
  6
CONTINUOUS
 62
     7
100
AcDbLine
 10
678.701354758
 20
90.1732199642
 30
0.0
 11
678.9647178809
 21
86.1880053932
 31
0.0
  0
LINE
  5
85
330
1F
100
AcDbEntity
  8
0
  6
CONTINUOUS
 62
     7
100
AcDbLine
 10
698.9211725156
 20
87.5068408138
 30
0.0
 11
698.6578093926
 21
91.4920555012
 31
0.0
  0
POLYLINE
  5
86
330
1F
100
AcDbEntity
  8
0
  6
CONTINUOUS
 62
     7
100
AcDb2dPolyline
 66
     1
 10
0.0
 20
0.0
 30
0.0
 70
   128
  0
VERTEX
  5
23D
330
86
100
AcDbEntity
  8
0
  6
CONTINUOUS
 62
     7
100
AcDbVertex
100
AcDb2dVertex
 10
684.0531217019
 20
84.7643442618
 30
0.0
  0
VERTEX
  5
23E
330
86
100
AcDbEntity
  8
0
  6
CONTINUOUS
 62
     7
100
AcDbVertex
100
AcDb2dVertex
 10
682.8808026473
 20
83.4142455066
 30
0.0
  0
VERTEX
  5
23F
330
86
100
AcDbEntity
  8
0
  6
CONTINUOUS
 62
     7
100
AcDbVertex
100
AcDb2dVertex
 10
682.0534901778
 20
81.8769932891
 30
0.0
  0
SEQEND
  5
7EC
330
86
100
AcDbEntity
  8
0
  6
CONTINUOUS
 62
     7
  0
ARC
  5
87
330
1F
100
AcDbEntity
  8
0
  6
CONTINUOUS
 62
     7
100
AcDbCircle
 10
689.4696816779
 20
78.8769937398
 30
0.0
 40
8.000000000000009
100
AcDbArc
 50
22.3155071015
 51
54.9467682102
  0
ARC
  5
88
330
1F
100
AcDbEntity
  8
0
  6
CONTINUOUS
 62
     7
100
AcDbCircle
 10
683.4087112027
 20
85.4837194436
 30
0.0
 40
0.959916422215
100
AcDbArc
 50
312.9344511707
 51
69.6682815914
  0
ARC
  5
89
330
1F
100
AcDbEntity
  8
0
  6
CONTINUOUS
 62
     7
100
AcDbCircle
 10
694.6109950539
 20
86.2247397593
 30
0.0
 40
0.9613523116852788
100
AcDbArc
 50
116.979639643
 51
232.2819715436
  0
LINE
  5
8A
330
1F
100
AcDbEntity
  8
0
  6
CONTINUOUS
 62
     7
100
AcDbLine
 10
202.0183490674
 20
75.8769941682
 30
0.0
 11
194.4345371882
 21
81.8769932891
 31
0.0
  0
LINE
  5
8B
330
1F
100
AcDbEntity
  8
0
  6
CONTINUOUS
 62
     7
100
AcDbLine
 10
179.6021448533
 20
81.8769932891
 30
0.0
 11
172.0183478753
 21
75.8769941682
 31
0.0
  0
LINE
  5
8C
330
1F
100
AcDbEntity
  8
0
  6
CONTINUOUS
 62
     7
100
AcDbLine
 10
172.0183478753
 20
75.8769941682
 30
0.0
 11
172.0183478753
 21
69.8769931848
 31
0.0
  0
LINE
  5
8D
330
1F
100
AcDbEntity
  8
0
  6
CONTINUOUS
 62
     7
100
AcDbLine
 10
202.0183490674
 20
69.8769931848
 30
0.0
 11
202.0183490674
 21
75.8769941682
 31
0.0
  0
LINE
  5
8E
330
1F
100
AcDbEntity
  8
0
  6
CONTINUOUS
 62
     7
100
AcDbLine
 10
169.1549705426
 20
75.9146466086
 30
0.0
 11
169.1549705426
 21
69.9146465565
 31
0.0
  0
LINE
  5
8F
330
1F
100
AcDbEntity
  8
0
  6
CONTINUOUS
 62
     7
100
AcDbLine
 10
176.7387675206
 20
81.9146457294
 30
0.0
 11
169.1549705426
 21
75.9146466086
 31
0.0
  0
LINE
  5
90
330
1F
100
AcDbEntity
  8
0
  6
CONTINUOUS
 62
     7
100
AcDbLine
 10
704.4696794907
 20
75.8769941682
 30
0.0
 11
696.8858825127
 21
81.8769932891
 31
0.0
  0
LINE
  5
91
330
1F
100
AcDbEntity
  8
0
  6
CONTINUOUS
 62
     7
100
AcDbLine
 10
682.0534901778
 20
81.8769932891
 30
0.0
 11
674.4696782986
 21
75.8769941682
 31
0.0
  0
LINE
  5
92
330
1F
100
AcDbEntity
  8
0
  6
CONTINUOUS
 62
     7
100
AcDbLine
 10
674.4696782986
 20
75.8769941682
 30
0.0
 11
674.4696782986
 21
69.8769931848
 31
0.0
  0
LINE
  5
93
330
1F
100
AcDbEntity
  8
0
  6
CONTINUOUS
 62
     7
100
AcDbLine
 10
704.4696794907
 20
69.8769931848
 30
0.0
 11
704.4696794907
 21
75.8769941682
 31
0.0
  0
LINE
  5
94
330
1F
100
AcDbEntity
  8
0
  6
CONTINUOUS
 62
     7
100
AcDbLine
 10
707.3330568234
 20
75.9146466086
 30
0.0
 11
699.7492598454
 21
81.9146457294
 31
0.0
  0
LINE
  5
95
330
1F
100
AcDbEntity
  8
0
  6
CONTINUOUS
 62
     7
100
AcDbLine
 10
707.3330568234
 20
69.9146465565
 30
0.0
 11
707.3330568234
 21
75.9146466086
 31
0.0
  0
LINE
  5
96
330
1F
100
AcDbEntity
  8
0
  6
CONTINUOUS
 62
     7
100
AcDbLine
 10
635.2138059298
 20
748.2215632851
 30
0.0
 11
659.9965231578
 21
373.2124139721
 31
0.0
  0
LINE
  5
97
330
1F
100
AcDbEntity
  8
0
  6
CONTINUOUS
 62
     7
100
AcDbLine
 10
661.3190906207
 20
353.1995584423
 30
0.0
 11
678.701354758
 21
90.1732199642
 31
0.0
  0
LINE
  5
98
330
1F
100
AcDbEntity
  8
0
  6
CONTINUOUS
 62
     7
100
AcDbLine
 10
698.6578093926
 20
91.4920555012
 30
0.0
 11
681.3953058879
 21
352.7063300068
 31
0.0
  0
LINE
  5
99
330
1F
100
AcDbEntity
  8
0
  6
CONTINUOUS
 62
     7
100
AcDbLine
 10
680.0687747161
 20
372.7794160301
 30
0.0
 11
655.1702754657
 21
749.54043526
 31
0.0
  0
POLYLINE
  5
9A
330
1F
100
AcDbEntity
  8
0
  6
CONTINUOUS
 62
     7
100
AcDb2dPolyline
 66
     1
 10
0.0
 20
0.0
 30
0.0
 70
   128
  0
VERTEX
  5
240
330
9A
100
AcDbEntity
  8
0
  6
CONTINUOUS
 62
     7
100
AcDbVertex
100
AcDb2dVertex
 10
613.8930456797
 20
775.4239310677
 30
0.0
  0
VERTEX
  5
241
330
9A
100
AcDbEntity
  8
0
  6
CONTINUOUS
 62
     7
100
AcDbVertex
100
AcDb2dVertex
 10
614.7160219113
 20
775.4447926933
 30
0.0
  0
VERTEX
  5
242
330
9A
100
AcDbEntity
  8
0
  6
CONTINUOUS
 62
     7
100
AcDbVertex
100
AcDb2dVertex
 10
616.7817251841
 20
775.2757539207
 30
0.0
  0
VERTEX
  5
243
330
9A
100
AcDbEntity
  8
0
  6
CONTINUOUS
 62
     7
100
AcDbVertex
100
AcDb2dVertex
 10
618.8448356549
 20
774.7873534615
 30
0.0
  0
VERTEX
  5
244
330
9A
100
AcDbEntity
  8
0
  6
CONTINUOUS
 62
     7
100
AcDbVertex
100
AcDb2dVertex
 10
620.8543168465
 20
773.9938964302
 30
0.0
  0
VERTEX
  5
245
330
9A
100
AcDbEntity
  8
0
  6
CONTINUOUS
 62
     7
100
AcDbVertex
100
AcDb2dVertex
 10
622.7825867097
 20
772.9185094292
 30
0.0
  0
VERTEX
  5
246
330
9A
100
AcDbEntity
  8
0
  6
CONTINUOUS
 62
     7
100
AcDbVertex
100
AcDb2dVertex
 10
624.6197955767
 20
771.5790142471
 30
0.0
  0
VERTEX
  5
247
330
9A
100
AcDbEntity
  8
0
  6
CONTINUOUS
 62
     7
100
AcDbVertex
100
AcDb2dVertex
 10
626.3585971753
 20
769.9876298363
 30
0.0
  0
VERTEX
  5
248
330
9A
100
AcDbEntity
  8
0
  6
CONTINUOUS
 62
     7
100
AcDbVertex
100
AcDb2dVertex
 10
627.9882179658
 20
768.1554426605
 30
0.0
  0
VERTEX
  5
249
330
9A
100
AcDbEntity
  8
0
  6
CONTINUOUS
 62
     7
100
AcDbVertex
100
AcDb2dVertex
 10
629.4943826358
 20
766.0953273232
 30
0.0
  0
VERTEX
  5
24A
330
9A
100
AcDbEntity
  8
0
  6
CONTINUOUS
 62
     7
100
AcDbVertex
100
AcDb2dVertex
 10
630.8608340184
 20
763.8231982643
 30
0.0
  0
VERTEX
  5
24B
330
9A
100
AcDbEntity
  8
0
  6
CONTINUOUS
 62
     7
100
AcDbVertex
100
AcDb2dVertex
 10
632.0707039992
 20
761.3586058075
 30
0.0
  0
VERTEX
  5
24C
330
9A
100
AcDbEntity
  8
0
  6
CONTINUOUS
 62
     7
100
AcDbVertex
100
AcDb2dVertex
 10
633.1078546206
 20
758.7246765549
 30
0.0
  0
VERTEX
  5
24D
330
9A
100
AcDbEntity
  8
0
  6
CONTINUOUS
 62
     7
100
AcDbVertex
100
AcDb2dVertex
 10
633.9576380412
 20
755.9478153641
 30
0.0
  0
VERTEX
  5
24E
330
9A
100
AcDbEntity
  8
0
  6
CONTINUOUS
 62
     7
100
AcDbVertex
100
AcDb2dVertex
 10
634.6077906052
 20
753.0572285111
 30
0.0
  0
VERTEX
  5
24F
330
9A
100
AcDbEntity
  8
0
  6
CONTINUOUS
 62
     7
100
AcDbVertex
100
AcDb2dVertex
 10
635.0489096801
 20
750.0834931786
 30
0.0
  0
VERTEX
  5
250
330
9A
100
AcDbEntity
  8
0
  6
CONTINUOUS
 62
     7
100
AcDbVertex
100
AcDb2dVertex
 10
635.2321641604
 20
747.9282488281
 30
0.0
  0
SEQEND
  5
7ED
330
9A
100
AcDbEntity
  8
0
  6
CONTINUOUS
 62
     7
  0
POLYLINE
  5
9B
330
1F
100
AcDbEntity
  8
0
  6
CONTINUOUS
 62
     7
100
AcDb2dPolyline
 66
     1
 10
0.0
 20
0.0
 30
0.0
 70
   128
  0
VERTEX
  5
251
330
9B
100
AcDbEntity
  8
0
  6
CONTINUOUS
 62
     7
100
AcDbVertex
100
AcDb2dVertex
 10
655.1639722745
 20
749.5405544693
 30
0.0
  0
VERTEX
  5
252
330
9B
100
AcDbEntity
  8
0
  6
CONTINUOUS
 62
     7
100
AcDbVertex
100
AcDb2dVertex
 10
655.026374952
 20
751.3250579292
 30
0.0
  0
VERTEX
  5
253
330
9B
100
AcDbEntity
  8
0
  6
CONTINUOUS
 62
     7
100
AcDbVertex
100
AcDb2dVertex
 10
654.5185433785
 20
755.2876343185
 30
0.0
  0
VERTEX
  5
254
330
9B
100
AcDbEntity
  8
0
  6
CONTINUOUS
 62
     7
100
AcDbVertex
100
AcDb2dVertex
 10
653.7550823848
 20
759.192632621
 30
0.0
  0
VERTEX
  5
255
330
9B
100
AcDbEntity
  8
0
  6
CONTINUOUS
 62
     7
100
AcDbVertex
100
AcDb2dVertex
 10
652.7393298308
 20
763.0148400719
 30
0.0
  0
VERTEX
  5
256
330
9B
100
AcDbEntity
  8
0
  6
CONTINUOUS
 62
     7
100
AcDbVertex
100
AcDb2dVertex
 10
651.4757411639
 20
766.73011679
 30
0.0
  0
VERTEX
  5
257
330
9B
100
AcDbEntity
  8
0
  6
CONTINUOUS
 62
     7
100
AcDbVertex
100
AcDb2dVertex
 10
649.9702768485
 20
770.3140844757
 30
0.0
  0
VERTEX
  5
258
330
9B
100
AcDbEntity
  8
0
  6
CONTINUOUS
 62
     7
100
AcDbVertex
100
AcDb2dVertex
 10
648.2305513779
 20
773.7426628525
 30
0.0
  0
VERTEX
  5
259
330
9B
100
AcDbEntity
  8
0
  6
CONTINUOUS
 62
     7
100
AcDbVertex
100
AcDb2dVertex
 10
646.2659822861
 20
776.9918908531
 30
0.0
  0
VERTEX
  5
25A
330
9B
100
AcDbEntity
  8
0
  6
CONTINUOUS
 62
     7
100
AcDbVertex
100
AcDb2dVertex
 10
644.0880583684
 20
780.0385226662
 30
0.0
  0
VERTEX
  5
25B
330
9B
100
AcDbEntity
  8
0
  6
CONTINUOUS
 62
     7
100
AcDbVertex
100
AcDb2dVertex
 10
641.7106228034
 20
782.8597893173
 30
0.0
  0
VERTEX
  5
25C
330
9B
100
AcDbEntity
  8
0
  6
CONTINUOUS
 62
     7
100
AcDbVertex
100
AcDb2dVertex
 10
639.1499178569
 20
785.4345311577
 30
0.0
  0
VERTEX
  5
25D
330
9B
100
AcDbEntity
  8
0
  6
CONTINUOUS
 62
     7
100
AcDbVertex
100
AcDb2dVertex
 10
636.4245252768
 20
787.7433766777
 30
0.0
  0
VERTEX
  5
25E
330
9B
100
AcDbEntity
  8
0
  6
CONTINUOUS
 62
     7
100
AcDbVertex
100
AcDb2dVertex
 10
633.5551129739
 20
789.7694577629
 30
0.0
  0
VERTEX
  5
25F
330
9B
100
AcDbEntity
  8
0
  6
CONTINUOUS
 62
     7
100
AcDbVertex
100
AcDb2dVertex
 10
630.5638836781
 20
791.4990057404
 30
0.0
  0
VERTEX
  5
260
330
9B
100
AcDbEntity
  8
0
  6
CONTINUOUS
 62
     7
100
AcDbVertex
100
AcDb2dVertex
 10
627.473889486
 20
792.9217090065
 30
0.0
  0
VERTEX
  5
261
330
9B
100
AcDbEntity
  8
0
  6
CONTINUOUS
 62
     7
100
AcDbVertex
100
AcDb2dVertex
 10
624.3083166043
 20
794.0303553993
 30
0.0
  0
VERTEX
  5
262
330
9B
100
AcDbEntity
  8
0
  6
CONTINUOUS
 62
     7
100
AcDbVertex
100
AcDb2dVertex
 10
621.0899340073
 20
794.8210706169
 30
0.0
  0
VERTEX
  5
263
330
9B
100
AcDbEntity
  8
0
  6
CONTINUOUS
 62
     7
100
AcDbVertex
100
AcDb2dVertex
 10
617.8406165997
 20
795.2924241478
 30
0.0
  0
VERTEX
  5
264
330
9B
100
AcDbEntity
  8
0
  6
CONTINUOUS
 62
     7
100
AcDbVertex
100
AcDb2dVertex
 10
614.5811962048
 20
795.4448928291
 30
0.0
  0
VERTEX
  5
265
330
9B
100
AcDbEntity
  8
0
  6
CONTINUOUS
 62
     7
100
AcDbVertex
100
AcDb2dVertex
 10
613.1758825938
 20
795.404302066
 30
0.0
  0
SEQEND
  5
7EE
330
9B
100
AcDbEntity
  8
0
  6
CONTINUOUS
 62
     7
  0
LINE
  5
9C
330
1F
100
AcDbEntity
  8
0
  6
CONTINUOUS
 62
     7
100
AcDbLine
 10
583.1858055751
 20
794.0956224854
 30
0.0
 11
462.447062702
 21
788.7933721001
 31
0.0
  0
LINE
  5
9D
330
1F
100
AcDbEntity
  8
0
  6
CONTINUOUS
 62
     7
100
AcDbLine
 10
613.1761061112
 20
795.412706321
 30
0.0
 11
586.8353681723
 21
794.2558993752
 31
0.0
  0
LINE
  5
9E
330
1F
100
AcDbEntity
  8
0
  6
CONTINUOUS
 62
     7
100
AcDbLine
 10
587.706981794
 20
774.2749323303
 30
0.0
 11
614.0535758893
 21
775.4319180901
 31
0.0
  0
LINE
  5
9F
330
1F
100
AcDbEntity
  8
0
  6
CONTINUOUS
 62
     7
100
AcDbLine
 10
463.3245194415
 20
768.8126434738
 30
0.0
 11
584.0736614625
 21
774.1153706963
 31
0.0
  0
ARC
  5
A0
330
1F
100
AcDbEntity
  8
0
  6
CONTINUOUS
 62
     7
100
AcDbCircle
 10
465.4390560196
 20
667.2393534508
 30
0.0
 40
101.5951959694673
100
AcDbArc
 50
91.191461247
 51
97.6840586211
  0
POLYLINE
  5
A1
330
1F
100
AcDbEntity
  8
0
  6
CONTINUOUS
 62
     7
100
AcDb2dPolyline
 66
     1
 10
0.0
 20
0.0
 30
0.0
 70
   128
  0
VERTEX
  5
266
330
A1
100
AcDbEntity
  8
0
  6
CONTINUOUS
 62
     7
100
AcDbVertex
100
AcDb2dVertex
 10
462.4513821761
 20
788.7930740768
 30
0.0
  0
VERTEX
  5
267
330
A1
100
AcDbEntity
  8
0
  6
CONTINUOUS
 62
     7
100
AcDbVertex
100
AcDb2dVertex
 10
461.2881844948
 20
788.7405623848
 30
0.0
  0
VERTEX
  5
268
330
A1
100
AcDbEntity
  8
0
  6
CONTINUOUS
 62
     7
100
AcDbVertex
100
AcDb2dVertex
 10
458.6390467445
 20
788.6032332832
 30
0.0
  0
VERTEX
  5
269
330
A1
100
AcDbEntity
  8
0
  6
CONTINUOUS
 62
     7
100
AcDbVertex
100
AcDb2dVertex
 10
456.1972567896
 20
788.4515990669
 30
0.0
  0
VERTEX
  5
26A
330
A1
100
AcDbEntity
  8
0
  6
CONTINUOUS
 62
     7
100
AcDbVertex
100
AcDb2dVertex
 10
453.9639322172
 20
788.2840504105
 30
0.0
  0
VERTEX
  5
26B
330
A1
100
AcDbEntity
  8
0
  6
CONTINUOUS
 62
     7
100
AcDbVertex
100
AcDb2dVertex
 10
451.9313989292
 20
788.0970110352
 30
0.0
  0
VERTEX
  5
26C
330
A1
100
AcDbEntity
  8
0
  6
CONTINUOUS
 62
     7
100
AcDbVertex
100
AcDb2dVertex
 10
450.0624431382
 20
787.8793348724
 30
0.0
  0
VERTEX
  5
26D
330
A1
100
AcDbEntity
  8
0
  6
CONTINUOUS
 62
     7
100
AcDbVertex
100
AcDb2dVertex
 10
448.2209231789
 20
787.5897159035
 30
0.0
  0
VERTEX
  5
26E
330
A1
100
AcDbEntity
  8
0
  6
CONTINUOUS
 62
     7
100
AcDbVertex
100
AcDb2dVertex
 10
447.0092231492
 20
787.32685942
 30
0.0
  0
VERTEX
  5
26F
330
A1
100
AcDbEntity
  8
0
  6
CONTINUOUS
 62
     7
100
AcDbVertex
100
AcDb2dVertex
 10
446.0503948937
 20
787.0539297516
 30
0.0
  0
VERTEX
  5
270
330
A1
100
AcDbEntity
  8
0
  6
CONTINUOUS
 62
     7
100
AcDbVertex
100
AcDb2dVertex
 10
445.1685581441
 20
786.7344488556
 30
0.0
  0
VERTEX
  5
271
330
A1
100
AcDbEntity
  8
0
  6
CONTINUOUS
 62
     7
100
AcDbVertex
100
AcDb2dVertex
 10
444.2243916998
 20
786.3016595299
 30
0.0
  0
VERTEX
  5
272
330
A1
100
AcDbEntity
  8
0
  6
CONTINUOUS
 62
     7
100
AcDbVertex
100
AcDb2dVertex
 10
443.2054083879
 20
785.7052554543
 30
0.0
  0
VERTEX
  5
273
330
A1
100
AcDbEntity
  8
0
  6
CONTINUOUS
 62
     7
100
AcDbVertex
100
AcDb2dVertex
 10
442.1433190434
 20
784.9019636566
 30
0.0
  0
VERTEX
  5
274
330
A1
100
AcDbEntity
  8
0
  6
CONTINUOUS
 62
     7
100
AcDbVertex
100
AcDb2dVertex
 10
441.0950530871
 20
783.8591207916
 30
0.0
  0
VERTEX
  5
275
330
A1
100
AcDbEntity
  8
0
  6
CONTINUOUS
 62
     7
100
AcDbVertex
100
AcDb2dVertex
 10
440.1539140233
 20
782.592045253
 30
0.0
  0
VERTEX
  5
276
330
A1
100
AcDbEntity
  8
0
  6
CONTINUOUS
 62
     7
100
AcDbVertex
100
AcDb2dVertex
 10
439.3966226923
 20
781.1401953156
 30
0.0
  0
VERTEX
  5
277
330
A1
100
AcDbEntity
  8
0
  6
CONTINUOUS
 62
     7
100
AcDbVertex
100
AcDb2dVertex
 10
438.8749971255
 20
779.5528044159
 30
0.0
  0
VERTEX
  5
278
330
A1
100
AcDbEntity
  8
0
  6
CONTINUOUS
 62
     7
100
AcDbVertex
100
AcDb2dVertex
 10
438.6205246407
 20
777.8842915947
 30
0.0
  0
VERTEX
  5
279
330
A1
100
AcDbEntity
  8
0
  6
CONTINUOUS
 62
     7
100
AcDbVertex
100
AcDb2dVertex
 10
438.6616801346
 20
776.0602106506
 30
0.0
  0
VERTEX
  5
27A
330
A1
100
AcDbEntity
  8
0
  6
CONTINUOUS
 62
     7
100
AcDbVertex
100
AcDb2dVertex
 10
439.0001718854
 20
774.3735184128
 30
0.0
  0
VERTEX
  5
27B
330
A1
100
AcDbEntity
  8
0
  6
CONTINUOUS
 62
     7
100
AcDbVertex
100
AcDb2dVertex
 10
439.5777527095
 20
772.8549112732
 30
0.0
  0
VERTEX
  5
27C
330
A1
100
AcDbEntity
  8
0
  6
CONTINUOUS
 62
     7
100
AcDbVertex
100
AcDb2dVertex
 10
440.3406776107
 20
771.520482486
 30
0.0
  0
VERTEX
  5
27D
330
A1
100
AcDbEntity
  8
0
  6
CONTINUOUS
 62
     7
100
AcDbVertex
100
AcDb2dVertex
 10
441.2346948954
 20
770.3823913986
 30
0.0
  0
VERTEX
  5
27E
330
A1
100
AcDbEntity
  8
0
  6
CONTINUOUS
 62
     7
100
AcDbVertex
100
AcDb2dVertex
 10
442.2011418353
 20
769.4473137314
 30
0.0
  0
VERTEX
  5
27F
330
A1
100
AcDbEntity
  8
0
  6
CONTINUOUS
 62
     7
100
AcDbVertex
100
AcDb2dVertex
 10
443.1771855886
 20
768.7122096474
 30
0.0
  0
VERTEX
  5
280
330
A1
100
AcDbEntity
  8
0
  6
CONTINUOUS
 62
     7
100
AcDbVertex
100
AcDb2dVertex
 10
444.1116001542
 20
768.1559791023
 30
0.0
  0
VERTEX
  5
281
330
A1
100
AcDbEntity
  8
0
  6
CONTINUOUS
 62
     7
100
AcDbVertex
100
AcDb2dVertex
 10
444.9894159185
 20
767.7386273796
 30
0.0
  0
VERTEX
  5
282
330
A1
100
AcDbEntity
  8
0
  6
CONTINUOUS
 62
     7
100
AcDbVertex
100
AcDb2dVertex
 10
445.8193565803
 20
767.4215306694
 30
0.0
  0
VERTEX
  5
283
330
A1
100
AcDbEntity
  8
0
  6
CONTINUOUS
 62
     7
100
AcDbVertex
100
AcDb2dVertex
 10
446.6524176384
 20
767.1655287201
 30
0.0
  0
VERTEX
  5
284
330
A1
100
AcDbEntity
  8
0
  6
CONTINUOUS
 62
     7
100
AcDbVertex
100
AcDb2dVertex
 10
447.584178866
 20
766.9376005585
 30
0.0
  0
VERTEX
  5
285
330
A1
100
AcDbEntity
  8
0
  6
CONTINUOUS
 62
     7
100
AcDbVertex
100
AcDb2dVertex
 10
448.8297967325
 20
766.7017449791
 30
0.0
  0
VERTEX
  5
286
330
A1
100
AcDbEntity
  8
0
  6
CONTINUOUS
 62
     7
100
AcDbVertex
100
AcDb2dVertex
 10
450.7649751465
 20
766.4308418686
 30
0.0
  0
VERTEX
  5
287
330
A1
100
AcDbEntity
  8
0
  6
CONTINUOUS
 62
     7
100
AcDbVertex
100
AcDb2dVertex
 10
452.6650939221
 20
766.2294377739
 30
0.0
  0
VERTEX
  5
288
330
A1
100
AcDbEntity
  8
0
  6
CONTINUOUS
 62
     7
100
AcDbVertex
100
AcDb2dVertex
 10
454.703089417
 20
766.0555114204
 30
0.0
  0
VERTEX
  5
289
330
A1
100
AcDbEntity
  8
0
  6
CONTINUOUS
 62
     7
100
AcDbVertex
100
AcDb2dVertex
 10
456.9062801162
 20
765.9001817162
 30
0.0
  0
VERTEX
  5
28A
330
A1
100
AcDbEntity
  8
0
  6
CONTINUOUS
 62
     7
100
AcDbVertex
100
AcDb2dVertex
 10
457.3353348384
 20
765.8732404167
 30
0.0
  0
SEQEND
  5
7EF
330
A1
100
AcDbEntity
  8
0
  6
CONTINUOUS
 62
     7
  0
LINE
  5
A2
330
1F
100
AcDbEntity
  8
0
  6
CONTINUOUS
 62
     7
100
AcDbLine
 10
571.3160770098
 20
758.7638368065
 30
0.0
 11
617.9249869744
 21
755.8567394669
 31
0.0
  0
LINE
  5
A3
330
1F
100
AcDbEntity
  8
0
  6
CONTINUOUS
 62
     7
100
AcDbLine
 10
457.3330121199
 20
765.8731212074
 30
0.0
 11
568.3088736693
 21
758.951353019
 31
0.0
  0
POLYLINE
  5
A4
330
1F
100
AcDbEntity
  8
0
  6
CONTINUOUS
 62
     7
100
AcDb2dPolyline
 66
     1
 10
0.0
 20
0.0
 30
0.0
 70
   128
  0
VERTEX
  5
28B
330
A4
100
AcDbEntity
  8
0
  6
CONTINUOUS
 62
     7
100
AcDbVertex
100
AcDb2dVertex
 10
617.9249869744
 20
755.8567394669
 30
0.0
  0
VERTEX
  5
28C
330
A4
100
AcDbEntity
  8
0
  6
CONTINUOUS
 62
     7
100
AcDbVertex
100
AcDb2dVertex
 10
618.4063540856
 20
755.8091153557
 30
0.0
  0
VERTEX
  5
28D
330
A4
100
AcDbEntity
  8
0
  6
CONTINUOUS
 62
     7
100
AcDbVertex
100
AcDb2dVertex
 10
619.6212308566
 20
755.5349339897
 30
0.0
  0
VERTEX
  5
28E
330
A4
100
AcDbEntity
  8
0
  6
CONTINUOUS
 62
     7
100
AcDbVertex
100
AcDb2dVertex
 10
620.8035634915
 20
755.0626267845
 30
0.0
  0
VERTEX
  5
28F
330
A4
100
AcDbEntity
  8
0
  6
CONTINUOUS
 62
     7
100
AcDbVertex
100
AcDb2dVertex
 10
621.9979213635
 20
754.3854584152
 30
0.0
  0
VERTEX
  5
290
330
A4
100
AcDbEntity
  8
0
  6
CONTINUOUS
 62
     7
100
AcDbVertex
100
AcDb2dVertex
 10
623.3420359055
 20
753.3821930344
 30
0.0
  0
VERTEX
  5
291
330
A4
100
AcDbEntity
  8
0
  6
CONTINUOUS
 62
     7
100
AcDbVertex
100
AcDb2dVertex
 10
624.6702211062
 20
752.1276344711
 30
0.0
  0
VERTEX
  5
292
330
A4
100
AcDbEntity
  8
0
  6
CONTINUOUS
 62
     7
100
AcDbVertex
100
AcDb2dVertex
 10
625.9703027169
 20
750.6202330048
 30
0.0
  0
VERTEX
  5
293
330
A4
100
AcDbEntity
  8
0
  6
CONTINUOUS
 62
     7
100
AcDbVertex
100
AcDb2dVertex
 10
627.2246526639
 20
748.8618363792
 30
0.0
  0
VERTEX
  5
294
330
A4
100
AcDbEntity
  8
0
  6
CONTINUOUS
 62
     7
100
AcDbVertex
100
AcDb2dVertex
 10
628.4119175832
 20
746.8607296402
 30
0.0
  0
VERTEX
  5
295
330
A4
100
AcDbEntity
  8
0
  6
CONTINUOUS
 62
     7
100
AcDbVertex
100
AcDb2dVertex
 10
629.5090155761
 20
744.6336616928
 30
0.0
  0
VERTEX
  5
296
330
A4
100
AcDbEntity
  8
0
  6
CONTINUOUS
 62
     7
100
AcDbVertex
100
AcDb2dVertex
 10
630.4956214587
 20
742.1996464188
 30
0.0
  0
VERTEX
  5
297
330
A4
100
AcDbEntity
  8
0
  6
CONTINUOUS
 62
     7
100
AcDbVertex
100
AcDb2dVertex
 10
631.3531832854
 20
739.5818700249
 30
0.0
  0
VERTEX
  5
298
330
A4
100
AcDbEntity
  8
0
  6
CONTINUOUS
 62
     7
100
AcDbVertex
100
AcDb2dVertex
 10
632.0654438893
 20
736.8075122292
 30
0.0
  0
VERTEX
  5
299
330
A4
100
AcDbEntity
  8
0
  6
CONTINUOUS
 62
     7
100
AcDbVertex
100
AcDb2dVertex
 10
632.6188581149
 20
733.9065541679
 30
0.0
  0
VERTEX
  5
29A
330
A4
100
AcDbEntity
  8
0
  6
CONTINUOUS
 62
     7
100
AcDbVertex
100
AcDb2dVertex
 10
633.0029057423
 20
730.9114803726
 30
0.0
  0
VERTEX
  5
29B
330
A4
100
AcDbEntity
  8
0
  6
CONTINUOUS
 62
     7
100
AcDbVertex
100
AcDb2dVertex
 10
633.1006424586
 20
729.7841181213
 30
0.0
  0
SEQEND
  5
7F0
330
A4
100
AcDbEntity
  8
0
  6
CONTINUOUS
 62
     7
  0
LINE
  5
A5
330
1F
100
AcDbEntity
  8
0
  6
CONTINUOUS
 62
     7
100
AcDbLine
 10
701.4036165635
 20
91.5864581408
 30
0.0
 11
682.5287925164
 21
341.2631322796
 31
0.0
  0
LINE
  5
A6
330
1F
100
AcDbEntity
  8
0
  6
CONTINUOUS
 62
     7
100
AcDbLine
 10
680.1464544694
 20
372.7766444141
 30
0.0
 11
679.5304553668
 21
380.9250463898
 31
0.0
  0
LINE
  5
A7
330
1F
100
AcDbEntity
  8
0
  6
CONTINUOUS
 62
     7
100
AcDbLine
 10
633.1006424586
 20
729.7841181213
 30
0.0
 11
659.5802294175
 21
379.5117606575
 31
0.0
  0
LINE
  5
A8
330
1F
100
AcDbEntity
  8
0
  6
CONTINUOUS
 62
     7
100
AcDbLine
 10
197.7866726081
 20
90.1732199642
 30
0.0
 11
215.1689516465
 21
353.1998862679
 31
0.0
  0
LINE
  5
A9
330
1F
100
AcDbEntity
  8
0
  6
CONTINUOUS
 62
     7
100
AcDbLine
 10
216.4914893071
 20
373.2123245651
 30
0.0
 11
241.2742214362
 21
748.2215632851
 31
0.0
  0
LINE
  5
AA
330
1F
100
AcDbEntity
  8
0
  6
CONTINUOUS
 62
     7
100
AcDbLine
 10
221.3177519004
 20
749.54043526
 30
0.0
 11
196.4192824523
 21
372.7797438557
 31
0.0
  0
LINE
  5
AB
330
1F
100
AcDbEntity
  8
0
  6
CONTINUOUS
 62
     7
100
AcDbLine
 10
195.0926767747
 20
352.7058233673
 30
0.0
 11
177.8302179734
 21
91.4920555012
 31
0.0
  0
POLYLINE
  5
AC
330
1F
100
AcDbEntity
  8
0
  6
CONTINUOUS
 62
     7
100
AcDb2dPolyline
 66
     1
 10
0.0
 20
0.0
 30
0.0
 70
   128
  0
VERTEX
  5
29C
330
AC
100
AcDbEntity
  8
0
  6
CONTINUOUS
 62
     7
100
AcDbVertex
100
AcDb2dVertex
 10
241.2558632056
 20
747.9282488281
 30
0.0
  0
VERTEX
  5
29D
330
AC
100
AcDbEntity
  8
0
  6
CONTINUOUS
 62
     7
100
AcDbVertex
100
AcDb2dVertex
 10
241.3715707223
 20
749.4289745743
 30
0.0
  0
VERTEX
  5
29E
330
AC
100
AcDbEntity
  8
0
  6
CONTINUOUS
 62
     7
100
AcDbVertex
100
AcDb2dVertex
 10
241.76563193
 20
752.4128426964
 30
0.0
  0
VERTEX
  5
29F
330
AC
100
AcDbEntity
  8
0
  6
CONTINUOUS
 62
     7
100
AcDbVertex
100
AcDb2dVertex
 10
242.3694418828
 20
755.3189267571
 30
0.0
  0
VERTEX
  5
2A0
330
AC
100
AcDbEntity
  8
0
  6
CONTINUOUS
 62
     7
100
AcDbVertex
100
AcDb2dVertex
 10
243.1732105176
 20
758.1145038063
 30
0.0
  0
VERTEX
  5
2A1
330
AC
100
AcDbEntity
  8
0
  6
CONTINUOUS
 62
     7
100
AcDbVertex
100
AcDb2dVertex
 10
244.1641228358
 20
760.7697715218
 30
0.0
  0
VERTEX
  5
2A2
330
AC
100
AcDbEntity
  8
0
  6
CONTINUOUS
 62
     7
100
AcDbVertex
100
AcDb2dVertex
 10
245.3265624205
 20
763.2573713715
 30
0.0
  0
VERTEX
  5
2A3
330
AC
100
AcDbEntity
  8
0
  6
CONTINUOUS
 62
     7
100
AcDbVertex
100
AcDb2dVertex
 10
246.6423647563
 20
765.5529250557
 30
0.0
  0
VERTEX
  5
2A4
330
AC
100
AcDbEntity
  8
0
  6
CONTINUOUS
 62
     7
100
AcDbVertex
100
AcDb2dVertex
 10
248.0912493626
 20
767.6353325302
 30
0.0
  0
VERTEX
  5
2A5
330
AC
100
AcDbEntity
  8
0
  6
CONTINUOUS
 62
     7
100
AcDbVertex
100
AcDb2dVertex
 10
249.6521758
 20
769.4882621223
 30
0.0
  0
VERTEX
  5
2A6
330
AC
100
AcDbEntity
  8
0
  6
CONTINUOUS
 62
     7
100
AcDbVertex
100
AcDb2dVertex
 10
251.3045059602
 20
771.1000313217
 30
0.0
  0
VERTEX
  5
2A7
330
AC
100
AcDbEntity
  8
0
  6
CONTINUOUS
 62
     7
100
AcDbVertex
100
AcDb2dVertex
 10
253.0296133916
 20
772.463487571
 30
0.0
  0
VERTEX
  5
2A8
330
AC
100
AcDbEntity
  8
0
  6
CONTINUOUS
 62
     7
100
AcDbVertex
100
AcDb2dVertex
 10
254.8131631772
 20
773.5753526146
 30
0.0
  0
VERTEX
  5
2A9
330
AC
100
AcDbEntity
  8
0
  6
CONTINUOUS
 62
     7
100
AcDbVertex
100
AcDb2dVertex
 10
256.6473620097
 20
774.4343747551
 30
0.0
  0
VERTEX
  5
2AA
330
AC
100
AcDbEntity
  8
0
  6
CONTINUOUS
 62
     7
100
AcDbVertex
100
AcDb2dVertex
 10
258.532940046
 20
775.0376929695
 30
0.0
  0
VERTEX
  5
2AB
330
AC
100
AcDbEntity
  8
0
  6
CONTINUOUS
 62
     7
100
AcDbVertex
100
AcDb2dVertex
 10
260.4782419364
 20
775.3760089333
 30
0.0
  0
VERTEX
  5
2AC
330
AC
100
AcDbEntity
  8
0
  6
CONTINUOUS
 62
     7
100
AcDbVertex
100
AcDb2dVertex
 10
262.5949816863
 20
775.4239310677
 30
0.0
  0
SEQEND
  5
7F1
330
AC
100
AcDbEntity
  8
0
  6
CONTINUOUS
 62
     7
  0
POLYLINE
  5
AD
330
1F
100
AcDbEntity
  8
0
  6
CONTINUOUS
 62
     7
100
AcDb2dPolyline
 66
     1
 10
0.0
 20
0.0
 30
0.0
 70
   128
  0
VERTEX
  5
2AD
330
AD
100
AcDbEntity
  8
0
  6
CONTINUOUS
 62
     7
100
AcDbVertex
100
AcDb2dVertex
 10
263.3118169467
 20
795.4029311592
 30
0.0
  0
VERTEX
  5
2AE
330
AD
100
AcDbEntity
  8
0
  6
CONTINUOUS
 62
     7
100
AcDbVertex
100
AcDb2dVertex
 10
261.6686360995
 20
795.4444755966
 30
0.0
  0
VERTEX
  5
2AF
330
AD
100
AcDbEntity
  8
0
  6
CONTINUOUS
 62
     7
100
AcDbVertex
100
AcDb2dVertex
 10
258.4206746976
 20
795.2699531967
 30
0.0
  0
VERTEX
  5
2B0
330
AD
100
AcDbEntity
  8
0
  6
CONTINUOUS
 62
     7
100
AcDbVertex
100
AcDb2dVertex
 10
255.2016364495
 20
794.7822083885
 30
0.0
  0
VERTEX
  5
2B1
330
AD
100
AcDbEntity
  8
0
  6
CONTINUOUS
 62
     7
100
AcDbVertex
100
AcDb2dVertex
 10
252.0315634171
 20
793.985949939
 30
0.0
  0
VERTEX
  5
2B2
330
AD
100
AcDbEntity
  8
0
  6
CONTINUOUS
 62
     7
100
AcDbVertex
100
AcDb2dVertex
 10
248.9275323312
 20
792.8865422661
 30
0.0
  0
VERTEX
  5
2B3
330
AD
100
AcDbEntity
  8
0
  6
CONTINUOUS
 62
     7
100
AcDbVertex
100
AcDb2dVertex
 10
245.9064113061
 20
791.4898266251
 30
0.0
  0
VERTEX
  5
2B4
330
AD
100
AcDbEntity
  8
0
  6
CONTINUOUS
 62
     7
100
AcDbVertex
100
AcDb2dVertex
 10
242.985038654
 20
789.8027767593
 30
0.0
  0
VERTEX
  5
2B5
330
AD
100
AcDbEntity
  8
0
  6
CONTINUOUS
 62
     7
100
AcDbVertex
100
AcDb2dVertex
 10
240.1804762046
 20
787.8336777145
 30
0.0
  0
VERTEX
  5
2B6
330
AD
100
AcDbEntity
  8
0
  6
CONTINUOUS
 62
     7
100
AcDbVertex
100
AcDb2dVertex
 10
237.510039107
 20
785.5924834663
 30
0.0
  0
VERTEX
  5
2B7
330
AD
100
AcDbEntity
  8
0
  6
CONTINUOUS
 62
     7
100
AcDbVertex
100
AcDb2dVertex
 10
234.9910574118
 20
783.0916513855
 30
0.0
  0
VERTEX
  5
2B8
330
AD
100
AcDbEntity
  8
0
  6
CONTINUOUS
 62
     7
100
AcDbVertex
100
AcDb2dVertex
 10
232.6405631463
 20
780.34578461
 30
0.0
  0
VERTEX
  5
2B9
330
AD
100
AcDbEntity
  8
0
  6
CONTINUOUS
 62
     7
100
AcDbVertex
100
AcDb2dVertex
 10
230.4747836749
 20
777.3722280914
 30
0.0
  0
VERTEX
  5
2BA
330
AD
100
AcDbEntity
  8
0
  6
CONTINUOUS
 62
     7
100
AcDbVertex
100
AcDb2dVertex
 10
228.508724467
 20
774.190412944
 30
0.0
  0
VERTEX
  5
2BB
330
AD
100
AcDbEntity
  8
0
  6
CONTINUOUS
 62
     7
100
AcDbVertex
100
AcDb2dVertex
 10
226.7558263699
 20
770.8217372353
 30
0.0
  0
VERTEX
  5
2BC
330
AD
100
AcDbEntity
  8
0
  6
CONTINUOUS
 62
     7
100
AcDbVertex
100
AcDb2dVertex
 10
225.2276526849
 20
767.2889103348
 30
0.0
  0
VERTEX
  5
2BD
330
AD
100
AcDbEntity
  8
0
  6
CONTINUOUS
 62
     7
100
AcDbVertex
100
AcDb2dVertex
 10
223.9339189688
 20
763.6157144959
 30
0.0
  0
VERTEX
  5
2BE
330
AD
100
AcDbEntity
  8
0
  6
CONTINUOUS
 62
     7
100
AcDbVertex
100
AcDb2dVertex
 10
222.8824781338
 20
759.8264088089
 30
0.0
  0
VERTEX
  5
2BF
330
AD
100
AcDbEntity
  8
0
  6
CONTINUOUS
 62
     7
100
AcDbVertex
100
AcDb2dVertex
 10
222.0794694583
 20
755.9455503876
 30
0.0
  0
VERTEX
  5
2C0
330
AD
100
AcDbEntity
  8
0
  6
CONTINUOUS
 62
     7
100
AcDbVertex
100
AcDb2dVertex
 10
221.5294675986
 20
751.9980539734
 30
0.0
  0
VERTEX
  5
2C1
330
AD
100
AcDbEntity
  8
0
  6
CONTINUOUS
 62
     7
100
AcDbVertex
100
AcDb2dVertex
 10
221.3264541785
 20
749.5406736786
 30
0.0
  0
SEQEND
  5
7F2
330
AD
100
AcDbEntity
  8
0
  6
CONTINUOUS
 62
     7
  0
LINE
  5
AE
330
1F
100
AcDbEntity
  8
0
  6
CONTINUOUS
 62
     7
100
AcDbLine
 10
292.4143659035
 20
774.1153706963
 30
0.0
 11
413.1635079245
 21
768.8126434738
 31
0.0
  0
LINE
  5
AF
330
1F
100
AcDbEntity
  8
0
  6
CONTINUOUS
 62
     7
100
AcDbLine
 10
262.4344514767
 20
775.4319180901
 30
0.0
 11
288.781045572
 21
774.2749323303
 31
0.0
  0
LINE
  5
B0
330
1F
100
AcDbEntity
  8
0
  6
CONTINUOUS
 62
     7
100
AcDbLine
 10
289.6526591937
 20
794.2558993752
 30
0.0
 11
263.3119212548
 21
795.412706321
 31
0.0
  0
LINE
  5
B1
330
1F
100
AcDbEntity
  8
0
  6
CONTINUOUS
 62
     7
100
AcDbLine
 10
414.040964664
 20
788.7933721001
 30
0.0
 11
293.302221791
 21
794.0956224854
 31
0.0
  0
ARC
  5
B2
330
1F
100
AcDbEntity
  8
0
  6
CONTINUOUS
 62
     7
100
AcDbCircle
 10
411.2940400184
 20
670.5104894872
 30
0.0
 40
98.31959579268687
100
AcDbArc
 50
82.1938807302
 51
88.9134042906
  0
POLYLINE
  5
B3
330
1F
100
AcDbEntity
  8
0
  6
CONTINUOUS
 62
     7
100
AcDb2dPolyline
 66
     1
 10
0.0
 20
0.0
 30
0.0
 70
   128
  0
VERTEX
  5
2C2
330
B3
100
AcDbEntity
  8
0
  6
CONTINUOUS
 62
     7
100
AcDbVertex
100
AcDb2dVertex
 10
419.1499469886
 20
765.8734192307
 30
0.0
  0
VERTEX
  5
2C3
330
B3
100
AcDbEntity
  8
0
  6
CONTINUOUS
 62
     7
100
AcDbVertex
100
AcDb2dVertex
 10
420.141541035
 20
765.9370173866
 30
0.0
  0
VERTEX
  5
2C4
330
B3
100
AcDbEntity
  8
0
  6
CONTINUOUS
 62
     7
100
AcDbVertex
100
AcDb2dVertex
 10
422.3967498253
 20
766.1041488106
 30
0.0
  0
VERTEX
  5
2C5
330
B3
100
AcDbEntity
  8
0
  6
CONTINUOUS
 62
     7
100
AcDbVertex
100
AcDb2dVertex
 10
424.4405400092
 20
766.2898172791
 30
0.0
  0
VERTEX
  5
2C6
330
B3
100
AcDbEntity
  8
0
  6
CONTINUOUS
 62
     7
100
AcDbVertex
100
AcDb2dVertex
 10
426.3171251948
 20
766.505109256
 30
0.0
  0
VERTEX
  5
2C7
330
B3
100
AcDbEntity
  8
0
  6
CONTINUOUS
 62
     7
100
AcDbVertex
100
AcDb2dVertex
 10
428.1515074978
 20
766.7875756676
 30
0.0
  0
VERTEX
  5
2C8
330
B3
100
AcDbEntity
  8
0
  6
CONTINUOUS
 62
     7
100
AcDbVertex
100
AcDb2dVertex
 10
429.3172719042
 20
767.0321335251
 30
0.0
  0
VERTEX
  5
2C9
330
B3
100
AcDbEntity
  8
0
  6
CONTINUOUS
 62
     7
100
AcDbVertex
100
AcDb2dVertex
 10
430.3376615132
 20
767.3130502159
 30
0.0
  0
VERTEX
  5
2CA
330
B3
100
AcDbEntity
  8
0
  6
CONTINUOUS
 62
     7
100
AcDbVertex
100
AcDb2dVertex
 10
431.2122446569
 20
767.621444648
 30
0.0
  0
VERTEX
  5
2CB
330
B3
100
AcDbEntity
  8
0
  6
CONTINUOUS
 62
     7
100
AcDbVertex
100
AcDb2dVertex
 10
432.1476133625
 20
768.0382003243
 30
0.0
  0
VERTEX
  5
2CC
330
B3
100
AcDbEntity
  8
0
  6
CONTINUOUS
 62
     7
100
AcDbVertex
100
AcDb2dVertex
 10
433.1605710174
 20
768.6139811928
 30
0.0
  0
VERTEX
  5
2CD
330
B3
100
AcDbEntity
  8
0
  6
CONTINUOUS
 62
     7
100
AcDbVertex
100
AcDb2dVertex
 10
434.2191993343
 20
769.390331691
 30
0.0
  0
VERTEX
  5
2CE
330
B3
100
AcDbEntity
  8
0
  6
CONTINUOUS
 62
     7
100
AcDbVertex
100
AcDb2dVertex
 10
435.2738776794
 20
770.4051007683
 30
0.0
  0
VERTEX
  5
2CF
330
B3
100
AcDbEntity
  8
0
  6
CONTINUOUS
 62
     7
100
AcDbVertex
100
AcDb2dVertex
 10
436.2320647194
 20
771.6476787979
 30
0.0
  0
VERTEX
  5
2D0
330
B3
100
AcDbEntity
  8
0
  6
CONTINUOUS
 62
     7
100
AcDbVertex
100
AcDb2dVertex
 10
437.0140245734
 20
773.0802764351
 30
0.0
  0
VERTEX
  5
2D1
330
B3
100
AcDbEntity
  8
0
  6
CONTINUOUS
 62
     7
100
AcDbVertex
100
AcDb2dVertex
 10
437.5652614251
 20
774.6545543129
 30
0.0
  0
VERTEX
  5
2D2
330
B3
100
AcDbEntity
  8
0
  6
CONTINUOUS
 62
     7
100
AcDbVertex
100
AcDb2dVertex
 10
437.8521002797
 20
776.3163914139
 30
0.0
  0
VERTEX
  5
2D3
330
B3
100
AcDbEntity
  8
0
  6
CONTINUOUS
 62
     7
100
AcDbVertex
100
AcDb2dVertex
 10
437.8456712727
 20
778.1528105194
 30
0.0
  0
VERTEX
  5
2D4
330
B3
100
AcDbEntity
  8
0
  6
CONTINUOUS
 62
     7
100
AcDbVertex
100
AcDb2dVertex
 10
437.5355022345
 20
779.8560132439
 30
0.0
  0
VERTEX
  5
2D5
330
B3
100
AcDbEntity
  8
0
  6
CONTINUOUS
 62
     7
100
AcDbVertex
100
AcDb2dVertex
 10
436.9804226878
 20
781.3930382187
 30
0.0
  0
VERTEX
  5
2D6
330
B3
100
AcDbEntity
  8
0
  6
CONTINUOUS
 62
     7
100
AcDbVertex
100
AcDb2dVertex
 10
436.2344170074
 20
782.7474345619
 30
0.0
  0
VERTEX
  5
2D7
330
B3
100
AcDbEntity
  8
0
  6
CONTINUOUS
 62
     7
100
AcDbVertex
100
AcDb2dVertex
 10
435.3514920073
 20
783.9065064842
 30
0.0
  0
VERTEX
  5
2D8
330
B3
100
AcDbEntity
  8
0
  6
CONTINUOUS
 62
     7
100
AcDbVertex
100
AcDb2dVertex
 10
434.389703543
 20
784.8629822189
 30
0.0
  0
VERTEX
  5
2D9
330
B3
100
AcDbEntity
  8
0
  6
CONTINUOUS
 62
     7
100
AcDbVertex
100
AcDb2dVertex
 10
433.411839054
 20
785.6184114868
 30
0.0
  0
VERTEX
  5
2DA
330
B3
100
AcDbEntity
  8
0
  6
CONTINUOUS
 62
     7
100
AcDbVertex
100
AcDb2dVertex
 10
432.4715999971
 20
786.1917485649
 30
0.0
  0
VERTEX
  5
2DB
330
B3
100
AcDbEntity
  8
0
  6
CONTINUOUS
 62
     7
100
AcDbVertex
100
AcDb2dVertex
 10
431.58842354
 20
786.6214980537
 30
0.0
  0
VERTEX
  5
2DC
330
B3
100
AcDbEntity
  8
0
  6
CONTINUOUS
 62
     7
100
AcDbVertex
100
AcDb2dVertex
 10
430.7550369846
 20
786.9472970421
 30
0.0
  0
VERTEX
  5
2DD
330
B3
100
AcDbEntity
  8
0
  6
CONTINUOUS
 62
     7
100
AcDbVertex
100
AcDb2dVertex
 10
429.9258595417
 20
787.208067363
 30
0.0
  0
VERTEX
  5
2DE
330
B3
100
AcDbEntity
  8
0
  6
CONTINUOUS
 62
     7
100
AcDbVertex
100
AcDb2dVertex
 10
429.0112104351
 20
787.4374856407
 30
0.0
  0
VERTEX
  5
2DF
330
B3
100
AcDbEntity
  8
0
  6
CONTINUOUS
 62
     7
100
AcDbVertex
100
AcDb2dVertex
 10
427.8176544319
 20
787.6701821739
 30
0.0
  0
VERTEX
  5
2E0
330
B3
100
AcDbEntity
  8
0
  6
CONTINUOUS
 62
     7
100
AcDbVertex
100
AcDb2dVertex
 10
425.6342133592
 20
787.9783977921
 30
0.0
  0
VERTEX
  5
2E1
330
B3
100
AcDbEntity
  8
0
  6
CONTINUOUS
 62
     7
100
AcDbVertex
100
AcDb2dVertex
 10
423.730181166
 20
788.1780137474
 30
0.0
  0
VERTEX
  5
2E2
330
B3
100
AcDbEntity
  8
0
  6
CONTINUOUS
 62
     7
100
AcDbVertex
100
AcDb2dVertex
 10
421.6846363704
 20
788.3509268219
 30
0.0
  0
VERTEX
  5
2E3
330
B3
100
AcDbEntity
  8
0
  6
CONTINUOUS
 62
     7
100
AcDbVertex
100
AcDb2dVertex
 10
419.2763889293
 20
788.5179986412
 30
0.0
  0
VERTEX
  5
2E4
330
B3
100
AcDbEntity
  8
0
  6
CONTINUOUS
 62
     7
100
AcDbVertex
100
AcDb2dVertex
 10
416.6903408329
 20
788.6663546021
 30
0.0
  0
VERTEX
  5
2E5
330
B3
100
AcDbEntity
  8
0
  6
CONTINUOUS
 62
     7
100
AcDbVertex
100
AcDb2dVertex
 10
414.0943573872
 20
788.7910475189
 30
0.0
  0
VERTEX
  5
2E6
330
B3
100
AcDbEntity
  8
0
  6
CONTINUOUS
 62
     7
100
AcDbVertex
100
AcDb2dVertex
 10
414.0409143726
 20
788.7933721001
 30
0.0
  0
SEQEND
  5
7F3
330
B3
100
AcDbEntity
  8
0
  6
CONTINUOUS
 62
     7
  0
LINE
  5
B4
330
1F
100
AcDbEntity
  8
0
  6
CONTINUOUS
 62
     7
100
AcDbLine
 10
308.1791536967
 20
758.951353019
 30
0.0
 11
419.1550152461
 21
765.8731212074
 31
0.0
  0
LINE
  5
B5
330
1F
100
AcDbEntity
  8
0
  6
CONTINUOUS
 62
     7
100
AcDbLine
 10
258.5630403916
 20
755.8567394669
 30
0.0
 11
305.1719503562
 21
758.7638368065
 31
0.0
  0
POLYLINE
  5
B6
330
1F
100
AcDbEntity
  8
0
  6
CONTINUOUS
 62
     7
100
AcDb2dPolyline
 66
     1
 10
0.0
 20
0.0
 30
0.0
 70
   128
  0
VERTEX
  5
2E7
330
B6
100
AcDbEntity
  8
0
  6
CONTINUOUS
 62
     7
100
AcDbVertex
100
AcDb2dVertex
 10
243.3873849074
 20
729.7841181213
 30
0.0
  0
VERTEX
  5
2E8
330
B6
100
AcDbEntity
  8
0
  6
CONTINUOUS
 62
     7
100
AcDbVertex
100
AcDb2dVertex
 10
243.5280071656
 20
731.331573909
 30
0.0
  0
VERTEX
  5
2E9
330
B6
100
AcDbEntity
  8
0
  6
CONTINUOUS
 62
     7
100
AcDbVertex
100
AcDb2dVertex
 10
243.9368801276
 20
734.3204488213
 30
0.0
  0
VERTEX
  5
2EA
330
B6
100
AcDbEntity
  8
0
  6
CONTINUOUS
 62
     7
100
AcDbVertex
100
AcDb2dVertex
 10
244.5149408738
 20
737.2125257904
 30
0.0
  0
VERTEX
  5
2EB
330
B6
100
AcDbEntity
  8
0
  6
CONTINUOUS
 62
     7
100
AcDbVertex
100
AcDb2dVertex
 10
245.2510433356
 20
739.9735321457
 30
0.0
  0
VERTEX
  5
2EC
330
B6
100
AcDbEntity
  8
0
  6
CONTINUOUS
 62
     7
100
AcDbVertex
100
AcDb2dVertex
 10
246.1307184855
 20
742.5720562393
 30
0.0
  0
VERTEX
  5
2ED
330
B6
100
AcDbEntity
  8
0
  6
CONTINUOUS
 62
     7
100
AcDbVertex
100
AcDb2dVertex
 10
247.1361594359
 20
744.9796070511
 30
0.0
  0
VERTEX
  5
2EE
330
B6
100
AcDbEntity
  8
0
  6
CONTINUOUS
 62
     7
100
AcDbVertex
100
AcDb2dVertex
 10
248.2464151541
 20
747.1711506302
 30
0.0
  0
VERTEX
  5
2EF
330
B6
100
AcDbEntity
  8
0
  6
CONTINUOUS
 62
     7
100
AcDbVertex
100
AcDb2dVertex
 10
249.4377480904
 20
749.1263021881
 30
0.0
  0
VERTEX
  5
2F0
330
B6
100
AcDbEntity
  8
0
  6
CONTINUOUS
 62
     7
100
AcDbVertex
100
AcDb2dVertex
 10
250.6842749278
 20
750.8301605637
 30
0.0
  0
VERTEX
  5
2F1
330
B6
100
AcDbEntity
  8
0
  6
CONTINUOUS
 62
     7
100
AcDbVertex
100
AcDb2dVertex
 10
251.9586818377
 20
752.2737850601
 30
0.0
  0
VERTEX
  5
2F2
330
B6
100
AcDbEntity
  8
0
  6
CONTINUOUS
 62
     7
100
AcDbVertex
100
AcDb2dVertex
 10
253.2327311198
 20
753.4547914917
 30
0.0
  0
VERTEX
  5
2F3
330
B6
100
AcDbEntity
  8
0
  6
CONTINUOUS
 62
     7
100
AcDbVertex
100
AcDb2dVertex
 10
254.4829087416
 20
754.3807496483
 30
0.0
  0
VERTEX
  5
2F4
330
B6
100
AcDbEntity
  8
0
  6
CONTINUOUS
 62
     7
100
AcDbVertex
100
AcDb2dVertex
 10
255.6941794316
 20
755.0672759468
 30
0.0
  0
VERTEX
  5
2F5
330
B6
100
AcDbEntity
  8
0
  6
CONTINUOUS
 62
     7
100
AcDbVertex
100
AcDb2dVertex
 10
256.8678097884
 20
755.5352320129
 30
0.0
  0
VERTEX
  5
2F6
330
B6
100
AcDbEntity
  8
0
  6
CONTINUOUS
 62
     7
100
AcDbVertex
100
AcDb2dVertex
 10
258.034764425
 20
755.8026184494
 30
0.0
  0
VERTEX
  5
2F7
330
B6
100
AcDbEntity
  8
0
  6
CONTINUOUS
 62
     7
100
AcDbVertex
100
AcDb2dVertex
 10
258.5630403916
 20
755.8567394669
 30
0.0
  0
SEQEND
  5
7F4
330
B6
100
AcDbEntity
  8
0
  6
CONTINUOUS
 62
     7
  0
LINE
  5
B7
330
1F
100
AcDbEntity
  8
0
  6
CONTINUOUS
 62
     7
100
AcDbLine
 10
216.9077979485
 20
379.5117606575
 30
0.0
 11
243.3873849074
 21
729.7841181213
 31
0.0
  0
LINE
  5
B8
330
1F
100
AcDbEntity
  8
0
  6
CONTINUOUS
 62
     7
100
AcDbLine
 10
196.9575719992
 20
380.9250463898
 30
0.0
 11
196.341602699
 21
372.7769722397
 31
0.0
  0
LINE
  5
B9
330
1F
100
AcDbEntity
  8
0
  6
CONTINUOUS
 62
     7
100
AcDbLine
 10
193.9592348496
 20
341.2631322796
 30
0.0
 11
175.0844108025
 21
91.5864581408
 31
0.0
  0
LINE
  5
BA
330
1F
100
AcDbEntity
  8
0
  6
CONTINUOUS
 62
     7
100
AcDbLine
 10
555.014504687
 20
770.6141938622
 30
0.0
 11
555.014504687
 21
772.8392352516
 31
0.0
  0
LINE
  5
BB
330
1F
100
AcDbEntity
  8
0
  6
CONTINUOUS
 62
     7
100
AcDbLine
 10
535.0145014087
 20
771.9609012062
 30
0.0
 11
535.0145014087
 21
771.8616594727
 31
0.0
  0
LINE
  5
BC
330
1F
100
AcDbEntity
  8
0
  6
CONTINUOUS
 62
     7
100
AcDbLine
 10
341.4735259573
 20
771.8616594727
 30
0.0
 11
341.4735259573
 21
771.9609012062
 31
0.0
  0
LINE
  5
BD
330
1F
100
AcDbEntity
  8
0
  6
CONTINUOUS
 62
     7
100
AcDbLine
 10
321.473522679
 20
772.8392352516
 30
0.0
 11
321.473522679
 21
770.6141938622
 31
0.0
  0
ARC
  5
BE
330
1F
100
AcDbEntity
  8
0
  6
CONTINUOUS
 62
     7
100
AcDbCircle
 10
545.0015922017
 20
767.6538247984
 30
0.0
 40
9.850747027990511
100
AcDbArc
 50
223.6901311515
 51
309.1722159348
  0
ARC
  5
BF
330
1F
100
AcDbEntity
  8
0
  6
CONTINUOUS
 62
     7
100
AcDbCircle
 10
331.4932880861
 20
767.685454298
 30
0.0
 40
9.878546510247332
100
AcDbArc
 50
230.9198659961
 51
316.218248746
  0
POLYLINE
  5
C0
330
1F
100
AcDbEntity
  8
0
  6
CONTINUOUS
 62
     7
100
AcDb2dPolyline
 66
     1
 10
0.0
 20
0.0
 30
0.0
 70
   128
  0
VERTEX
  5
2F8
330
C0
100
AcDbEntity
  8
0
  6
CONTINUOUS
 62
     7
100
AcDbVertex
100
AcDb2dVertex
 10
525.0007720749
 20
963.6422266418
 30
0.0
  0
VERTEX
  5
2F9
330
C0
100
AcDbEntity
  8
0
  6
CONTINUOUS
 62
     7
100
AcDbVertex
100
AcDb2dVertex
 10
525.0848816792
 20
962.0537628586
 30
0.0
  0
VERTEX
  5
2FA
330
C0
100
AcDbEntity
  8
0
  6
CONTINUOUS
 62
     7
100
AcDbVertex
100
AcDb2dVertex
 10
525.2549858848
 20
958.7350954468
 30
0.0
  0
SEQEND
  5
7F5
330
C0
100
AcDbEntity
  8
0
  6
CONTINUOUS
 62
     7
  0
POLYLINE
  5
C1
330
1F
100
AcDbEntity
  8
0
  6
CONTINUOUS
 62
     7
100
AcDb2dPolyline
 66
     1
 10
0.0
 20
0.0
 30
0.0
 70
   128
  0
VERTEX
  5
2FB
330
C1
100
AcDbEntity
  8
0
  6
CONTINUOUS
 62
     7
100
AcDbVertex
100
AcDb2dVertex
 10
545.2295975844
 20
959.7424735481
 30
0.0
  0
VERTEX
  5
2FC
330
C1
100
AcDbEntity
  8
0
  6
CONTINUOUS
 62
     7
100
AcDbVertex
100
AcDb2dVertex
 10
545.1343121092
 20
961.6147150452
 30
0.0
  0
VERTEX
  5
2FD
330
C1
100
AcDbEntity
  8
0
  6
CONTINUOUS
 62
     7
100
AcDbVertex
100
AcDb2dVertex
 10
545.0284244577
 20
963.6422266418
 30
0.0
  0
SEQEND
  5
7F6
330
C1
100
AcDbEntity
  8
0
  6
CONTINUOUS
 62
     7
  0
POLYLINE
  5
C2
330
1F
100
AcDbEntity
  8
0
  6
CONTINUOUS
 62
     7
100
AcDb2dPolyline
 66
     1
 10
0.0
 20
0.0
 30
0.0
 70
   128
  0
VERTEX
  5
2FE
330
C2
100
AcDbEntity
  8
0
  6
CONTINUOUS
 62
     7
100
AcDbVertex
100
AcDb2dVertex
 10
351.2330414812
 20
958.7350954468
 30
0.0
  0
VERTEX
  5
2FF
330
C2
100
AcDbEntity
  8
0
  6
CONTINUOUS
 62
     7
100
AcDbVertex
100
AcDb2dVertex
 10
351.3273956339
 20
960.5889787132
 30
0.0
  0
VERTEX
  5
300
330
C2
100
AcDbEntity
  8
0
  6
CONTINUOUS
 62
     7
100
AcDbVertex
100
AcDb2dVertex
 10
351.4868529598
 20
963.6422266418
 30
0.0
  0
SEQEND
  5
7F7
330
C2
100
AcDbEntity
  8
0
  6
CONTINUOUS
 62
     7
  0
POLYLINE
  5
C3
330
1F
100
AcDbEntity
  8
0
  6
CONTINUOUS
 62
     7
100
AcDb2dPolyline
 66
     1
 10
0.0
 20
0.0
 30
0.0
 70
   128
  0
VERTEX
  5
301
330
C3
100
AcDbEntity
  8
0
  6
CONTINUOUS
 62
     7
100
AcDbVertex
100
AcDb2dVertex
 10
331.459252731
 20
963.6422266418
 30
0.0
  0
VERTEX
  5
302
330
C3
100
AcDbEntity
  8
0
  6
CONTINUOUS
 62
     7
100
AcDbVertex
100
AcDb2dVertex
 10
331.4300986091
 20
963.0917181427
 30
0.0
  0
VERTEX
  5
303
330
C3
100
AcDbEntity
  8
0
  6
CONTINUOUS
 62
     7
100
AcDbVertex
100
AcDb2dVertex
 10
331.2584297816
 20
959.7424735481
 30
0.0
  0
SEQEND
  5
7F8
330
C3
100
AcDbEntity
  8
0
  6
CONTINUOUS
 62
     7
  0
LINE
  5
C4
330
1F
100
AcDbEntity
  8
0
  6
CONTINUOUS
 62
     7
100
AcDbLine
 10
552.4492325346
 20
816.5956606323
 30
0.0
 11
545.2295975844
 21
959.7424735481
 31
0.0
  0
LINE
  5
C5
330
1F
100
AcDbEntity
  8
0
  6
CONTINUOUS
 62
     7
100
AcDbLine
 10
525.2549858848
 20
958.7350954468
 30
0.0
 11
532.4070887725
 21
816.9272412712
 31
0.0
  0
LINE
  5
C6
330
1F
100
AcDbEntity
  8
0
  6
CONTINUOUS
 62
     7
100
AcDbLine
 10
344.0809236924
 20
816.926943248
 30
0.0
 11
351.2330414812
 21
958.7350954468
 31
0.0
  0
LINE
  5
C7
330
1F
100
AcDbEntity
  8
0
  6
CONTINUOUS
 62
     7
100
AcDbLine
 10
331.2584297816
 20
959.7424735481
 30
0.0
 11
324.0387948314
 21
816.5956606323
 31
0.0
  0
LINE
  5
C8
330
1F
100
AcDbEntity
  8
0
  6
CONTINUOUS
 62
     7
100
AcDbLine
 10
288.2440077225
 20
963.6422266418
 30
0.0
 11
588.2440196435
 21
963.6422266418
 31
0.0
  0
ARC
  5
C9
330
1F
100
AcDbEntity
  8
0
  6
CONTINUOUS
 62
     7
100
AcDbCircle
 10
287.9954764624
 20
993.4384227067
 30
0.0
 40
29.79723255143219
100
AcDbArc
 50
190.5128240954
 51
270.4778953001
  0
ARC
  5
CA
330
1F
100
AcDbEntity
  8
0
  6
CONTINUOUS
 62
     7
100
AcDbCircle
 10
588.5469352107
 20
993.3394091722
 30
0.0
 40
29.69872738147791
100
AcDbArc
 50
269.4155950095
 51
359.3975443204
  0
POLYLINE
  5
CB
330
1F
100
AcDbEntity
  8
0
  6
CONTINUOUS
 62
     7
100
AcDb2dPolyline
 66
     1
 10
0.0
 20
0.0
 30
0.0
 70
   128
  0
VERTEX
  5
304
330
CB
100
AcDbEntity
  8
0
  6
CONTINUOUS
 62
     7
100
AcDbVertex
100
AcDb2dVertex
 10
460.7054187069
 20
1046.7877854759
 30
0.0
  0
VERTEX
  5
305
330
CB
100
AcDbEntity
  8
0
  6
CONTINUOUS
 62
     7
100
AcDbVertex
100
AcDb2dVertex
 10
460.7250453989
 20
1045.8302964623
 30
0.0
  0
VERTEX
  5
306
330
CB
100
AcDbEntity
  8
0
  6
CONTINUOUS
 62
     7
100
AcDbVertex
100
AcDb2dVertex
 10
460.4661656628
 20
1043.2579388077
 30
0.0
  0
VERTEX
  5
307
330
CB
100
AcDbEntity
  8
0
  6
CONTINUOUS
 62
     7
100
AcDbVertex
100
AcDb2dVertex
 10
459.8985636691
 20
1040.7457222397
 30
0.0
  0
VERTEX
  5
308
330
CB
100
AcDbEntity
  8
0
  6
CONTINUOUS
 62
     7
100
AcDbVertex
100
AcDb2dVertex
 10
459.0250166218
 20
1038.3131374771
 30
0.0
  0
VERTEX
  5
309
330
CB
100
AcDbEntity
  8
0
  6
CONTINUOUS
 62
     7
100
AcDbVertex
100
AcDb2dVertex
 10
457.8590957532
 20
1035.9833111221
 30
0.0
  0
VERTEX
  5
30A
330
CB
100
AcDbEntity
  8
0
  6
CONTINUOUS
 62
     7
100
AcDbVertex
100
AcDb2dVertex
 10
456.4269842664
 20
1033.8185300285
 30
0.0
  0
VERTEX
  5
30B
330
CB
100
AcDbEntity
  8
0
  6
CONTINUOUS
 62
     7
100
AcDbVertex
100
AcDb2dVertex
 10
454.7332326035
 20
1031.8247546608
 30
0.0
  0
VERTEX
  5
30C
330
CB
100
AcDbEntity
  8
0
  6
CONTINUOUS
 62
     7
100
AcDbVertex
100
AcDb2dVertex
 10
452.8071634556
 20
1030.0314893181
 30
0.0
  0
VERTEX
  5
30D
330
CB
100
AcDbEntity
  8
0
  6
CONTINUOUS
 62
     7
100
AcDbVertex
100
AcDb2dVertex
 10
450.6927548061
 20
1028.4855832512
 30
0.0
  0
VERTEX
  5
30E
330
CB
100
AcDbEntity
  8
0
  6
CONTINUOUS
 62
     7
100
AcDbVertex
100
AcDb2dVertex
 10
448.3896518211
 20
1027.1839966232
 30
0.0
  0
VERTEX
  5
30F
330
CB
100
AcDbEntity
  8
0
  6
CONTINUOUS
 62
     7
100
AcDbVertex
100
AcDb2dVertex
 10
445.9455726753
 20
1026.1521210129
 30
0.0
  0
VERTEX
  5
310
330
CB
100
AcDbEntity
  8
0
  6
CONTINUOUS
 62
     7
100
AcDbVertex
100
AcDb2dVertex
 10
443.3970028619
 20
1025.4117717201
 30
0.0
  0
VERTEX
  5
311
330
CB
100
AcDbEntity
  8
0
  6
CONTINUOUS
 62
     7
100
AcDbVertex
100
AcDb2dVertex
 10
440.7845869279
 20
1024.9695052559
 30
0.0
  0
VERTEX
  5
312
330
CB
100
AcDbEntity
  8
0
  6
CONTINUOUS
 62
     7
100
AcDbVertex
100
AcDb2dVertex
 10
438.1559425671
 20
1024.8318185265
 30
0.0
  0
VERTEX
  5
313
330
CB
100
AcDbEntity
  8
0
  6
CONTINUOUS
 62
     7
100
AcDbVertex
100
AcDb2dVertex
 10
435.5043048124
 20
1024.9945988113
 30
0.0
  0
VERTEX
  5
314
330
CB
100
AcDbEntity
  8
0
  6
CONTINUOUS
 62
     7
100
AcDbVertex
100
AcDb2dVertex
 10
432.8932521018
 20
1025.4575480873
 30
0.0
  0
VERTEX
  5
315
330
CB
100
AcDbEntity
  8
0
  6
CONTINUOUS
 62
     7
100
AcDbVertex
100
AcDb2dVertex
 10
430.3753372366
 20
1026.214348262
 30
0.0
  0
VERTEX
  5
316
330
CB
100
AcDbEntity
  8
0
  6
CONTINUOUS
 62
     7
100
AcDbVertex
100
AcDb2dVertex
 10
427.9432293112
 20
1027.2599925453
 30
0.0
  0
VERTEX
  5
317
330
CB
100
AcDbEntity
  8
0
  6
CONTINUOUS
 62
     7
100
AcDbVertex
100
AcDb2dVertex
 10
425.6647262807
 20
1028.5692085678
 30
0.0
  0
VERTEX
  5
318
330
CB
100
AcDbEntity
  8
0
  6
CONTINUOUS
 62
     7
100
AcDbVertex
100
AcDb2dVertex
 10
423.5682772557
 20
1030.1276316101
 30
0.0
  0
VERTEX
  5
319
330
CB
100
AcDbEntity
  8
0
  6
CONTINUOUS
 62
     7
100
AcDbVertex
100
AcDb2dVertex
 10
421.6552028517
 20
1031.9276918823
 30
0.0
  0
VERTEX
  5
31A
330
CB
100
AcDbEntity
  8
0
  6
CONTINUOUS
 62
     7
100
AcDbVertex
100
AcDb2dVertex
 10
419.9875319461
 20
1033.9164008553
 30
0.0
  0
VERTEX
  5
31B
330
CB
100
AcDbEntity
  8
0
  6
CONTINUOUS
 62
     7
100
AcDbVertex
100
AcDb2dVertex
 10
418.5703141699
 20
1036.0886325295
 30
0.0
  0
VERTEX
  5
31C
330
CB
100
AcDbEntity
  8
0
  6
CONTINUOUS
 62
     7
100
AcDbVertex
100
AcDb2dVertex
 10
417.4156697552
 20
1038.4201874191
 30
0.0
  0
VERTEX
  5
31D
330
CB
100
AcDbEntity
  8
0
  6
CONTINUOUS
 62
     7
100
AcDbVertex
100
AcDb2dVertex
 10
416.5624758313
 20
1040.8409108574
 30
0.0
  0
VERTEX
  5
31E
330
CB
100
AcDbEntity
  8
0
  6
CONTINUOUS
 62
     7
100
AcDbVertex
100
AcDb2dVertex
 10
416.0065768371
 20
1043.3608760292
 30
0.0
  0
VERTEX
  5
31F
330
CB
100
AcDbEntity
  8
0
  6
CONTINUOUS
 62
     7
100
AcDbVertex
100
AcDb2dVertex
 10
415.7571164976
 20
1045.9338297302
 30
0.0
  0
VERTEX
  5
320
330
CB
100
AcDbEntity
  8
0
  6
CONTINUOUS
 62
     7
100
AcDbVertex
100
AcDb2dVertex
 10
415.7738225619
 20
1046.562599128
 30
0.0
  0
SEQEND
  5
7F9
330
CB
100
AcDbEntity
  8
0
  6
CONTINUOUS
 62
     7
  0
ARC
  5
CC
330
1F
100
AcDbEntity
  8
0
  6
CONTINUOUS
 62
     7
100
AcDbCircle
 10
437.8416925078
 20
1046.3285695941
 30
0.0
 40
22.06211766898819
100
AcDbArc
 50
88.9551056028
 51
179.3476255084
  0
ARC
  5
CD
330
1F
100
AcDbEntity
  8
0
  6
CONTINUOUS
 62
     7
100
AcDbCircle
 10
438.6139249438
 20
1046.2782931097
 30
0.0
 40
22.11181987789978
100
AcDbArc
 50
0.7068987679
 51
90.9585526142
  0
ARC
  5
CE
330
1F
100
AcDbEntity
  8
0
  6
CONTINUOUS
 62
     7
100
AcDbCircle
 10
589.2247186926
 20
1102.2691267998
 30
0.0
 40
28.99659132543244
100
AcDbArc
 50
0.9907260855
 51
92.2120713859
  0
ARC
  5
CF
330
1F
100
AcDbEntity
  8
0
  6
CONTINUOUS
 62
     7
100
AcDbCircle
 10
287.2502450776
 20
1102.2213359558
 30
0.0
 40
29.02417340823603
100
AcDbArc
 50
87.7678742864
 51
173.0986562157
  0
POLYLINE
  5
D0
330
1F
100
AcDbEntity
  8
0
  6
CONTINUOUS
 62
     7
100
AcDb2dPolyline
 66
     1
 10
0.0
 20
0.0
 30
0.0
 70
   128
  0
VERTEX
  5
321
330
D0
100
AcDbEntity
  8
0
  6
CONTINUOUS
 62
     7
100
AcDbVertex
100
AcDb2dVertex
 10
588.1089406173
 20
1131.2573422844
 30
0.0
  0
VERTEX
  5
322
330
D0
100
AcDbEntity
  8
0
  6
CONTINUOUS
 62
     7
100
AcDbVertex
100
AcDb2dVertex
 10
576.6931610266
 20
1131.0102214272
 30
0.0
  0
VERTEX
  5
323
330
D0
100
AcDbEntity
  8
0
  6
CONTINUOUS
 62
     7
100
AcDbVertex
100
AcDb2dVertex
 10
554.9804778854
 20
1130.5945386345
 30
0.0
  0
VERTEX
  5
324
330
D0
100
AcDbEntity
  8
0
  6
CONTINUOUS
 62
     7
100
AcDbVertex
100
AcDb2dVertex
 10
533.2430886189
 20
1130.2495469505
 30
0.0
  0
VERTEX
  5
325
330
D0
100
AcDbEntity
  8
0
  6
CONTINUOUS
 62
     7
100
AcDbVertex
100
AcDb2dVertex
 10
511.4856796424
 20
1129.9754847939
 30
0.0
  0
VERTEX
  5
326
330
D0
100
AcDbEntity
  8
0
  6
CONTINUOUS
 62
     7
100
AcDbVertex
100
AcDb2dVertex
 10
489.7128330628
 20
1129.7723521645
 30
0.0
  0
VERTEX
  5
327
330
D0
100
AcDbEntity
  8
0
  6
CONTINUOUS
 62
     7
100
AcDbVertex
100
AcDb2dVertex
 10
467.9291403006
 20
1129.6401490624
 30
0.0
  0
VERTEX
  5
328
330
D0
100
AcDbEntity
  8
0
  6
CONTINUOUS
 62
     7
100
AcDbVertex
100
AcDb2dVertex
 10
446.139187188
 20
1129.5788754875
 30
0.0
  0
VERTEX
  5
329
330
D0
100
AcDbEntity
  8
0
  6
CONTINUOUS
 62
     7
100
AcDbVertex
100
AcDb2dVertex
 10
424.3475632827
 20
1129.5886506493
 30
0.0
  0
VERTEX
  5
32A
330
D0
100
AcDbEntity
  8
0
  6
CONTINUOUS
 62
     7
100
AcDbVertex
100
AcDb2dVertex
 10
402.5588581423
 20
1129.6694745476
 30
0.0
  0
VERTEX
  5
32B
330
D0
100
AcDbEntity
  8
0
  6
CONTINUOUS
 62
     7
100
AcDbVertex
100
AcDb2dVertex
 10
380.7776631872
 20
1129.8212279732
 30
0.0
  0
VERTEX
  5
32C
330
D0
100
AcDbEntity
  8
0
  6
CONTINUOUS
 62
     7
100
AcDbVertex
100
AcDb2dVertex
 10
359.0085642497
 20
1130.0439109261
 30
0.0
  0
VERTEX
  5
32D
330
D0
100
AcDbEntity
  8
0
  6
CONTINUOUS
 62
     7
100
AcDbVertex
100
AcDb2dVertex
 10
337.2561471621
 20
1130.3375234062
 30
0.0
  0
VERTEX
  5
32E
330
D0
100
AcDbEntity
  8
0
  6
CONTINUOUS
 62
     7
100
AcDbVertex
100
AcDb2dVertex
 10
315.5249940316
 20
1130.7019462044
 30
0.0
  0
VERTEX
  5
32F
330
D0
100
AcDbEntity
  8
0
  6
CONTINUOUS
 62
     7
100
AcDbVertex
100
AcDb2dVertex
 10
293.8196944157
 20
1131.1370601112
 30
0.0
  0
VERTEX
  5
330
330
D0
100
AcDbEntity
  8
0
  6
CONTINUOUS
 62
     7
100
AcDbVertex
100
AcDb2dVertex
 10
288.3790867488
 20
1131.2573422844
 30
0.0
  0
SEQEND
  5
7FA
330
D0
100
AcDbEntity
  8
0
  6
CONTINUOUS
 62
     7
  0
POLYLINE
  5
D1
330
1F
100
AcDbEntity
  8
0
  6
CONTINUOUS
 62
     7
100
AcDb2dPolyline
 66
     1
 10
0.0
 20
0.0
 30
0.0
 70
   128
  0
VERTEX
  5
331
330
D1
100
AcDbEntity
  8
0
  6
CONTINUOUS
 62
     7
100
AcDbVertex
100
AcDb2dVertex
 10
222.9574011723
 20
373.2383419926
 30
0.0
  0
VERTEX
  5
332
330
D1
100
AcDbEntity
  8
0
  6
CONTINUOUS
 62
     7
100
AcDbVertex
100
AcDb2dVertex
 10
220.9745334546
 20
373.2360174114
 30
0.0
  0
VERTEX
  5
333
330
D1
100
AcDbEntity
  8
0
  6
CONTINUOUS
 62
     7
100
AcDbVertex
100
AcDb2dVertex
 10
217.2166990201
 20
373.2188810761
 30
0.0
  0
VERTEX
  5
334
330
D1
100
AcDbEntity
  8
0
  6
CONTINUOUS
 62
     7
100
AcDbVertex
100
AcDb2dVertex
 10
213.4975927035
 20
373.1851448471
 30
0.0
  0
VERTEX
  5
335
330
D1
100
AcDbEntity
  8
0
  6
CONTINUOUS
 62
     7
100
AcDbVertex
100
AcDb2dVertex
 10
209.8430829207
 20
373.1349875385
 30
0.0
  0
VERTEX
  5
336
330
D1
100
AcDbEntity
  8
0
  6
CONTINUOUS
 62
     7
100
AcDbVertex
100
AcDb2dVertex
 10
206.2775926749
 20
373.0687369759
 30
0.0
  0
VERTEX
  5
337
330
D1
100
AcDbEntity
  8
0
  6
CONTINUOUS
 62
     7
100
AcDbVertex
100
AcDb2dVertex
 10
202.8246956031
 20
372.9867209847
 30
0.0
  0
VERTEX
  5
338
330
D1
100
AcDbEntity
  8
0
  6
CONTINUOUS
 62
     7
100
AcDbVertex
100
AcDb2dVertex
 10
199.5067732493
 20
372.8893567974
 30
0.0
  0
VERTEX
  5
339
330
D1
100
AcDbEntity
  8
0
  6
CONTINUOUS
 62
     7
100
AcDbVertex
100
AcDb2dVertex
 10
196.3447617451
 20
372.777091449
 30
0.0
  0
VERTEX
  5
33A
330
D1
100
AcDbEntity
  8
0
  6
CONTINUOUS
 62
     7
100
AcDbVertex
100
AcDb2dVertex
 10
193.3575855653
 20
372.6503719742
 30
0.0
  0
VERTEX
  5
33B
330
D1
100
AcDbEntity
  8
0
  6
CONTINUOUS
 62
     7
100
AcDbVertex
100
AcDb2dVertex
 10
190.561635987
 20
372.5094367916
 30
0.0
  0
VERTEX
  5
33C
330
D1
100
AcDbEntity
  8
0
  6
CONTINUOUS
 62
     7
100
AcDbVertex
100
AcDb2dVertex
 10
187.9697429101
 20
372.3542859013
 30
0.0
  0
VERTEX
  5
33D
330
D1
100
AcDbEntity
  8
0
  6
CONTINUOUS
 62
     7
100
AcDbVertex
100
AcDb2dVertex
 10
185.5894612233
 20
372.1842040474
 30
0.0
  0
VERTEX
  5
33E
330
D1
100
AcDbEntity
  8
0
  6
CONTINUOUS
 62
     7
100
AcDbVertex
100
AcDb2dVertex
 10
183.4193157117
 20
371.9967772419
 30
0.0
  0
VERTEX
  5
33F
330
D1
100
AcDbEntity
  8
0
  6
CONTINUOUS
 62
     7
100
AcDbVertex
100
AcDb2dVertex
 10
181.4394580285
 20
371.7854489739
 30
0.0
  0
VERTEX
  5
340
330
D1
100
AcDbEntity
  8
0
  6
CONTINUOUS
 62
     7
100
AcDbVertex
100
AcDb2dVertex
 10
179.5806573788
 20
371.5295066292
 30
0.0
  0
VERTEX
  5
341
330
D1
100
AcDbEntity
  8
0
  6
CONTINUOUS
 62
     7
100
AcDbVertex
100
AcDb2dVertex
 10
177.5551425378
 20
371.1309601719
 30
0.0
  0
VERTEX
  5
342
330
D1
100
AcDbEntity
  8
0
  6
CONTINUOUS
 62
     7
100
AcDbVertex
100
AcDb2dVertex
 10
176.4593707482
 20
370.8227445538
 30
0.0
  0
VERTEX
  5
343
330
D1
100
AcDbEntity
  8
0
  6
CONTINUOUS
 62
     7
100
AcDbVertex
100
AcDb2dVertex
 10
175.5796955983
 20
370.5047537739
 30
0.0
  0
VERTEX
  5
344
330
D1
100
AcDbEntity
  8
0
  6
CONTINUOUS
 62
     7
100
AcDbVertex
100
AcDb2dVertex
 10
174.6453033845
 20
370.0796534473
 30
0.0
  0
VERTEX
  5
345
330
D1
100
AcDbEntity
  8
0
  6
CONTINUOUS
 62
     7
100
AcDbVertex
100
AcDb2dVertex
 10
173.6366735856
 20
369.4964816029
 30
0.0
  0
VERTEX
  5
346
330
D1
100
AcDbEntity
  8
0
  6
CONTINUOUS
 62
     7
100
AcDbVertex
100
AcDb2dVertex
 10
172.5876914422
 20
368.7164952213
 30
0.0
  0
VERTEX
  5
347
330
D1
100
AcDbEntity
  8
0
  6
CONTINUOUS
 62
     7
100
AcDbVertex
100
AcDb2dVertex
 10
171.5442525307
 20
367.7012493069
 30
0.0
  0
VERTEX
  5
348
330
D1
100
AcDbEntity
  8
0
  6
CONTINUOUS
 62
     7
100
AcDbVertex
100
AcDb2dVertex
 10
170.594333307
 20
366.457449382
 30
0.0
  0
VERTEX
  5
349
330
D1
100
AcDbEntity
  8
0
  6
CONTINUOUS
 62
     7
100
AcDbVertex
100
AcDb2dVertex
 10
169.8188172738
 20
365.022556966
 30
0.0
  0
VERTEX
  5
34A
330
D1
100
AcDbEntity
  8
0
  6
CONTINUOUS
 62
     7
100
AcDbVertex
100
AcDb2dVertex
 10
169.2735837857
 20
363.4458054955
 30
0.0
  0
VERTEX
  5
34B
330
D1
100
AcDbEntity
  8
0
  6
CONTINUOUS
 62
     7
100
AcDbVertex
100
AcDb2dVertex
 10
168.9928757111
 20
361.7819716389
 30
0.0
  0
VERTEX
  5
34C
330
D1
100
AcDbEntity
  8
0
  6
CONTINUOUS
 62
     7
100
AcDbVertex
100
AcDb2dVertex
 10
169.0057801167
 20
359.9473406727
 30
0.0
  0
VERTEX
  5
34D
330
D1
100
AcDbEntity
  8
0
  6
CONTINUOUS
 62
     7
100
AcDbVertex
100
AcDb2dVertex
 10
169.3212078969
 20
358.2461049015
 30
0.0
  0
VERTEX
  5
34E
330
D1
100
AcDbEntity
  8
0
  6
CONTINUOUS
 62
     7
100
AcDbVertex
100
AcDb2dVertex
 10
169.8804782788
 20
356.7114343102
 30
0.0
  0
VERTEX
  5
34F
330
D1
100
AcDbEntity
  8
0
  6
CONTINUOUS
 62
     7
100
AcDbVertex
100
AcDb2dVertex
 10
170.6291424195
 20
355.360375827
 30
0.0
  0
VERTEX
  5
350
330
D1
100
AcDbEntity
  8
0
  6
CONTINUOUS
 62
     7
100
AcDbVertex
100
AcDb2dVertex
 10
171.5121256272
 20
354.206042474
 30
0.0
  0
VERTEX
  5
351
330
D1
100
AcDbEntity
  8
0
  6
CONTINUOUS
 62
     7
100
AcDbVertex
100
AcDb2dVertex
 10
172.4699424664
 20
353.255646413
 30
0.0
  0
VERTEX
  5
352
330
D1
100
AcDbEntity
  8
0
  6
CONTINUOUS
 62
     7
100
AcDbVertex
100
AcDb2dVertex
 10
173.4399782578
 20
352.5059987957
 30
0.0
  0
VERTEX
  5
353
330
D1
100
AcDbEntity
  8
0
  6
CONTINUOUS
 62
     7
100
AcDbVertex
100
AcDb2dVertex
 10
174.3744300763
 20
351.934271043
 30
0.0
  0
SEQEND
  5
7FB
330
D1
100
AcDbEntity
  8
0
  6
CONTINUOUS
 62
     7
  0
POLYLINE
  5
D2
330
1F
100
AcDbEntity
  8
0
  6
CONTINUOUS
 62
     7
100
AcDb2dPolyline
 66
     1
 10
0.0
 20
0.0
 30
0.0
 70
   128
  0
VERTEX
  5
354
330
D2
100
AcDbEntity
  8
0
  6
CONTINUOUS
 62
     7
100
AcDbVertex
100
AcDb2dVertex
 10
182.3160635392
 20
351.7053892071
 30
0.0
  0
VERTEX
  5
355
330
D2
100
AcDbEntity
  8
0
  6
CONTINUOUS
 62
     7
100
AcDbVertex
100
AcDb2dVertex
 10
182.3523627679
 20
351.7128099854
 30
0.0
  0
VERTEX
  5
356
330
D2
100
AcDbEntity
  8
0
  6
CONTINUOUS
 62
     7
100
AcDbVertex
100
AcDb2dVertex
 10
182.6428460042
 20
351.7649044449
 30
0.0
  0
VERTEX
  5
357
330
D2
100
AcDbEntity
  8
0
  6
CONTINUOUS
 62
     7
100
AcDbVertex
100
AcDb2dVertex
 10
183.2242595116
 20
351.8515695984
 30
0.0
  0
VERTEX
  5
358
330
D2
100
AcDbEntity
  8
0
  6
CONTINUOUS
 62
     7
100
AcDbVertex
100
AcDb2dVertex
 10
184.1346608559
 20
351.964311784
 30
0.0
  0
VERTEX
  5
359
330
D2
100
AcDbEntity
  8
0
  6
CONTINUOUS
 62
     7
100
AcDbVertex
100
AcDb2dVertex
 10
185.3899346749
 20
352.0939518864
 30
0.0
  0
VERTEX
  5
35A
330
D2
100
AcDbEntity
  8
0
  6
CONTINUOUS
 62
     7
100
AcDbVertex
100
AcDb2dVertex
 10
186.9840012948
 20
352.2320558483
 30
0.0
  0
VERTEX
  5
35B
330
D2
100
AcDbEntity
  8
0
  6
CONTINUOUS
 62
     7
100
AcDbVertex
100
AcDb2dVertex
 10
188.8972060839
 20
352.371888345
 30
0.0
  0
VERTEX
  5
35C
330
D2
100
AcDbEntity
  8
0
  6
CONTINUOUS
 62
     7
100
AcDbVertex
100
AcDb2dVertex
 10
191.104276673
 20
352.5085319931
 30
0.0
  0
VERTEX
  5
35D
330
D2
100
AcDbEntity
  8
0
  6
CONTINUOUS
 62
     7
100
AcDbVertex
100
AcDb2dVertex
 10
193.5786293904
 20
352.6384701187
 30
0.0
  0
VERTEX
  5
35E
330
D2
100
AcDbEntity
  8
0
  6
CONTINUOUS
 62
     7
100
AcDbVertex
100
AcDb2dVertex
 10
196.2937699715
 20
352.759229129
 30
0.0
  0
VERTEX
  5
35F
330
D2
100
AcDbEntity
  8
0
  6
CONTINUOUS
 62
     7
100
AcDbVertex
100
AcDb2dVertex
 10
199.2234872739
 20
352.8688718731
 30
0.0
  0
VERTEX
  5
360
330
D2
100
AcDbEntity
  8
0
  6
CONTINUOUS
 62
     7
100
AcDbVertex
100
AcDb2dVertex
 10
202.3415552537
 20
352.9660274441
 30
0.0
  0
VERTEX
  5
361
330
D2
100
AcDbEntity
  8
0
  6
CONTINUOUS
 62
     7
100
AcDbVertex
100
AcDb2dVertex
 10
205.6215541522
 20
353.0495335514
 30
0.0
  0
VERTEX
  5
362
330
D2
100
AcDbEntity
  8
0
  6
CONTINUOUS
 62
     7
100
AcDbVertex
100
AcDb2dVertex
 10
209.036736385
 20
353.1185259277
 30
0.0
  0
VERTEX
  5
363
330
D2
100
AcDbEntity
  8
0
  6
CONTINUOUS
 62
     7
100
AcDbVertex
100
AcDb2dVertex
 10
212.5599520365
 20
353.1723191196
 30
0.0
  0
VERTEX
  5
364
330
D2
100
AcDbEntity
  8
0
  6
CONTINUOUS
 62
     7
100
AcDbVertex
100
AcDb2dVertex
 10
216.1637233655
 20
353.2103766853
 30
0.0
  0
VERTEX
  5
365
330
D2
100
AcDbEntity
  8
0
  6
CONTINUOUS
 62
     7
100
AcDbVertex
100
AcDb2dVertex
 10
219.8202299039
 20
353.2324006016
 30
0.0
  0
VERTEX
  5
366
330
D2
100
AcDbEntity
  8
0
  6
CONTINUOUS
 62
     7
100
AcDbVertex
100
AcDb2dVertex
 10
222.9574011723
 20
353.2383312637
 30
0.0
  0
SEQEND
  5
7FC
330
D2
100
AcDbEntity
  8
0
  6
CONTINUOUS
 62
     7
  0
LINE
  5
D3
330
1F
100
AcDbEntity
  8
0
  6
CONTINUOUS
 62
     7
100
AcDbLine
 10
222.9574011723
 20
353.2383312637
 30
0.0
 11
653.5306261937
 21
353.2383312637
 31
0.0
  0
LINE
  5
D4
330
1F
100
AcDbEntity
  8
0
  6
CONTINUOUS
 62
     7
100
AcDbLine
 10
653.5306261937
 20
373.2383419926
 30
0.0
 11
222.9574011723
 21
373.2383419926
 31
0.0
  0
POLYLINE
  5
D5
330
1F
100
AcDbEntity
  8
0
  6
CONTINUOUS
 62
     7
100
AcDb2dPolyline
 66
     1
 10
0.0
 20
0.0
 30
0.0
 70
   128
  0
VERTEX
  5
367
330
D5
100
AcDbEntity
  8
0
  6
CONTINUOUS
 62
     7
100
AcDbVertex
100
AcDb2dVertex
 10
702.1135972897
 20
351.934271043
 30
0.0
  0
VERTEX
  5
368
330
D5
100
AcDbEntity
  8
0
  6
CONTINUOUS
 62
     7
100
AcDbVertex
100
AcDb2dVertex
 10
703.0368732373
 20
352.4983694012
 30
0.0
  0
VERTEX
  5
369
330
D5
100
AcDbEntity
  8
0
  6
CONTINUOUS
 62
     7
100
AcDbVertex
100
AcDb2dVertex
 10
704.0912197987
 20
353.3199300224
 30
0.0
  0
VERTEX
  5
36A
330
D5
100
AcDbEntity
  8
0
  6
CONTINUOUS
 62
     7
100
AcDbVertex
100
AcDb2dVertex
 10
705.1246749322
 20
354.3781508858
 30
0.0
  0
VERTEX
  5
36B
330
D5
100
AcDbEntity
  8
0
  6
CONTINUOUS
 62
     7
100
AcDbVertex
100
AcDb2dVertex
 10
706.0483979146
 20
355.6596507484
 30
0.0
  0
VERTEX
  5
36C
330
D5
100
AcDbEntity
  8
0
  6
CONTINUOUS
 62
     7
100
AcDbVertex
100
AcDb2dVertex
 10
706.7857967774
 20
357.123987859
 30
0.0
  0
VERTEX
  5
36D
330
D5
100
AcDbEntity
  8
0
  6
CONTINUOUS
 62
     7
100
AcDbVertex
100
AcDb2dVertex
 10
707.285313503
 20
358.7206174786
 30
0.0
  0
VERTEX
  5
36E
330
D5
100
AcDbEntity
  8
0
  6
CONTINUOUS
 62
     7
100
AcDbVertex
100
AcDb2dVertex
 10
707.5161324898
 20
360.3942264969
 30
0.0
  0
VERTEX
  5
36F
330
D5
100
AcDbEntity
  8
0
  6
CONTINUOUS
 62
     7
100
AcDbVertex
100
AcDb2dVertex
 10
707.4500905434
 20
362.2096945698
 30
0.0
  0
VERTEX
  5
370
330
D5
100
AcDbEntity
  8
0
  6
CONTINUOUS
 62
     7
100
AcDbVertex
100
AcDb2dVertex
 10
707.0913301865
 20
363.885330146
 30
0.0
  0
VERTEX
  5
371
330
D5
100
AcDbEntity
  8
0
  6
CONTINUOUS
 62
     7
100
AcDbVertex
100
AcDb2dVertex
 10
706.4977573315
 20
365.3913011009
 30
0.0
  0
VERTEX
  5
372
330
D5
100
AcDbEntity
  8
0
  6
CONTINUOUS
 62
     7
100
AcDbVertex
100
AcDb2dVertex
 10
705.7235526006
 20
366.7112459595
 30
0.0
  0
VERTEX
  5
373
330
D5
100
AcDbEntity
  8
0
  6
CONTINUOUS
 62
     7
100
AcDbVertex
100
AcDb2dVertex
 10
704.8242675225
 20
367.8328861649
 30
0.0
  0
VERTEX
  5
374
330
D5
100
AcDbEntity
  8
0
  6
CONTINUOUS
 62
     7
100
AcDbVertex
100
AcDb2dVertex
 10
703.8602518002
 20
368.7501718456
 30
0.0
  0
VERTEX
  5
375
330
D5
100
AcDbEntity
  8
0
  6
CONTINUOUS
 62
     7
100
AcDbVertex
100
AcDb2dVertex
 10
702.8936134736
 20
369.4687952454
 30
0.0
  0
VERTEX
  5
376
330
D5
100
AcDbEntity
  8
0
  6
CONTINUOUS
 62
     7
100
AcDbVertex
100
AcDb2dVertex
 10
701.9692944447
 20
370.0141181404
 30
0.0
  0
VERTEX
  5
377
330
D5
100
AcDbEntity
  8
0
  6
CONTINUOUS
 62
     7
100
AcDbVertex
100
AcDb2dVertex
 10
701.0968016545
 20
370.4268207008
 30
0.0
  0
VERTEX
  5
378
330
D5
100
AcDbEntity
  8
0
  6
CONTINUOUS
 62
     7
100
AcDbVertex
100
AcDb2dVertex
 10
700.2637373368
 20
370.7446624691
 30
0.0
  0
VERTEX
  5
379
330
D5
100
AcDbEntity
  8
0
  6
CONTINUOUS
 62
     7
100
AcDbVertex
100
AcDb2dVertex
 10
699.4126724164
 20
371.0064162666
 30
0.0
  0
VERTEX
  5
37A
330
D5
100
AcDbEntity
  8
0
  6
CONTINUOUS
 62
     7
100
AcDbVertex
100
AcDb2dVertex
 10
698.4409080903
 20
371.2445368225
 30
0.0
  0
VERTEX
  5
37B
330
D5
100
AcDbEntity
  8
0
  6
CONTINUOUS
 62
     7
100
AcDbVertex
100
AcDb2dVertex
 10
697.1033202569
 20
371.4977373535
 30
0.0
  0
VERTEX
  5
37C
330
D5
100
AcDbEntity
  8
0
  6
CONTINUOUS
 62
     7
100
AcDbVertex
100
AcDb2dVertex
 10
695.1847659508
 20
371.7689980919
 30
0.0
  0
VERTEX
  5
37D
330
D5
100
AcDbEntity
  8
0
  6
CONTINUOUS
 62
     7
100
AcDbVertex
100
AcDb2dVertex
 10
693.2431744496
 20
371.9799687321
 30
0.0
  0
VERTEX
  5
37E
330
D5
100
AcDbEntity
  8
0
  6
CONTINUOUS
 62
     7
100
AcDbVertex
100
AcDb2dVertex
 10
691.1600517194
 20
372.1634914333
 30
0.0
  0
VERTEX
  5
37F
330
D5
100
AcDbEntity
  8
0
  6
CONTINUOUS
 62
     7
100
AcDbVertex
100
AcDb2dVertex
 10
688.707797424
 20
372.3418285305
 30
0.0
  0
VERTEX
  5
380
330
D5
100
AcDbEntity
  8
0
  6
CONTINUOUS
 62
     7
100
AcDbVertex
100
AcDb2dVertex
 10
686.0735105435
 20
372.5013305599
 30
0.0
  0
VERTEX
  5
381
330
D5
100
AcDbEntity
  8
0
  6
CONTINUOUS
 62
     7
100
AcDbVertex
100
AcDb2dVertex
 10
683.2511263053
 20
372.6447691376
 30
0.0
  0
VERTEX
  5
382
330
D5
100
AcDbEntity
  8
0
  6
CONTINUOUS
 62
     7
100
AcDbVertex
100
AcDb2dVertex
 10
680.2465157668
 20
372.7730681355
 30
0.0
  0
VERTEX
  5
383
330
D5
100
AcDbEntity
  8
0
  6
CONTINUOUS
 62
     7
100
AcDbVertex
100
AcDb2dVertex
 10
677.0726578395
 20
372.8863765652
 30
0.0
  0
VERTEX
  5
384
330
D5
100
AcDbEntity
  8
0
  6
CONTINUOUS
 62
     7
100
AcDbVertex
100
AcDb2dVertex
 10
673.7465696494
 20
372.9844858105
 30
0.0
  0
VERTEX
  5
385
330
D5
100
AcDbEntity
  8
0
  6
CONTINUOUS
 62
     7
100
AcDbVertex
100
AcDb2dVertex
 10
670.2880101363
 20
373.0670978481
 30
0.0
  0
VERTEX
  5
386
330
D5
100
AcDbEntity
  8
0
  6
CONTINUOUS
 62
     7
100
AcDbVertex
100
AcDb2dVertex
 10
666.7186753909
 20
373.1337954456
 30
0.0
  0
VERTEX
  5
387
330
D5
100
AcDbEntity
  8
0
  6
CONTINUOUS
 62
     7
100
AcDbVertex
100
AcDb2dVertex
 10
663.0616771142
 20
373.1843401844
 30
0.0
  0
VERTEX
  5
388
330
D5
100
AcDbEntity
  8
0
  6
CONTINUOUS
 62
     7
100
AcDbVertex
100
AcDb2dVertex
 10
659.3411551873
 20
373.2184042389
 30
0.0
  0
VERTEX
  5
389
330
D5
100
AcDbEntity
  8
0
  6
CONTINUOUS
 62
     7
100
AcDbVertex
100
AcDb2dVertex
 10
655.5819647471
 20
373.2358683998
 30
0.0
  0
VERTEX
  5
38A
330
D5
100
AcDbEntity
  8
0
  6
CONTINUOUS
 62
     7
100
AcDbVertex
100
AcDb2dVertex
 10
653.5306261937
 20
373.2383419926
 30
0.0
  0
SEQEND
  5
7FD
330
D5
100
AcDbEntity
  8
0
  6
CONTINUOUS
 62
     7
  0
POLYLINE
  5
D6
330
1F
100
AcDbEntity
  8
0
  6
CONTINUOUS
 62
     7
100
AcDb2dPolyline
 66
     1
 10
0.0
 20
0.0
 30
0.0
 70
   128
  0
VERTEX
  5
38B
330
D6
100
AcDbEntity
  8
0
  6
CONTINUOUS
 62
     7
100
AcDbVertex
100
AcDb2dVertex
 10
653.5306261937
 20
353.2383312637
 30
0.0
  0
VERTEX
  5
38C
330
D6
100
AcDbEntity
  8
0
  6
CONTINUOUS
 62
     7
100
AcDbVertex
100
AcDb2dVertex
 10
655.4668234746
 20
353.2360960896
 30
0.0
  0
VERTEX
  5
38D
330
D6
100
AcDbEntity
  8
0
  6
CONTINUOUS
 62
     7
100
AcDbVertex
100
AcDb2dVertex
 10
659.1353254477
 20
353.2193471844
 30
0.0
  0
VERTEX
  5
38E
330
D6
100
AcDbEntity
  8
0
  6
CONTINUOUS
 62
     7
100
AcDbVertex
100
AcDb2dVertex
 10
662.7624617974
 20
353.1864454205
 30
0.0
  0
VERTEX
  5
38F
330
D6
100
AcDbEntity
  8
0
  6
CONTINUOUS
 62
     7
100
AcDbVertex
100
AcDb2dVertex
 10
666.3196818988
 20
353.1376292164
 30
0.0
  0
VERTEX
  5
390
330
D6
100
AcDbEntity
  8
0
  6
CONTINUOUS
 62
     7
100
AcDbVertex
100
AcDb2dVertex
 10
669.779642121
 20
353.0733754093
 30
0.0
  0
VERTEX
  5
391
330
D6
100
AcDbEntity
  8
0
  6
CONTINUOUS
 62
     7
100
AcDbVertex
100
AcDb2dVertex
 10
673.1155054728
 20
352.9942204411
 30
0.0
  0
VERTEX
  5
392
330
D6
100
AcDbEntity
  8
0
  6
CONTINUOUS
 62
     7
100
AcDbVertex
100
AcDb2dVertex
 10
676.3009416024
 20
352.9009093697
 30
0.0
  0
VERTEX
  5
393
330
D6
100
AcDbEntity
  8
0
  6
CONTINUOUS
 62
     7
100
AcDbVertex
100
AcDb2dVertex
 10
679.3102609078
 20
352.7943660671
 30
0.0
  0
VERTEX
  5
394
330
D6
100
AcDbEntity
  8
0
  6
CONTINUOUS
 62
     7
100
AcDbVertex
100
AcDb2dVertex
 10
682.1183251302
 20
352.6757826263
 30
0.0
  0
VERTEX
  5
395
330
D6
100
AcDbEntity
  8
0
  6
CONTINUOUS
 62
     7
100
AcDbVertex
100
AcDb2dVertex
 10
684.7003983418
 20
352.5466193611
 30
0.0
  0
VERTEX
  5
396
330
D6
100
AcDbEntity
  8
0
  6
CONTINUOUS
 62
     7
100
AcDbVertex
100
AcDb2dVertex
 10
687.0318638245
 20
352.4086942131
 30
0.0
  0
VERTEX
  5
397
330
D6
100
AcDbEntity
  8
0
  6
CONTINUOUS
 62
     7
100
AcDbVertex
100
AcDb2dVertex
 10
689.0876280228
 20
352.264570182
 30
0.0
  0
VERTEX
  5
398
330
D6
100
AcDbEntity
  8
0
  6
CONTINUOUS
 62
     7
100
AcDbVertex
100
AcDb2dVertex
 10
690.8411370675
 20
352.1179129536
 30
0.0
  0
VERTEX
  5
399
330
D6
100
AcDbEntity
  8
0
  6
CONTINUOUS
 62
     7
100
AcDbVertex
100
AcDb2dVertex
 10
692.2630058686
 20
351.9745041782
 30
0.0
  0
VERTEX
  5
39A
330
D6
100
AcDbEntity
  8
0
  6
CONTINUOUS
 62
     7
100
AcDbVertex
100
AcDb2dVertex
 10
693.2190047662
 20
351.8576492722
 30
0.0
  0
VERTEX
  5
39B
330
D6
100
AcDbEntity
  8
0
  6
CONTINUOUS
 62
     7
100
AcDbVertex
100
AcDb2dVertex
 10
693.8413368623
 20
351.7655302937
 30
0.0
  0
VERTEX
  5
39C
330
D6
100
AcDbEntity
  8
0
  6
CONTINUOUS
 62
     7
100
AcDbVertex
100
AcDb2dVertex
 10
694.1454099576
 20
351.7108728344
 30
0.0
  0
VERTEX
  5
39D
330
D6
100
AcDbEntity
  8
0
  6
CONTINUOUS
 62
     7
100
AcDbVertex
100
AcDb2dVertex
 10
694.1639171998
 20
351.7072965557
 30
0.0
  0
SEQEND
  5
7FE
330
D6
100
AcDbEntity
  8
0
  6
CONTINUOUS
 62
     7
  0
LINE
  5
D7
330
1F
100
AcDbEntity
  8
0
  6
CONTINUOUS
 62
     7
100
AcDbLine
 10
229.4020490805
 20
344.7276522572
 30
0.0
 11
215.1232199828
 21
352.5077273304
 31
0.0
  0
LINE
  5
D8
330
1F
100
AcDbEntity
  8
0
  6
CONTINUOUS
 62
     7
100
AcDbLine
 10
174.3744300763
 20
351.934271043
 30
0.0
 11
194.3233745257
 21
341.0647382195
 31
0.0
  0
LINE
  5
D9
330
1F
100
AcDbEntity
  8
0
  6
CONTINUOUS
 62
     7
100
AcDbLine
 10
213.6703567664
 20
330.5231948549
 30
0.0
 11
219.8329554955
 21
327.1653969938
 31
0.0
  0
LINE
  5
DA
330
1F
100
AcDbEntity
  8
0
  6
CONTINUOUS
 62
     7
100
AcDbLine
 10
656.6550718705
 20
327.1653969938
 30
0.0
 11
662.8176705996
 21
330.5231948549
 31
0.0
  0
LINE
  5
DB
330
1F
100
AcDbEntity
  8
0
  6
CONTINUOUS
 62
     7
100
AcDbLine
 10
682.1646528403
 20
341.0647382195
 30
0.0
 11
702.1135972897
 21
351.934271043
 31
0.0
  0
LINE
  5
DC
330
1F
100
AcDbEntity
  8
0
  6
CONTINUOUS
 62
     7
100
AcDbLine
 10
661.3648073832
 20
352.5077273304
 30
0.0
 11
647.0859782855
 21
344.7276522572
 31
0.0
  0
POLYLINE
  5
DD
330
1F
100
AcDbEntity
  8
0
  6
CONTINUOUS
 62
     7
100
AcDb2dPolyline
 66
     1
 10
0.0
 20
0.0
 30
0.0
 70
   128
  0
VERTEX
  5
39E
330
DD
100
AcDbEntity
  8
0
  6
CONTINUOUS
 62
     7
100
AcDbVertex
100
AcDb2dVertex
 10
597.2694741647
 20
820.3078379089
 30
0.0
  0
VERTEX
  5
39F
330
DD
100
AcDbEntity
  8
0
  6
CONTINUOUS
 62
     7
100
AcDbVertex
100
AcDb2dVertex
 10
602.870045797
 20
821.2615122253
 30
0.0
  0
VERTEX
  5
3A0
330
DD
100
AcDbEntity
  8
0
  6
CONTINUOUS
 62
     7
100
AcDbVertex
100
AcDb2dVertex
 10
608.4518419663
 20
822.2764005119
 30
0.0
  0
VERTEX
  5
3A1
330
DD
100
AcDbEntity
  8
0
  6
CONTINUOUS
 62
     7
100
AcDbVertex
100
AcDb2dVertex
 10
613.5177450339
 20
823.2476581986
 30
0.0
  0
VERTEX
  5
3A2
330
DD
100
AcDbEntity
  8
0
  6
CONTINUOUS
 62
     7
100
AcDbVertex
100
AcDb2dVertex
 10
618.2440208356
 20
824.1861929352
 30
0.0
  0
SEQEND
  5
7FF
330
DD
100
AcDbEntity
  8
0
  6
CONTINUOUS
 62
     7
  0
POLYLINE
  5
DE
330
1F
100
AcDbEntity
  8
0
  6
CONTINUOUS
 62
     7
100
AcDb2dPolyline
 66
     1
 10
0.0
 20
0.0
 30
0.0
 70
   128
  0
VERTEX
  5
3A3
330
DE
100
AcDbEntity
  8
0
  6
CONTINUOUS
 62
     7
100
AcDbVertex
100
AcDb2dVertex
 10
618.2440208356
 20
824.1861929352
 30
0.0
  0
VERTEX
  5
3A4
330
DE
100
AcDbEntity
  8
0
  6
CONTINUOUS
 62
     7
100
AcDbVertex
100
AcDb2dVertex
 10
618.3064119975
 20
824.2117633278
 30
0.0
  0
VERTEX
  5
3A5
330
DE
100
AcDbEntity
  8
0
  6
CONTINUOUS
 62
     7
100
AcDbVertex
100
AcDb2dVertex
 10
618.5092168013
 20
824.2332806046
 30
0.0
  0
SEQEND
  5
800
330
DE
100
AcDbEntity
  8
0
  6
CONTINUOUS
 62
     7
  0
LINE
  5
DF
330
1F
100
AcDbEntity
  8
0
  6
CONTINUOUS
 62
     7
100
AcDbLine
 10
638.2440166632
 20
816.812681144
 30
0.0
 11
638.2440166632
 21
804.8291673119
 31
0.0
  0
POLYLINE
  5
E0
330
1F
100
AcDbEntity
  8
0
  6
CONTINUOUS
 62
     7
100
AcDb2dPolyline
 66
     1
 10
0.0
 20
0.0
 30
0.0
 70
   128
  0
VERTEX
  5
3A6
330
E0
100
AcDbEntity
  8
0
  6
CONTINUOUS
 62
     7
100
AcDbVertex
100
AcDb2dVertex
 10
257.9788105647
 20
824.2332806046
 30
0.0
  0
VERTEX
  5
3A7
330
E0
100
AcDbEntity
  8
0
  6
CONTINUOUS
 62
     7
100
AcDbVertex
100
AcDb2dVertex
 10
258.189051048
 20
824.2103328163
 30
0.0
  0
VERTEX
  5
3A8
330
E0
100
AcDbEntity
  8
0
  6
CONTINUOUS
 62
     7
100
AcDbVertex
100
AcDb2dVertex
 10
258.2440065305
 20
824.1861929352
 30
0.0
  0
SEQEND
  5
801
330
E0
100
AcDbEntity
  8
0
  6
CONTINUOUS
 62
     7
  0
POLYLINE
  5
E1
330
1F
100
AcDbEntity
  8
0
  6
CONTINUOUS
 62
     7
100
AcDb2dPolyline
 66
     1
 10
0.0
 20
0.0
 30
0.0
 70
   128
  0
VERTEX
  5
3A9
330
E1
100
AcDbEntity
  8
0
  6
CONTINUOUS
 62
     7
100
AcDbVertex
100
AcDb2dVertex
 10
258.2440065305
 20
824.1861929352
 30
0.0
  0
VERTEX
  5
3AA
330
E1
100
AcDbEntity
  8
0
  6
CONTINUOUS
 62
     7
100
AcDbVertex
100
AcDb2dVertex
 10
262.8300475041
 20
823.2751359398
 30
0.0
  0
VERTEX
  5
3AB
330
E1
100
AcDbEntity
  8
0
  6
CONTINUOUS
 62
     7
100
AcDbVertex
100
AcDb2dVertex
 10
268.0361853997
 20
822.2764005119
 30
0.0
  0
VERTEX
  5
3AC
330
E1
100
AcDbEntity
  8
0
  6
CONTINUOUS
 62
     7
100
AcDbVertex
100
AcDb2dVertex
 10
273.4495686452
 20
821.2912549431
 30
0.0
  0
VERTEX
  5
3AD
330
E1
100
AcDbEntity
  8
0
  6
CONTINUOUS
 62
     7
100
AcDbVertex
100
AcDb2dVertex
 10
279.2185532014
 20
820.3078379089
 30
0.0
  0
SEQEND
  5
802
330
E1
100
AcDbEntity
  8
0
  6
CONTINUOUS
 62
     7
  0
LINE
  5
E2
330
1F
100
AcDbEntity
  8
0
  6
CONTINUOUS
 62
     7
100
AcDbLine
 10
238.2440107028
 20
804.8291673119
 30
0.0
 11
238.2440107028
 21
816.812681144
 31
0.0
  0
POLYLINE
  5
E3
330
1F
100
AcDbEntity
  8
0
  6
CONTINUOUS
 62
     7
100
AcDb2dPolyline
 66
     1
 10
0.0
 20
0.0
 30
0.0
 70
   128
  0
VERTEX
  5
3AE
330
E3
100
AcDbEntity
  8
0
  6
CONTINUOUS
 62
     7
100
AcDbVertex
100
AcDb2dVertex
 10
440.9435900013
 20
824.2124785835
 30
0.0
  0
VERTEX
  5
3AF
330
E3
100
AcDbEntity
  8
0
  6
CONTINUOUS
 62
     7
100
AcDbVertex
100
AcDb2dVertex
 10
471.1882757108
 20
820.6617702896
 30
0.0
  0
VERTEX
  5
3B0
330
E3
100
AcDbEntity
  8
0
  6
CONTINUOUS
 62
     7
100
AcDbVertex
100
AcDb2dVertex
 10
501.5432970683
 20
818.2136883194
 30
0.0
  0
VERTEX
  5
3B1
330
E3
100
AcDbEntity
  8
0
  6
CONTINUOUS
 62
     7
100
AcDbVertex
100
AcDb2dVertex
 10
526.6434760849
 20
817.0260061676
 30
0.0
  0
VERTEX
  5
3B2
330
E3
100
AcDbEntity
  8
0
  6
CONTINUOUS
 62
     7
100
AcDbVertex
100
AcDb2dVertex
 10
551.7910258929
 20
816.5948857719
 30
0.0
  0
SEQEND
  5
803
330
E3
100
AcDbEntity
  8
0
  6
CONTINUOUS
 62
     7
  0
POLYLINE
  5
E4
330
1F
100
AcDbEntity
  8
0
  6
CONTINUOUS
 62
     7
100
AcDb2dPolyline
 66
     1
 10
0.0
 20
0.0
 30
0.0
 70
   128
  0
VERTEX
  5
3B3
330
E4
100
AcDbEntity
  8
0
  6
CONTINUOUS
 62
     7
100
AcDbVertex
100
AcDb2dVertex
 10
324.6970014731
 20
816.5948857719
 30
0.0
  0
VERTEX
  5
3B4
330
E4
100
AcDbEntity
  8
0
  6
CONTINUOUS
 62
     7
100
AcDbVertex
100
AcDb2dVertex
 10
349.82156624
 20
817.0252909119
 30
0.0
  0
VERTEX
  5
3B5
330
E4
100
AcDbEntity
  8
0
  6
CONTINUOUS
 62
     7
100
AcDbVertex
100
AcDb2dVertex
 10
374.9447302977
 20
818.2136883194
 30
0.0
  0
VERTEX
  5
3B6
330
E4
100
AcDbEntity
  8
0
  6
CONTINUOUS
 62
     7
100
AcDbVertex
100
AcDb2dVertex
 10
405.2997516553
 20
820.6617702896
 30
0.0
  0
VERTEX
  5
3B7
330
E4
100
AcDbEntity
  8
0
  6
CONTINUOUS
 62
     7
100
AcDbVertex
100
AcDb2dVertex
 10
435.5444373647
 20
824.2124785835
 30
0.0
  0
SEQEND
  5
804
330
E4
100
AcDbEntity
  8
0
  6
CONTINUOUS
 62
     7
  0
ARC
  5
E5
330
1F
100
AcDbEntity
  8
0
  6
CONTINUOUS
 62
     7
100
AcDbCircle
 10
600.3079223862
 20
350.3469242072
 30
0.0
 40
450.2745938252068
100
AcDbArc
 50
86.9652209633
 51
90.2626261366
  0
ARC
  5
E6
330
1F
100
AcDbEntity
  8
0
  6
CONTINUOUS
 62
     7
100
AcDbCircle
 10
275.9226543241
 20
363.0756136153
 30
0.0
 40
437.547332161982
100
AcDbArc
 50
89.6960216345
 51
93.1367682481
  0
POLYLINE
  5
E7
330
1F
100
AcDbEntity
  8
0
  6
CONTINUOUS
 62
     7
100
AcDb2dPolyline
 66
     1
 10
0.0
 20
0.0
 30
0.0
 70
   128
  0
VERTEX
  5
3B8
330
E7
100
AcDbEntity
  8
0
  6
CONTINUOUS
 62
     7
100
AcDbVertex
100
AcDb2dVertex
 10
435.5444373647
 20
824.2124785835
 30
0.0
  0
VERTEX
  5
3B9
330
E7
100
AcDbEntity
  8
0
  6
CONTINUOUS
 62
     7
100
AcDbVertex
100
AcDb2dVertex
 10
438.2190823996
 20
824.3952264244
 30
0.0
  0
VERTEX
  5
3BA
330
E7
100
AcDbEntity
  8
0
  6
CONTINUOUS
 62
     7
100
AcDbVertex
100
AcDb2dVertex
 10
440.9435900013
 20
824.2124785835
 30
0.0
  0
SEQEND
  5
805
330
E7
100
AcDbEntity
  8
0
  6
CONTINUOUS
 62
     7
  0
ARC
  5
E8
330
1F
100
AcDbEntity
  8
0
  6
CONTINUOUS
 62
     7
100
AcDbCircle
 10
551.7916133733
 20
1096.9677209941
 30
0.0
 40
280.3728352227552
100
AcDbArc
 50
269.9998799451
 51
279.334902447
  0
ARC
  5
E9
330
1F
100
AcDbEntity
  8
0
  6
CONTINUOUS
 62
     7
100
AcDbCircle
 10
324.6964139927
 20
1096.9677209941
 30
0.0
 40
280.3728352227549
100
AcDbArc
 50
260.665097553
 51
270.0001200549
  0
LINE
  5
EA
330
1F
100
AcDbEntity
  8
0
  6
CONTINUOUS
 62
     7
100
AcDbLine
 10
238.2440107028
 20
788.0816330368
 30
0.0
 11
238.2440107028
 21
804.8291673119
 31
0.0
  0
LINE
  5
EB
330
1F
100
AcDbEntity
  8
0
  6
CONTINUOUS
 62
     7
100
AcDbLine
 10
638.2440166632
 20
804.8291673119
 30
0.0
 11
638.2440166632
 21
788.0816330368
 31
0.0
  0
POLYLINE
  5
EC
330
1F
100
AcDbEntity
  8
0
  6
CONTINUOUS
 62
     7
100
AcDb2dPolyline
 66
     1
 10
0.0
 20
0.0
 30
0.0
 70
   128
  0
VERTEX
  5
3BB
330
EC
100
AcDbEntity
  8
0
  6
CONTINUOUS
 62
     7
100
AcDbVertex
100
AcDb2dVertex
 10
698.7058507363
 20
90.7651388776
 30
0.0
  0
VERTEX
  5
3BC
330
EC
100
AcDbEntity
  8
0
  6
CONTINUOUS
 62
     7
100
AcDbVertex
100
AcDb2dVertex
 10
699.574320213
 20
90.9259165716
 30
0.0
  0
VERTEX
  5
3BD
330
EC
100
AcDbEntity
  8
0
  6
CONTINUOUS
 62
     7
100
AcDbVertex
100
AcDb2dVertex
 10
700.5166696469
 20
91.144400613
 30
0.0
  0
VERTEX
  5
3BE
330
EC
100
AcDbEntity
  8
0
  6
CONTINUOUS
 62
     7
100
AcDbVertex
100
AcDb2dVertex
 10
701.1306570927
 20
91.3516167717
 30
0.0
  0
VERTEX
  5
3BF
330
EC
100
AcDbEntity
  8
0
  6
CONTINUOUS
 62
     7
100
AcDbVertex
100
AcDb2dVertex
 10
701.3941096226
 20
91.5400755991
 30
0.0
  0
VERTEX
  5
3C0
330
EC
100
AcDbEntity
  8
0
  6
CONTINUOUS
 62
     7
100
AcDbVertex
100
AcDb2dVertex
 10
701.4036165635
 20
91.5864581408
 30
0.0
  0
SEQEND
  5
806
330
EC
100
AcDbEntity
  8
0
  6
CONTINUOUS
 62
     7
  0
POLYLINE
  5
ED
330
1F
100
AcDbEntity
  8
0
  6
CONTINUOUS
 62
     7
100
AcDb2dPolyline
 66
     1
 10
0.0
 20
0.0
 30
0.0
 70
   128
  0
VERTEX
  5
3C1
330
ED
100
AcDbEntity
  8
0
  6
CONTINUOUS
 62
     7
100
AcDbVertex
100
AcDb2dVertex
 10
693.6955737035
 20
86.1286531369
 30
0.0
  0
VERTEX
  5
3C2
330
ED
100
AcDbEntity
  8
0
  6
CONTINUOUS
 62
     7
100
AcDbVertex
100
AcDb2dVertex
 10
695.4697655598
 20
86.3094782623
 30
0.0
  0
VERTEX
  5
3C3
330
ED
100
AcDbEntity
  8
0
  6
CONTINUOUS
 62
     7
100
AcDbVertex
100
AcDb2dVertex
 10
697.1518384377
 20
86.5141890178
 30
0.0
  0
VERTEX
  5
3C4
330
ED
100
AcDbEntity
  8
0
  6
CONTINUOUS
 62
     7
100
AcDbVertex
100
AcDb2dVertex
 10
698.6380504529
 20
86.7313971909
 30
0.0
  0
VERTEX
  5
3C5
330
ED
100
AcDbEntity
  8
0
  6
CONTINUOUS
 62
     7
100
AcDbVertex
100
AcDb2dVertex
 10
699.8746382157
 20
86.9532526637
 30
0.0
  0
VERTEX
  5
3C6
330
ED
100
AcDbEntity
  8
0
  6
CONTINUOUS
 62
     7
100
AcDbVertex
100
AcDb2dVertex
 10
700.8169876496
 20
87.1717367487
 30
0.0
  0
VERTEX
  5
3C7
330
ED
100
AcDbEntity
  8
0
  6
CONTINUOUS
 62
     7
100
AcDbVertex
100
AcDb2dVertex
 10
701.4309750954
 20
87.3789529948
 30
0.0
  0
VERTEX
  5
3C8
330
ED
100
AcDbEntity
  8
0
  6
CONTINUOUS
 62
     7
100
AcDbVertex
100
AcDb2dVertex
 10
701.6944276253
 20
87.5674117057
 30
0.0
  0
VERTEX
  5
3C9
330
ED
100
AcDbEntity
  8
0
  6
CONTINUOUS
 62
     7
100
AcDbVertex
100
AcDb2dVertex
 10
701.7039643685
 20
87.6137943639
 30
0.0
  0
SEQEND
  5
807
330
ED
100
AcDbEntity
  8
0
  6
CONTINUOUS
 62
     7
  0
ARC
  5
EE
330
1F
100
AcDbEntity
  8
0
  6
CONTINUOUS
 62
     7
100
AcDbCircle
 10
683.9234255746
 20
93.2213270988
 30
0.0
 40
7.517613275324627
100
AcDbArc
 50
254.099264439
 51
272.00454744
  0
ARC
  5
EF
330
1F
100
AcDbEntity
  8
0
  6
CONTINUOUS
 62
     7
100
AcDbCircle
 10
177.8581510621
 20
95.8559900361
 30
0.0
 40
5.09141803743163
100
AcDbArc
 50
236.9898653271
 51
269.1449973555
  0
ARC
  5
F0
330
1F
100
AcDbEntity
  8
0
  6
CONTINUOUS
 62
     7
100
AcDbCircle
 10
192.5590885766
 20
93.2459207465
 30
0.0
 40
7.542776516544285
100
AcDbArc
 50
267.951626327
 51
285.8898298743
  0
POLYLINE
  5
F1
330
1F
100
AcDbEntity
  8
0
  6
CONTINUOUS
 62
     7
100
AcDb2dPolyline
 66
     1
 10
0.0
 20
0.0
 30
0.0
 70
   128
  0
VERTEX
  5
3CA
330
F1
100
AcDbEntity
  8
0
  6
CONTINUOUS
 62
     7
100
AcDbVertex
100
AcDb2dVertex
 10
174.7840629975
 20
87.6137943639
 30
0.0
  0
VERTEX
  5
3CB
330
F1
100
AcDbEntity
  8
0
  6
CONTINUOUS
 62
     7
100
AcDbVertex
100
AcDb2dVertex
 10
174.7935997407
 20
87.5674117057
 30
0.0
  0
VERTEX
  5
3CC
330
F1
100
AcDbEntity
  8
0
  6
CONTINUOUS
 62
     7
100
AcDbVertex
100
AcDb2dVertex
 10
175.0570522706
 20
87.3789529948
 30
0.0
  0
VERTEX
  5
3CD
330
F1
100
AcDbEntity
  8
0
  6
CONTINUOUS
 62
     7
100
AcDbVertex
100
AcDb2dVertex
 10
175.6710397164
 20
87.1717367487
 30
0.0
  0
VERTEX
  5
3CE
330
F1
100
AcDbEntity
  8
0
  6
CONTINUOUS
 62
     7
100
AcDbVertex
100
AcDb2dVertex
 10
176.6133891503
 20
86.9532526637
 30
0.0
  0
VERTEX
  5
3CF
330
F1
100
AcDbEntity
  8
0
  6
CONTINUOUS
 62
     7
100
AcDbVertex
100
AcDb2dVertex
 10
177.8499769131
 20
86.7313971909
 30
0.0
  0
VERTEX
  5
3D0
330
F1
100
AcDbEntity
  8
0
  6
CONTINUOUS
 62
     7
100
AcDbVertex
100
AcDb2dVertex
 10
179.3361889283
 20
86.5141890178
 30
0.0
  0
VERTEX
  5
3D1
330
F1
100
AcDbEntity
  8
0
  6
CONTINUOUS
 62
     7
100
AcDbVertex
100
AcDb2dVertex
 10
181.0182618062
 20
86.3094782623
 30
0.0
  0
VERTEX
  5
3D2
330
F1
100
AcDbEntity
  8
0
  6
CONTINUOUS
 62
     7
100
AcDbVertex
100
AcDb2dVertex
 10
182.8080998818
 20
86.1271960827
 30
0.0
  0
SEQEND
  5
808
330
F1
100
AcDbEntity
  8
0
  6
CONTINUOUS
 62
     7
  0
POLYLINE
  5
F2
330
1F
100
AcDbEntity
  8
0
  6
CONTINUOUS
 62
     7
100
AcDb2dPolyline
 66
     1
 10
0.0
 20
0.0
 30
0.0
 70
   128
  0
VERTEX
  5
3D3
330
F2
100
AcDbEntity
  8
0
  6
CONTINUOUS
 62
     7
100
AcDbVertex
100
AcDb2dVertex
 10
187.826632158
 20
91.3843553214
 30
0.0
  0
VERTEX
  5
3D4
330
F2
100
AcDbEntity
  8
0
  6
CONTINUOUS
 62
     7
100
AcDbVertex
100
AcDb2dVertex
 10
189.7147135894
 20
91.2497795295
 30
0.0
  0
VERTEX
  5
3D5
330
F2
100
AcDbEntity
  8
0
  6
CONTINUOUS
 62
     7
100
AcDbVertex
100
AcDb2dVertex
 10
191.5338920514
 20
91.1001271385
 30
0.0
  0
VERTEX
  5
3D6
330
F2
100
AcDbEntity
  8
0
  6
CONTINUOUS
 62
     7
100
AcDbVertex
100
AcDb2dVertex
 10
193.2184236209
 20
90.9408069789
 30
0.0
  0
VERTEX
  5
3D7
330
F2
100
AcDbEntity
  8
0
  6
CONTINUOUS
 62
     7
100
AcDbVertex
100
AcDb2dVertex
 10
194.7074221532
 20
90.7775772982
 30
0.0
  0
VERTEX
  5
3D8
330
F2
100
AcDbEntity
  8
0
  6
CONTINUOUS
 62
     7
100
AcDbVertex
100
AcDb2dVertex
 10
195.947064654
 20
90.6163376427
 30
0.0
  0
VERTEX
  5
3D9
330
F2
100
AcDbEntity
  8
0
  6
CONTINUOUS
 62
     7
100
AcDbVertex
100
AcDb2dVertex
 10
196.8925731341
 20
90.4629156509
 30
0.0
  0
VERTEX
  5
3DA
330
F2
100
AcDbEntity
  8
0
  6
CONTINUOUS
 62
     7
100
AcDbVertex
100
AcDb2dVertex
 10
197.5097494284
 20
90.3228563772
 30
0.0
  0
VERTEX
  5
3DB
330
F2
100
AcDbEntity
  8
0
  6
CONTINUOUS
 62
     7
100
AcDbVertex
100
AcDb2dVertex
 10
197.7762864987
 20
90.2012219237
 30
0.0
  0
VERTEX
  5
3DC
330
F2
100
AcDbEntity
  8
0
  6
CONTINUOUS
 62
     7
100
AcDbVertex
100
AcDb2dVertex
 10
197.7866726081
 20
90.1732199642
 30
0.0
  0
SEQEND
  5
809
330
F2
100
AcDbEntity
  8
0
  6
CONTINUOUS
 62
     7
  0
POLYLINE
  5
F3
330
1F
100
AcDbEntity
  8
0
  6
CONTINUOUS
 62
     7
100
AcDb2dPolyline
 66
     1
 10
0.0
 20
0.0
 30
0.0
 70
   128
  0
VERTEX
  5
3DD
330
F3
100
AcDbEntity
  8
0
  6
CONTINUOUS
 62
     7
100
AcDbVertex
100
AcDb2dVertex
 10
177.8302179734
 20
91.4920555012
 30
0.0
  0
VERTEX
  5
3DE
330
F3
100
AcDbEntity
  8
0
  6
CONTINUOUS
 62
     7
100
AcDbVertex
100
AcDb2dVertex
 10
177.8423177163
 20
91.5165571429
 30
0.0
  0
VERTEX
  5
3DF
330
F3
100
AcDbEntity
  8
0
  6
CONTINUOUS
 62
     7
100
AcDbVertex
100
AcDb2dVertex
 10
178.1157242219
 20
91.6025638514
 30
0.0
  0
VERTEX
  5
3E0
330
F3
100
AcDbEntity
  8
0
  6
CONTINUOUS
 62
     7
100
AcDbVertex
100
AcDb2dVertex
 10
178.7394272248
 20
91.660743398
 30
0.0
  0
VERTEX
  5
3E1
330
F3
100
AcDbEntity
  8
0
  6
CONTINUOUS
 62
     7
100
AcDbVertex
100
AcDb2dVertex
 10
179.6909259717
 20
91.688993031
 30
0.0
  0
VERTEX
  5
3E2
330
F3
100
AcDbEntity
  8
0
  6
CONTINUOUS
 62
     7
100
AcDbVertex
100
AcDb2dVertex
 10
180.9357987801
 20
91.6862917881
 30
0.0
  0
VERTEX
  5
3E3
330
F3
100
AcDbEntity
  8
0
  6
CONTINUOUS
 62
     7
100
AcDbVertex
100
AcDb2dVertex
 10
182.4290739457
 20
91.6527372835
 30
0.0
  0
VERTEX
  5
3E4
330
F3
100
AcDbEntity
  8
0
  6
CONTINUOUS
 62
     7
100
AcDbVertex
100
AcDb2dVertex
 10
184.1167794625
 20
91.5895422155
 30
0.0
  0
VERTEX
  5
3E5
330
F3
100
AcDbEntity
  8
0
  6
CONTINUOUS
 62
     7
100
AcDbVertex
100
AcDb2dVertex
 10
185.9379099767
 20
91.4989906529
 30
0.0
  0
VERTEX
  5
3E6
330
F3
100
AcDbEntity
  8
0
  6
CONTINUOUS
 62
     7
100
AcDbVertex
100
AcDb2dVertex
 10
187.826632158
 20
91.3843553214
 30
0.0
  0
SEQEND
  5
80A
330
F3
100
AcDbEntity
  8
0
  6
CONTINUOUS
 62
     7
  0
POLYLINE
  5
F4
330
1F
100
AcDbEntity
  8
0
  6
CONTINUOUS
 62
     7
100
AcDb2dPolyline
 66
     1
 10
0.0
 20
0.0
 30
0.0
 70
   128
  0
VERTEX
  5
3E7
330
F4
100
AcDbEntity
  8
0
  6
CONTINUOUS
 62
     7
100
AcDbVertex
100
AcDb2dVertex
 10
187.563269035
 20
87.3991405758
 30
0.0
  0
VERTEX
  5
3E8
330
F4
100
AcDbEntity
  8
0
  6
CONTINUOUS
 62
     7
100
AcDbVertex
100
AcDb2dVertex
 10
189.4513504664
 20
87.2645649294
 30
0.0
  0
VERTEX
  5
3E9
330
F4
100
AcDbEntity
  8
0
  6
CONTINUOUS
 62
     7
100
AcDbVertex
100
AcDb2dVertex
 10
191.2705289284
 20
87.1149125675
 30
0.0
  0
VERTEX
  5
3EA
330
F4
100
AcDbEntity
  8
0
  6
CONTINUOUS
 62
     7
100
AcDbVertex
100
AcDb2dVertex
 10
192.9550455968
 20
86.9555923788
 30
0.0
  0
VERTEX
  5
3EB
330
F4
100
AcDbEntity
  8
0
  6
CONTINUOUS
 62
     7
100
AcDbVertex
100
AcDb2dVertex
 10
194.4440441291
 20
86.792362498
 30
0.0
  0
VERTEX
  5
3EC
330
F4
100
AcDbEntity
  8
0
  6
CONTINUOUS
 62
     7
100
AcDbVertex
100
AcDb2dVertex
 10
195.6837015311
 20
86.6311230863
 30
0.0
  0
VERTEX
  5
3ED
330
F4
100
AcDbEntity
  8
0
  6
CONTINUOUS
 62
     7
100
AcDbVertex
100
AcDb2dVertex
 10
196.62919511
 20
86.4777011963
 30
0.0
  0
VERTEX
  5
3EE
330
F4
100
AcDbEntity
  8
0
  6
CONTINUOUS
 62
     7
100
AcDbVertex
100
AcDb2dVertex
 10
197.2463714043
 20
86.3376419226
 30
0.0
  0
VERTEX
  5
3EF
330
F4
100
AcDbEntity
  8
0
  6
CONTINUOUS
 62
     7
100
AcDbVertex
100
AcDb2dVertex
 10
197.5129233758
 20
86.2160070034
 30
0.0
  0
VERTEX
  5
3F0
330
F4
100
AcDbEntity
  8
0
  6
CONTINUOUS
 62
     7
100
AcDbVertex
100
AcDb2dVertex
 10
197.419209973
 20
86.1171936782
 30
0.0
  0
VERTEX
  5
3F1
330
F4
100
AcDbEntity
  8
0
  6
CONTINUOUS
 62
     7
100
AcDbVertex
100
AcDb2dVertex
 10
196.9686137597
 20
86.0447726379
 30
0.0
  0
VERTEX
  5
3F2
330
F4
100
AcDbEntity
  8
0
  6
CONTINUOUS
 62
     7
100
AcDbVertex
100
AcDb2dVertex
 10
196.1774217049
 20
86.0013613644
 30
0.0
  0
VERTEX
  5
3F3
330
F4
100
AcDbEntity
  8
0
  6
CONTINUOUS
 62
     7
100
AcDbVertex
100
AcDb2dVertex
 10
195.0742440383
 20
85.9885291363
 30
0.0
  0
VERTEX
  5
3F4
330
F4
100
AcDbEntity
  8
0
  6
CONTINUOUS
 62
     7
100
AcDbVertex
100
AcDb2dVertex
 10
193.6989413659
 20
86.0067397522
 30
0.0
  0
VERTEX
  5
3F5
330
F4
100
AcDbEntity
  8
0
  6
CONTINUOUS
 62
     7
100
AcDbVertex
100
AcDb2dVertex
 10
192.3302250067
 20
86.0469691622
 30
0.0
  0
SEQEND
  5
80B
330
F4
100
AcDbEntity
  8
0
  6
CONTINUOUS
 62
     7
  0
POLYLINE
  5
F5
330
1F
100
AcDbEntity
  8
0
  6
CONTINUOUS
 62
     7
100
AcDb2dPolyline
 66
     1
 10
0.0
 20
0.0
 30
0.0
 70
   128
  0
VERTEX
  5
3F6
330
F5
100
AcDbEntity
  8
0
  6
CONTINUOUS
 62
     7
100
AcDbVertex
100
AcDb2dVertex
 10
182.6453792016
 20
86.6885633374
 30
0.0
  0
VERTEX
  5
3F7
330
F5
100
AcDbEntity
  8
0
  6
CONTINUOUS
 62
     7
100
AcDbVertex
100
AcDb2dVertex
 10
181.362597839
 20
86.8207478131
 30
0.0
  0
VERTEX
  5
3F8
330
F5
100
AcDbEntity
  8
0
  6
CONTINUOUS
 62
     7
100
AcDbVertex
100
AcDb2dVertex
 10
179.9920784394
 20
86.9837204161
 30
0.0
  0
VERTEX
  5
3F9
330
F5
100
AcDbEntity
  8
0
  6
CONTINUOUS
 62
     7
100
AcDbVertex
100
AcDb2dVertex
 10
178.8945185105
 20
87.1417670211
 30
0.0
  0
VERTEX
  5
3FA
330
F5
100
AcDbEntity
  8
0
  6
CONTINUOUS
 62
     7
100
AcDbVertex
100
AcDb2dVertex
 10
178.1096445481
 20
87.2891751284
 30
0.0
  0
VERTEX
  5
3FB
330
F5
100
AcDbEntity
  8
0
  6
CONTINUOUS
 62
     7
100
AcDbVertex
100
AcDb2dVertex
 10
177.6657687585
 20
87.4206171072
 30
0.0
  0
VERTEX
  5
3FC
330
F5
100
AcDbEntity
  8
0
  6
CONTINUOUS
 62
     7
100
AcDbVertex
100
AcDb2dVertex
 10
177.5789545933
 20
87.5313425137
 30
0.0
  0
VERTEX
  5
3FD
330
F5
100
AcDbEntity
  8
0
  6
CONTINUOUS
 62
     7
100
AcDbVertex
100
AcDb2dVertex
 10
177.8523610989
 20
87.6173492222
 30
0.0
  0
VERTEX
  5
3FE
330
F5
100
AcDbEntity
  8
0
  6
CONTINUOUS
 62
     7
100
AcDbVertex
100
AcDb2dVertex
 10
178.4760641019
 20
87.6755287106
 30
0.0
  0
VERTEX
  5
3FF
330
F5
100
AcDbEntity
  8
0
  6
CONTINUOUS
 62
     7
100
AcDbVertex
100
AcDb2dVertex
 10
179.4275628487
 20
87.7037782854
 30
0.0
  0
VERTEX
  5
400
330
F5
100
AcDbEntity
  8
0
  6
CONTINUOUS
 62
     7
100
AcDbVertex
100
AcDb2dVertex
 10
180.6724356572
 20
87.7010772171
 30
0.0
  0
VERTEX
  5
401
330
F5
100
AcDbEntity
  8
0
  6
CONTINUOUS
 62
     7
100
AcDbVertex
100
AcDb2dVertex
 10
182.1657108228
 20
87.667522596
 30
0.0
  0
VERTEX
  5
402
330
F5
100
AcDbEntity
  8
0
  6
CONTINUOUS
 62
     7
100
AcDbVertex
100
AcDb2dVertex
 10
183.8534163396
 20
87.6043274699
 30
0.0
  0
VERTEX
  5
403
330
F5
100
AcDbEntity
  8
0
  6
CONTINUOUS
 62
     7
100
AcDbVertex
100
AcDb2dVertex
 10
185.6745468537
 20
87.5137759073
 30
0.0
  0
VERTEX
  5
404
330
F5
100
AcDbEntity
  8
0
  6
CONTINUOUS
 62
     7
100
AcDbVertex
100
AcDb2dVertex
 10
187.563269035
 20
87.3991405758
 30
0.0
  0
SEQEND
  5
80C
330
F5
100
AcDbEntity
  8
0
  6
CONTINUOUS
 62
     7
  0
POLYLINE
  5
F6
330
1F
100
AcDbEntity
  8
0
  6
CONTINUOUS
 62
     7
100
AcDb2dPolyline
 66
     1
 10
0.0
 20
0.0
 30
0.0
 70
   128
  0
VERTEX
  5
405
330
F6
100
AcDbEntity
  8
0
  6
CONTINUOUS
 62
     7
100
AcDbVertex
100
AcDb2dVertex
 10
193.1274073283
 20
86.4333171564
 30
0.0
  0
VERTEX
  5
406
330
F6
100
AcDbEntity
  8
0
  6
CONTINUOUS
 62
     7
100
AcDbVertex
100
AcDb2dVertex
 10
193.0877404372
 20
86.4230837839
 30
0.0
  0
VERTEX
  5
407
330
F6
100
AcDbEntity
  8
0
  6
CONTINUOUS
 62
     7
100
AcDbVertex
100
AcDb2dVertex
 10
192.7568601529
 20
86.3839402961
 30
0.0
  0
SEQEND
  5
80D
330
F6
100
AcDbEntity
  8
0
  6
CONTINUOUS
 62
     7
  0
POLYLINE
  5
F7
330
1F
100
AcDbEntity
  8
0
  6
CONTINUOUS
 62
     7
100
AcDb2dPolyline
 66
     1
 10
0.0
 20
0.0
 30
0.0
 70
   128
  0
VERTEX
  5
408
330
F7
100
AcDbEntity
  8
0
  6
CONTINUOUS
 62
     7
100
AcDbVertex
100
AcDb2dVertex
 10
182.2935031811
 20
87.0787509418
 30
0.0
  0
VERTEX
  5
409
330
F7
100
AcDbEntity
  8
0
  6
CONTINUOUS
 62
     7
100
AcDbVertex
100
AcDb2dVertex
 10
181.9985495965
 20
87.1547992507
 30
0.0
  0
VERTEX
  5
40A
330
F7
100
AcDbEntity
  8
0
  6
CONTINUOUS
 62
     7
100
AcDbVertex
100
AcDb2dVertex
 10
181.9497333924
 20
87.1748394499
 30
0.0
  0
SEQEND
  5
80E
330
F7
100
AcDbEntity
  8
0
  6
CONTINUOUS
 62
     7
  0
POLYLINE
  5
F8
330
1F
100
AcDbEntity
  8
0
  6
CONTINUOUS
 62
     7
100
AcDb2dPolyline
 66
     1
 10
0.0
 20
0.0
 30
0.0
 70
   128
  0
VERTEX
  5
40B
330
F8
100
AcDbEntity
  8
0
  6
CONTINUOUS
 62
     7
100
AcDbVertex
100
AcDb2dVertex
 10
688.924758331
 20
87.3991405758
 30
0.0
  0
VERTEX
  5
40C
330
F8
100
AcDbEntity
  8
0
  6
CONTINUOUS
 62
     7
100
AcDbVertex
100
AcDb2dVertex
 10
690.8134805123
 20
87.5137759073
 30
0.0
  0
VERTEX
  5
40D
330
F8
100
AcDbEntity
  8
0
  6
CONTINUOUS
 62
     7
100
AcDbVertex
100
AcDb2dVertex
 10
692.6346110265
 20
87.6043274699
 30
0.0
  0
VERTEX
  5
40E
330
F8
100
AcDbEntity
  8
0
  6
CONTINUOUS
 62
     7
100
AcDbVertex
100
AcDb2dVertex
 10
694.3223165433
 20
87.667522596
 30
0.0
  0
VERTEX
  5
40F
330
F8
100
AcDbEntity
  8
0
  6
CONTINUOUS
 62
     7
100
AcDbVertex
100
AcDb2dVertex
 10
695.8155917088
 20
87.7010772171
 30
0.0
  0
VERTEX
  5
410
330
F8
100
AcDbEntity
  8
0
  6
CONTINUOUS
 62
     7
100
AcDbVertex
100
AcDb2dVertex
 10
697.0604645173
 20
87.7037782854
 30
0.0
  0
VERTEX
  5
411
330
F8
100
AcDbEntity
  8
0
  6
CONTINUOUS
 62
     7
100
AcDbVertex
100
AcDb2dVertex
 10
698.0119632642
 20
87.6755287106
 30
0.0
  0
VERTEX
  5
412
330
F8
100
AcDbEntity
  8
0
  6
CONTINUOUS
 62
     7
100
AcDbVertex
100
AcDb2dVertex
 10
698.6356662671
 20
87.6173492222
 30
0.0
  0
VERTEX
  5
413
330
F8
100
AcDbEntity
  8
0
  6
CONTINUOUS
 62
     7
100
AcDbVertex
100
AcDb2dVertex
 10
698.9090727727
 20
87.5313425137
 30
0.0
  0
VERTEX
  5
414
330
F8
100
AcDbEntity
  8
0
  6
CONTINUOUS
 62
     7
100
AcDbVertex
100
AcDb2dVertex
 10
698.8222586076
 20
87.4206171072
 30
0.0
  0
VERTEX
  5
415
330
F8
100
AcDbEntity
  8
0
  6
CONTINUOUS
 62
     7
100
AcDbVertex
100
AcDb2dVertex
 10
698.3783828179
 20
87.2891751284
 30
0.0
  0
VERTEX
  5
416
330
F8
100
AcDbEntity
  8
0
  6
CONTINUOUS
 62
     7
100
AcDbVertex
100
AcDb2dVertex
 10
697.5935088555
 20
87.1417670211
 30
0.0
  0
VERTEX
  5
417
330
F8
100
AcDbEntity
  8
0
  6
CONTINUOUS
 62
     7
100
AcDbVertex
100
AcDb2dVertex
 10
696.4959489266
 20
86.9837204161
 30
0.0
  0
VERTEX
  5
418
330
F8
100
AcDbEntity
  8
0
  6
CONTINUOUS
 62
     7
100
AcDbVertex
100
AcDb2dVertex
 10
695.125429527
 20
86.8207478131
 30
0.0
  0
VERTEX
  5
419
330
F8
100
AcDbEntity
  8
0
  6
CONTINUOUS
 62
     7
100
AcDbVertex
100
AcDb2dVertex
 10
693.7894808213
 20
86.6834121922
 30
0.0
  0
SEQEND
  5
80F
330
F8
100
AcDbEntity
  8
0
  6
CONTINUOUS
 62
     7
  0
POLYLINE
  5
F9
330
1F
100
AcDbEntity
  8
0
  6
CONTINUOUS
 62
     7
100
AcDb2dPolyline
 66
     1
 10
0.0
 20
0.0
 30
0.0
 70
   128
  0
VERTEX
  5
41A
330
F9
100
AcDbEntity
  8
0
  6
CONTINUOUS
 62
     7
100
AcDbVertex
100
AcDb2dVertex
 10
684.1054247777
 20
86.0451153646
 30
0.0
  0
VERTEX
  5
41B
330
F9
100
AcDbEntity
  8
0
  6
CONTINUOUS
 62
     7
100
AcDbVertex
100
AcDb2dVertex
 10
682.7890860001
 20
86.0067397522
 30
0.0
  0
VERTEX
  5
41C
330
F9
100
AcDbEntity
  8
0
  6
CONTINUOUS
 62
     7
100
AcDbVertex
100
AcDb2dVertex
 10
681.4137833277
 20
85.9885291363
 30
0.0
  0
VERTEX
  5
41D
330
F9
100
AcDbEntity
  8
0
  6
CONTINUOUS
 62
     7
100
AcDbVertex
100
AcDb2dVertex
 10
680.3106056611
 20
86.0013613644
 30
0.0
  0
VERTEX
  5
41E
330
F9
100
AcDbEntity
  8
0
  6
CONTINUOUS
 62
     7
100
AcDbVertex
100
AcDb2dVertex
 10
679.5194136063
 20
86.0447726379
 30
0.0
  0
VERTEX
  5
41F
330
F9
100
AcDbEntity
  8
0
  6
CONTINUOUS
 62
     7
100
AcDbVertex
100
AcDb2dVertex
 10
679.068817393
 20
86.1171936782
 30
0.0
  0
VERTEX
  5
420
330
F9
100
AcDbEntity
  8
0
  6
CONTINUOUS
 62
     7
100
AcDbVertex
100
AcDb2dVertex
 10
678.9751039902
 20
86.2160070034
 30
0.0
  0
VERTEX
  5
421
330
F9
100
AcDbEntity
  8
0
  6
CONTINUOUS
 62
     7
100
AcDbVertex
100
AcDb2dVertex
 10
679.2416559617
 20
86.3376419226
 30
0.0
  0
VERTEX
  5
422
330
F9
100
AcDbEntity
  8
0
  6
CONTINUOUS
 62
     7
100
AcDbVertex
100
AcDb2dVertex
 10
679.858832256
 20
86.4777011963
 30
0.0
  0
VERTEX
  5
423
330
F9
100
AcDbEntity
  8
0
  6
CONTINUOUS
 62
     7
100
AcDbVertex
100
AcDb2dVertex
 10
680.8043258349
 20
86.6311230863
 30
0.0
  0
VERTEX
  5
424
330
F9
100
AcDbEntity
  8
0
  6
CONTINUOUS
 62
     7
100
AcDbVertex
100
AcDb2dVertex
 10
682.043983237
 20
86.792362498
 30
0.0
  0
VERTEX
  5
425
330
F9
100
AcDbEntity
  8
0
  6
CONTINUOUS
 62
     7
100
AcDbVertex
100
AcDb2dVertex
 10
683.5329817693
 20
86.9555923788
 30
0.0
  0
VERTEX
  5
426
330
F9
100
AcDbEntity
  8
0
  6
CONTINUOUS
 62
     7
100
AcDbVertex
100
AcDb2dVertex
 10
685.2174984376
 20
87.1149125675
 30
0.0
  0
VERTEX
  5
427
330
F9
100
AcDbEntity
  8
0
  6
CONTINUOUS
 62
     7
100
AcDbVertex
100
AcDb2dVertex
 10
687.0366768996
 20
87.2645649294
 30
0.0
  0
VERTEX
  5
428
330
F9
100
AcDbEntity
  8
0
  6
CONTINUOUS
 62
     7
100
AcDbVertex
100
AcDb2dVertex
 10
688.924758331
 20
87.3991405758
 30
0.0
  0
SEQEND
  5
810
330
F9
100
AcDbEntity
  8
0
  6
CONTINUOUS
 62
     7
  0
POLYLINE
  5
FA
330
1F
100
AcDbEntity
  8
0
  6
CONTINUOUS
 62
     7
100
AcDb2dPolyline
 66
     1
 10
0.0
 20
0.0
 30
0.0
 70
   128
  0
VERTEX
  5
429
330
FA
100
AcDbEntity
  8
0
  6
CONTINUOUS
 62
     7
100
AcDbVertex
100
AcDb2dVertex
 10
694.5306347768
 20
87.1712657323
 30
0.0
  0
VERTEX
  5
42A
330
FA
100
AcDbEntity
  8
0
  6
CONTINUOUS
 62
     7
100
AcDbVertex
100
AcDb2dVertex
 10
694.4894777695
 20
87.1547992507
 30
0.0
  0
VERTEX
  5
42B
330
FA
100
AcDbEntity
  8
0
  6
CONTINUOUS
 62
     7
100
AcDbVertex
100
AcDb2dVertex
 10
694.17688121
 20
87.075133452
 30
0.0
  0
SEQEND
  5
811
330
FA
100
AcDbEntity
  8
0
  6
CONTINUOUS
 62
     7
  0
POLYLINE
  5
FB
330
1F
100
AcDbEntity
  8
0
  6
CONTINUOUS
 62
     7
100
AcDb2dPolyline
 66
     1
 10
0.0
 20
0.0
 30
0.0
 70
   128
  0
VERTEX
  5
42C
330
FB
100
AcDbEntity
  8
0
  6
CONTINUOUS
 62
     7
100
AcDbVertex
100
AcDb2dVertex
 10
683.7053136985
 20
86.3857410083
 30
0.0
  0
VERTEX
  5
42D
330
FB
100
AcDbEntity
  8
0
  6
CONTINUOUS
 62
     7
100
AcDbVertex
100
AcDb2dVertex
 10
683.4002869288
 20
86.4230837839
 30
0.0
  0
VERTEX
  5
42E
330
FB
100
AcDbEntity
  8
0
  6
CONTINUOUS
 62
     7
100
AcDbVertex
100
AcDb2dVertex
 10
683.3531843583
 20
86.4356659519
 30
0.0
  0
SEQEND
  5
812
330
FB
100
AcDbEntity
  8
0
  6
CONTINUOUS
 62
     7
  0
POLYLINE
  5
FC
330
1F
100
AcDbEntity
  8
0
  6
CONTINUOUS
 62
     7
100
AcDb2dPolyline
 66
     1
 10
0.0
 20
0.0
 30
0.0
 70
   128
  0
VERTEX
  5
42F
330
FC
100
AcDbEntity
  8
0
  6
CONTINUOUS
 62
     7
100
AcDbVertex
100
AcDb2dVertex
 10
688.6613952081
 20
91.3843553214
 30
0.0
  0
VERTEX
  5
430
330
FC
100
AcDbEntity
  8
0
  6
CONTINUOUS
 62
     7
100
AcDbVertex
100
AcDb2dVertex
 10
690.5501173894
 20
91.4989906529
 30
0.0
  0
VERTEX
  5
431
330
FC
100
AcDbEntity
  8
0
  6
CONTINUOUS
 62
     7
100
AcDbVertex
100
AcDb2dVertex
 10
692.3712479035
 20
91.5895422155
 30
0.0
  0
VERTEX
  5
432
330
FC
100
AcDbEntity
  8
0
  6
CONTINUOUS
 62
     7
100
AcDbVertex
100
AcDb2dVertex
 10
694.0589534203
 20
91.6527372835
 30
0.0
  0
VERTEX
  5
433
330
FC
100
AcDbEntity
  8
0
  6
CONTINUOUS
 62
     7
100
AcDbVertex
100
AcDb2dVertex
 10
695.5522285859
 20
91.6862917881
 30
0.0
  0
VERTEX
  5
434
330
FC
100
AcDbEntity
  8
0
  6
CONTINUOUS
 62
     7
100
AcDbVertex
100
AcDb2dVertex
 10
696.7971013943
 20
91.688993031
 30
0.0
  0
VERTEX
  5
435
330
FC
100
AcDbEntity
  8
0
  6
CONTINUOUS
 62
     7
100
AcDbVertex
100
AcDb2dVertex
 10
697.7486001412
 20
91.660743398
 30
0.0
  0
VERTEX
  5
436
330
FC
100
AcDbEntity
  8
0
  6
CONTINUOUS
 62
     7
100
AcDbVertex
100
AcDb2dVertex
 10
698.3723031441
 20
91.6025638514
 30
0.0
  0
VERTEX
  5
437
330
FC
100
AcDbEntity
  8
0
  6
CONTINUOUS
 62
     7
100
AcDbVertex
100
AcDb2dVertex
 10
698.6457096497
 20
91.5165571429
 30
0.0
  0
VERTEX
  5
438
330
FC
100
AcDbEntity
  8
0
  6
CONTINUOUS
 62
     7
100
AcDbVertex
100
AcDb2dVertex
 10
698.6578093926
 20
91.4920555012
 30
0.0
  0
SEQEND
  5
813
330
FC
100
AcDbEntity
  8
0
  6
CONTINUOUS
 62
     7
  0
POLYLINE
  5
FD
330
1F
100
AcDbEntity
  8
0
  6
CONTINUOUS
 62
     7
100
AcDb2dPolyline
 66
     1
 10
0.0
 20
0.0
 30
0.0
 70
   128
  0
VERTEX
  5
439
330
FD
100
AcDbEntity
  8
0
  6
CONTINUOUS
 62
     7
100
AcDbVertex
100
AcDb2dVertex
 10
678.701354758
 20
90.1732199642
 30
0.0
  0
VERTEX
  5
43A
330
FD
100
AcDbEntity
  8
0
  6
CONTINUOUS
 62
     7
100
AcDbVertex
100
AcDb2dVertex
 10
678.7117408673
 20
90.2012219237
 30
0.0
  0
VERTEX
  5
43B
330
FD
100
AcDbEntity
  8
0
  6
CONTINUOUS
 62
     7
100
AcDbVertex
100
AcDb2dVertex
 10
678.9782779376
 20
90.3228563772
 30
0.0
  0
VERTEX
  5
43C
330
FD
100
AcDbEntity
  8
0
  6
CONTINUOUS
 62
     7
100
AcDbVertex
100
AcDb2dVertex
 10
679.5954542319
 20
90.4629156509
 30
0.0
  0
VERTEX
  5
43D
330
FD
100
AcDbEntity
  8
0
  6
CONTINUOUS
 62
     7
100
AcDbVertex
100
AcDb2dVertex
 10
680.540962712
 20
90.6163376427
 30
0.0
  0
VERTEX
  5
43E
330
FD
100
AcDbEntity
  8
0
  6
CONTINUOUS
 62
     7
100
AcDbVertex
100
AcDb2dVertex
 10
681.7806052129
 20
90.7775772982
 30
0.0
  0
VERTEX
  5
43F
330
FD
100
AcDbEntity
  8
0
  6
CONTINUOUS
 62
     7
100
AcDbVertex
100
AcDb2dVertex
 10
683.2696037452
 20
90.9408069789
 30
0.0
  0
VERTEX
  5
440
330
FD
100
AcDbEntity
  8
0
  6
CONTINUOUS
 62
     7
100
AcDbVertex
100
AcDb2dVertex
 10
684.9541353146
 20
91.1001271385
 30
0.0
  0
VERTEX
  5
441
330
FD
100
AcDbEntity
  8
0
  6
CONTINUOUS
 62
     7
100
AcDbVertex
100
AcDb2dVertex
 10
686.7733137767
 20
91.2497795295
 30
0.0
  0
VERTEX
  5
442
330
FD
100
AcDbEntity
  8
0
  6
CONTINUOUS
 62
     7
100
AcDbVertex
100
AcDb2dVertex
 10
688.6613952081
 20
91.3843553214
 30
0.0
  0
SEQEND
  5
814
330
FD
100
AcDbEntity
  8
0
  6
CONTINUOUS
 62
     7
  0
LINE
  5
FE
330
1F
100
AcDbEntity
  8
0
  6
CONTINUOUS
 62
     7
100
AcDbLine
 10
198.832003967
 20
75.8769941682
 30
0.0
 11
202.0183490674
 21
75.8769941682
 31
0.0
  0
LINE
  5
FF
330
1F
100
AcDbEntity
  8
0
  6
CONTINUOUS
 62
     7
100
AcDbLine
 10
172.0183478753
 20
75.8769941682
 30
0.0
 11
198.832003967
 21
75.8769941682
 31
0.0
  0
LINE
  5
100
330
1F
100
AcDbEntity
  8
0
  6
CONTINUOUS
 62
     7
100
AcDbLine
 10
192.8591715256
 20
81.8769932891
 30
0.0
 11
194.4345371882
 21
81.8769932891
 31
0.0
  0
LINE
  5
101
330
1F
100
AcDbEntity
  8
0
  6
CONTINUOUS
 62
     7
100
AcDbLine
 10
179.6021448533
 20
81.8769932891
 30
0.0
 11
192.8591715256
 21
81.8769932891
 31
0.0
  0
LINE
  5
102
330
1F
100
AcDbEntity
  8
0
  6
CONTINUOUS
 62
     7
100
AcDbLine
 10
198.832003967
 20
69.8769931848
 30
0.0
 11
202.0183490674
 21
69.8769931848
 31
0.0
  0
LINE
  5
103
330
1F
100
AcDbEntity
  8
0
  6
CONTINUOUS
 62
     7
100
AcDbLine
 10
172.0183478753
 20
69.8769931848
 30
0.0
 11
198.832003967
 21
69.8769931848
 31
0.0
  0
LINE
  5
104
330
1F
100
AcDbEntity
  8
0
  6
CONTINUOUS
 62
     7
100
AcDbLine
 10
169.1549705426
 20
69.9146465565
 30
0.0
 11
172.0183478753
 21
69.9146465565
 31
0.0
  0
LINE
  5
105
330
1F
100
AcDbEntity
  8
0
  6
CONTINUOUS
 62
     7
100
AcDbLine
 10
169.1549705426
 20
75.9146466086
 30
0.0
 11
172.0659421841
 21
75.9146466086
 31
0.0
  0
LINE
  5
106
330
1F
100
AcDbEntity
  8
0
  6
CONTINUOUS
 62
     7
100
AcDbLine
 10
176.7387675206
 20
81.9146457294
 30
0.0
 11
179.6174930493
 21
81.9146457294
 31
0.0
  0
LINE
  5
107
330
1F
100
AcDbEntity
  8
0
  6
CONTINUOUS
 62
     7
100
AcDbLine
 10
689.4696937958
 20
75.8769941682
 30
0.0
 11
704.4696794907
 21
75.8769941682
 31
0.0
  0
LINE
  5
108
330
1F
100
AcDbEntity
  8
0
  6
CONTINUOUS
 62
     7
100
AcDbLine
 10
674.4696782986
 20
75.8769941682
 30
0.0
 11
689.4696937958
 21
75.8769941682
 31
0.0
  0
LINE
  5
109
330
1F
100
AcDbEntity
  8
0
  6
CONTINUOUS
 62
     7
100
AcDbLine
 10
689.4696937958
 20
81.8769932891
 30
0.0
 11
696.8858825127
 21
81.8769932891
 31
0.0
  0
LINE
  5
10A
330
1F
100
AcDbEntity
  8
0
  6
CONTINUOUS
 62
     7
100
AcDbLine
 10
682.0534901778
 20
81.8769932891
 30
0.0
 11
689.4696937958
 21
81.8769932891
 31
0.0
  0
LINE
  5
10B
330
1F
100
AcDbEntity
  8
0
  6
CONTINUOUS
 62
     7
100
AcDbLine
 10
689.4696937958
 20
69.8769931848
 30
0.0
 11
704.4696794907
 21
69.8769931848
 31
0.0
  0
LINE
  5
10C
330
1F
100
AcDbEntity
  8
0
  6
CONTINUOUS
 62
     7
100
AcDbLine
 10
674.4696782986
 20
69.8769931848
 30
0.0
 11
689.4696937958
 21
69.8769931848
 31
0.0
  0
LINE
  5
10D
330
1F
100
AcDbEntity
  8
0
  6
CONTINUOUS
 62
     7
100
AcDbLine
 10
704.4220851819
 20
75.9146466086
 30
0.0
 11
707.3330568234
 21
75.9146466086
 31
0.0
  0
LINE
  5
10E
330
1F
100
AcDbEntity
  8
0
  6
CONTINUOUS
 62
     7
100
AcDbLine
 10
696.8705343167
 20
81.9146457294
 30
0.0
 11
699.7492598454
 21
81.9146457294
 31
0.0
  0
LINE
  5
10F
330
1F
100
AcDbEntity
  8
0
  6
CONTINUOUS
 62
     7
100
AcDbLine
 10
704.4696794907
 20
69.9146465565
 30
0.0
 11
707.3330568234
 21
69.9146465565
 31
0.0
  0
POLYLINE
  5
110
330
1F
100
AcDbEntity
  8
0
  6
CONTINUOUS
 62
     7
100
AcDb2dPolyline
 66
     1
 10
0.0
 20
0.0
 30
0.0
 70
   128
  0
VERTEX
  5
443
330
110
100
AcDbEntity
  8
0
  6
CONTINUOUS
 62
     7
100
AcDbVertex
100
AcDb2dVertex
 10
698.6578093926
 20
91.4922591698
 30
0.0
  0
VERTEX
  5
444
330
110
100
AcDbEntity
  8
0
  6
CONTINUOUS
 62
     7
100
AcDbVertex
100
AcDb2dVertex
 10
698.623268501
 20
91.533776657
 30
0.0
  0
VERTEX
  5
445
330
110
100
AcDbEntity
  8
0
  6
CONTINUOUS
 62
     7
100
AcDbVertex
100
AcDb2dVertex
 10
698.2864426533
 20
91.6150298369
 30
0.0
  0
VERTEX
  5
446
330
110
100
AcDbEntity
  8
0
  6
CONTINUOUS
 62
     7
100
AcDbVertex
100
AcDb2dVertex
 10
697.6023601453
 20
91.6680053275
 30
0.0
  0
VERTEX
  5
447
330
110
100
AcDbEntity
  8
0
  6
CONTINUOUS
 62
     7
100
AcDbVertex
100
AcDb2dVertex
 10
696.5958165089
 20
91.6907884463
 30
0.0
  0
VERTEX
  5
448
330
110
100
AcDbEntity
  8
0
  6
CONTINUOUS
 62
     7
100
AcDbVertex
100
AcDb2dVertex
 10
695.3031407754
 20
91.6825557876
 30
0.0
  0
VERTEX
  5
449
330
110
100
AcDbEntity
  8
0
  6
CONTINUOUS
 62
     7
100
AcDbVertex
100
AcDb2dVertex
 10
693.7710927884
 20
91.6436048507
 30
0.0
  0
VERTEX
  5
44A
330
110
100
AcDbEntity
  8
0
  6
CONTINUOUS
 62
     7
100
AcDbVertex
100
AcDb2dVertex
 10
692.0550154607
 20
91.5753435044
 30
0.0
  0
VERTEX
  5
44B
330
110
100
AcDbEntity
  8
0
  6
CONTINUOUS
 62
     7
100
AcDbVertex
100
AcDb2dVertex
 10
690.2169274251
 20
91.4802387639
 30
0.0
  0
VERTEX
  5
44C
330
110
100
AcDbEntity
  8
0
  6
CONTINUOUS
 62
     7
100
AcDbVertex
100
AcDb2dVertex
 10
688.3232878606
 20
91.3617280827
 30
0.0
  0
VERTEX
  5
44D
330
110
100
AcDbEntity
  8
0
  6
CONTINUOUS
 62
     7
100
AcDbVertex
100
AcDb2dVertex
 10
686.4425228993
 20
91.2240946715
 30
0.0
  0
VERTEX
  5
44E
330
110
100
AcDbEntity
  8
0
  6
CONTINUOUS
 62
     7
100
AcDbVertex
100
AcDb2dVertex
 10
684.6426116387
 20
91.0723129861
 30
0.0
  0
VERTEX
  5
44F
330
110
100
AcDbEntity
  8
0
  6
CONTINUOUS
 62
     7
100
AcDbVertex
100
AcDb2dVertex
 10
682.9886125485
 20
90.9118688148
 30
0.0
  0
VERTEX
  5
450
330
110
100
AcDbEntity
  8
0
  6
CONTINUOUS
 62
     7
100
AcDbVertex
100
AcDb2dVertex
 10
681.5402941863
 20
90.7485610302
 30
0.0
  0
VERTEX
  5
451
330
110
100
AcDbEntity
  8
0
  6
CONTINUOUS
 62
     7
100
AcDbVertex
100
AcDb2dVertex
 10
680.3500043313
 20
90.5882919839
 30
0.0
  0
VERTEX
  5
452
330
110
100
AcDbEntity
  8
0
  6
CONTINUOUS
 62
     7
100
AcDbVertex
100
AcDb2dVertex
 10
679.460777537
 20
90.4368542476
 30
0.0
  0
VERTEX
  5
453
330
110
100
AcDbEntity
  8
0
  6
CONTINUOUS
 62
     7
100
AcDbVertex
100
AcDb2dVertex
 10
678.9047407071
 20
90.2997211603
 30
0.0
  0
VERTEX
  5
454
330
110
100
AcDbEntity
  8
0
  6
CONTINUOUS
 62
     7
100
AcDbVertex
100
AcDb2dVertex
 10
678.7019955079
 20
90.1818490753
 30
0.0
  0
VERTEX
  5
455
330
110
100
AcDbEntity
  8
0
  6
CONTINUOUS
 62
     7
100
AcDbVertex
100
AcDb2dVertex
 10
678.7013398568
 20
90.1734463338
 30
0.0
  0
SEQEND
  5
815
330
110
100
AcDbEntity
  8
0
  6
CONTINUOUS
 62
     7
  0
POLYLINE
  5
111
330
1F
100
AcDbEntity
  8
0
  6
CONTINUOUS
 62
     7
100
AcDb2dPolyline
 66
     1
 10
0.0
 20
0.0
 30
0.0
 70
   128
  0
VERTEX
  5
456
330
111
100
AcDbEntity
  8
0
  6
CONTINUOUS
 62
     7
100
AcDbVertex
100
AcDb2dVertex
 10
585.4528980414
 20
794.1178550179
 30
0.0
  0
VERTEX
  5
457
330
111
100
AcDbEntity
  8
0
  6
CONTINUOUS
 62
     7
100
AcDbVertex
100
AcDb2dVertex
 10
586.280955569
 20
794.2138781006
 30
0.0
  0
VERTEX
  5
458
330
111
100
AcDbEntity
  8
0
  6
CONTINUOUS
 62
     7
100
AcDbVertex
100
AcDb2dVertex
 10
586.8356959979
 20
794.2501177246
 30
0.0
  0
SEQEND
  5
816
330
111
100
AcDbEntity
  8
0
  6
CONTINUOUS
 62
     7
  0
POLYLINE
  5
112
330
1F
100
AcDbEntity
  8
0
  6
CONTINUOUS
 62
     7
100
AcDb2dPolyline
 66
     1
 10
0.0
 20
0.0
 30
0.0
 70
   128
  0
VERTEX
  5
459
330
112
100
AcDbEntity
  8
0
  6
CONTINUOUS
 62
     7
100
AcDbVertex
100
AcDb2dVertex
 10
584.3818621794
 20
793.9979900772
 30
0.0
  0
VERTEX
  5
45A
330
112
100
AcDbEntity
  8
0
  6
CONTINUOUS
 62
     7
100
AcDbVertex
100
AcDb2dVertex
 10
584.179653422
 20
794.0248121674
 30
0.0
  0
VERTEX
  5
45B
330
112
100
AcDbEntity
  8
0
  6
CONTINUOUS
 62
     7
100
AcDbVertex
100
AcDb2dVertex
 10
583.5381733338
 20
794.0877546722
 30
0.0
  0
VERTEX
  5
45C
330
112
100
AcDbEntity
  8
0
  6
CONTINUOUS
 62
     7
100
AcDbVertex
100
AcDb2dVertex
 10
583.121462361
 20
794.0920462067
 30
0.0
  0
VERTEX
  5
45D
330
112
100
AcDbEntity
  8
0
  6
CONTINUOUS
 62
     7
100
AcDbVertex
100
AcDb2dVertex
 10
582.9551206986
 20
794.0495480949
 30
0.0
  0
VERTEX
  5
45E
330
112
100
AcDbEntity
  8
0
  6
CONTINUOUS
 62
     7
100
AcDbVertex
100
AcDb2dVertex
 10
583.0592053096
 20
793.9888109619
 30
0.0
  0
VERTEX
  5
45F
330
112
100
AcDbEntity
  8
0
  6
CONTINUOUS
 62
     7
100
AcDbVertex
100
AcDb2dVertex
 10
583.4383355538
 20
793.9502467567
 30
0.0
  0
VERTEX
  5
460
330
112
100
AcDbEntity
  8
0
  6
CONTINUOUS
 62
     7
100
AcDbVertex
100
AcDb2dVertex
 10
584.0382861058
 20
793.9656247551
 30
0.0
  0
VERTEX
  5
461
330
112
100
AcDbEntity
  8
0
  6
CONTINUOUS
 62
     7
100
AcDbVertex
100
AcDb2dVertex
 10
584.774790899
 20
794.034944957
 30
0.0
  0
VERTEX
  5
462
330
112
100
AcDbEntity
  8
0
  6
CONTINUOUS
 62
     7
100
AcDbVertex
100
AcDb2dVertex
 10
585.4528980414
 20
794.1178550179
 30
0.0
  0
SEQEND
  5
817
330
112
100
AcDbEntity
  8
0
  6
CONTINUOUS
 62
     7
  0
POLYLINE
  5
113
330
1F
100
AcDbEntity
  8
0
  6
CONTINUOUS
 62
     7
100
AcDb2dPolyline
 66
     1
 10
0.0
 20
0.0
 30
0.0
 70
   128
  0
VERTEX
  5
463
330
113
100
AcDbEntity
  8
0
  6
CONTINUOUS
 62
     7
100
AcDbVertex
100
AcDb2dVertex
 10
585.4528980414
 20
774.5149602348
 30
0.0
  0
VERTEX
  5
464
330
113
100
AcDbEntity
  8
0
  6
CONTINUOUS
 62
     7
100
AcDbVertex
100
AcDb2dVertex
 10
584.6328424374
 20
774.5992412025
 30
0.0
  0
VERTEX
  5
465
330
113
100
AcDbEntity
  8
0
  6
CONTINUOUS
 62
     7
100
AcDbVertex
100
AcDb2dVertex
 10
583.8997202079
 20
774.6186723167
 30
0.0
  0
VERTEX
  5
466
330
113
100
AcDbEntity
  8
0
  6
CONTINUOUS
 62
     7
100
AcDbVertex
100
AcDb2dVertex
 10
583.3496736447
 20
774.5587100441
 30
0.0
  0
VERTEX
  5
467
330
113
100
AcDbEntity
  8
0
  6
CONTINUOUS
 62
     7
100
AcDbVertex
100
AcDb2dVertex
 10
583.0274211327
 20
774.4374741966
 30
0.0
  0
VERTEX
  5
468
330
113
100
AcDbEntity
  8
0
  6
CONTINUOUS
 62
     7
100
AcDbVertex
100
AcDb2dVertex
 10
582.9628991048
 20
774.2901315147
 30
0.0
  0
VERTEX
  5
469
330
113
100
AcDbEntity
  8
0
  6
CONTINUOUS
 62
     7
100
AcDbVertex
100
AcDb2dVertex
 10
583.1809328954
 20
774.1665114815
 30
0.0
  0
VERTEX
  5
46A
330
113
100
AcDbEntity
  8
0
  6
CONTINUOUS
 62
     7
100
AcDbVertex
100
AcDb2dVertex
 10
583.6523907344
 20
774.1099466736
 30
0.0
  0
VERTEX
  5
46B
330
113
100
AcDbEntity
  8
0
  6
CONTINUOUS
 62
     7
100
AcDbVertex
100
AcDb2dVertex
 10
584.3065815131
 20
774.1296162064
 30
0.0
  0
VERTEX
  5
46C
330
113
100
AcDbEntity
  8
0
  6
CONTINUOUS
 62
     7
100
AcDbVertex
100
AcDb2dVertex
 10
585.0838409821
 20
774.207877105
 30
0.0
  0
VERTEX
  5
46D
330
113
100
AcDbEntity
  8
0
  6
CONTINUOUS
 62
     7
100
AcDbVertex
100
AcDb2dVertex
 10
585.9214799563
 20
774.3114699776
 30
0.0
  0
VERTEX
  5
46E
330
113
100
AcDbEntity
  8
0
  6
CONTINUOUS
 62
     7
100
AcDbVertex
100
AcDb2dVertex
 10
586.5222947757
 20
774.3741740639
 30
0.0
  0
SEQEND
  5
818
330
113
100
AcDbEntity
  8
0
  6
CONTINUOUS
 62
     7
  0
ARC
  5
114
330
1F
100
AcDbEntity
  8
0
  6
CONTINUOUS
 62
     7
100
AcDbCircle
 10
588.2460111384
 20
790.5827404558
 30
0.0
 40
16.30874127585085
100
AcDbArc
 50
260.1386354317
 51
268.1048925533
  0
ARC
  5
115
330
1F
100
AcDbEntity
  8
0
  6
CONTINUOUS
 62
     7
100
AcDbCircle
 10
568.621935675
 20
769.2016750134
 30
0.0
 40
10.25277173379435
100
AcDbArc
 50
268.2514034098
 51
280.2329384579
  0
POLYLINE
  5
116
330
1F
100
AcDbEntity
  8
0
  6
CONTINUOUS
 62
     7
100
AcDb2dPolyline
 66
     1
 10
0.0
 20
0.0
 30
0.0
 70
   128
  0
VERTEX
  5
46F
330
116
100
AcDbEntity
  8
0
  6
CONTINUOUS
 62
     7
100
AcDbVertex
100
AcDb2dVertex
 10
569.3730251948
 20
758.99397034
 30
0.0
  0
VERTEX
  5
470
330
116
100
AcDbEntity
  8
0
  6
CONTINUOUS
 62
     7
100
AcDbVertex
100
AcDb2dVertex
 10
570.0736330907
 20
758.8986029083
 30
0.0
  0
VERTEX
  5
471
330
116
100
AcDbEntity
  8
0
  6
CONTINUOUS
 62
     7
100
AcDbVertex
100
AcDb2dVertex
 10
570.9120171229
 20
758.7973942215
 30
0.0
  0
VERTEX
  5
472
330
116
100
AcDbEntity
  8
0
  6
CONTINUOUS
 62
     7
100
AcDbVertex
100
AcDb2dVertex
 10
571.7058913867
 20
758.7472667152
 30
0.0
  0
VERTEX
  5
473
330
116
100
AcDbEntity
  8
0
  6
CONTINUOUS
 62
     7
100
AcDbVertex
100
AcDb2dVertex
 10
572.3426329057
 20
758.7746848518
 30
0.0
  0
VERTEX
  5
474
330
116
100
AcDbEntity
  8
0
  6
CONTINUOUS
 62
     7
100
AcDbVertex
100
AcDb2dVertex
 10
572.7638589303
 20
758.8724364693
 30
0.0
  0
VERTEX
  5
475
330
116
100
AcDbEntity
  8
0
  6
CONTINUOUS
 62
     7
100
AcDbVertex
100
AcDb2dVertex
 10
572.9400949637
 20
759.0134610588
 30
0.0
  0
VERTEX
  5
476
330
116
100
AcDbEntity
  8
0
  6
CONTINUOUS
 62
     7
100
AcDbVertex
100
AcDb2dVertex
 10
572.8403614918
 20
759.154545253
 30
0.0
  0
VERTEX
  5
477
330
116
100
AcDbEntity
  8
0
  6
CONTINUOUS
 62
     7
100
AcDbVertex
100
AcDb2dVertex
 10
572.4666403691
 20
759.2437734062
 30
0.0
  0
VERTEX
  5
478
330
116
100
AcDbEntity
  8
0
  6
CONTINUOUS
 62
     7
100
AcDbVertex
100
AcDb2dVertex
 10
571.8805926005
 20
759.2542638237
 30
0.0
  0
VERTEX
  5
479
330
116
100
AcDbEntity
  8
0
  6
CONTINUOUS
 62
     7
100
AcDbVertex
100
AcDb2dVertex
 10
571.1497502486
 20
759.1958512718
 30
0.0
  0
VERTEX
  5
47A
330
116
100
AcDbEntity
  8
0
  6
CONTINUOUS
 62
     7
100
AcDbVertex
100
AcDb2dVertex
 10
570.443345801
 20
759.1119875366
 30
0.0
  0
VERTEX
  5
47B
330
116
100
AcDbEntity
  8
0
  6
CONTINUOUS
 62
     7
100
AcDbVertex
100
AcDb2dVertex
 10
570.443345801
 20
759.1119875366
 30
0.0
  0
SEQEND
  5
819
330
116
100
AcDbEntity
  8
0
  6
CONTINUOUS
 62
     7
  0
POLYLINE
  5
117
330
1F
100
AcDbEntity
  8
0
  6
CONTINUOUS
 62
     7
100
AcDb2dPolyline
 66
     1
 10
0.0
 20
0.0
 30
0.0
 70
   128
  0
VERTEX
  5
47C
330
117
100
AcDbEntity
  8
0
  6
CONTINUOUS
 62
     7
100
AcDbVertex
100
AcDb2dVertex
 10
698.7058507363
 20
90.7651388776
 30
0.0
  0
VERTEX
  5
47D
330
117
100
AcDbEntity
  8
0
  6
CONTINUOUS
 62
     7
100
AcDbVertex
100
AcDb2dVertex
 10
699.5548592965
 20
90.9219891552
 30
0.0
  0
VERTEX
  5
47E
330
117
100
AcDbEntity
  8
0
  6
CONTINUOUS
 62
     7
100
AcDbVertex
100
AcDb2dVertex
 10
700.50272216
 20
91.1406025049
 30
0.0
  0
VERTEX
  5
47F
330
117
100
AcDbEntity
  8
0
  6
CONTINUOUS
 62
     7
100
AcDbVertex
100
AcDb2dVertex
 10
701.1227594773
 20
91.3480851965
 30
0.0
  0
VERTEX
  5
480
330
117
100
AcDbEntity
  8
0
  6
CONTINUOUS
 62
     7
100
AcDbVertex
100
AcDb2dVertex
 10
701.3925599019
 20
91.5369383226
 30
0.0
  0
VERTEX
  5
481
330
117
100
AcDbEntity
  8
0
  6
CONTINUOUS
 62
     7
100
AcDbVertex
100
AcDb2dVertex
 10
701.4036165635
 20
91.5864581408
 30
0.0
  0
SEQEND
  5
81A
330
117
100
AcDbEntity
  8
0
  6
CONTINUOUS
 62
     7
  0
POLYLINE
  5
118
330
1F
100
AcDbEntity
  8
0
  6
CONTINUOUS
 62
     7
100
AcDb2dPolyline
 66
     1
 10
0.0
 20
0.0
 30
0.0
 70
   128
  0
VERTEX
  5
482
330
118
100
AcDbEntity
  8
0
  6
CONTINUOUS
 62
     7
100
AcDbVertex
100
AcDb2dVertex
 10
177.8302179734
 20
91.4922591698
 30
0.0
  0
VERTEX
  5
483
330
118
100
AcDbEntity
  8
0
  6
CONTINUOUS
 62
     7
100
AcDbVertex
100
AcDb2dVertex
 10
177.864758865
 20
91.533776657
 30
0.0
  0
VERTEX
  5
484
330
118
100
AcDbEntity
  8
0
  6
CONTINUOUS
 62
     7
100
AcDbVertex
100
AcDb2dVertex
 10
178.2015847127
 20
91.6150298369
 30
0.0
  0
VERTEX
  5
485
330
118
100
AcDbEntity
  8
0
  6
CONTINUOUS
 62
     7
100
AcDbVertex
100
AcDb2dVertex
 10
178.8856672208
 20
91.6680053275
 30
0.0
  0
VERTEX
  5
486
330
118
100
AcDbEntity
  8
0
  6
CONTINUOUS
 62
     7
100
AcDbVertex
100
AcDb2dVertex
 10
179.8922108571
 20
91.6907884463
 30
0.0
  0
VERTEX
  5
487
330
118
100
AcDbEntity
  8
0
  6
CONTINUOUS
 62
     7
100
AcDbVertex
100
AcDb2dVertex
 10
181.1848865906
 20
91.6825557876
 30
0.0
  0
VERTEX
  5
488
330
118
100
AcDbEntity
  8
0
  6
CONTINUOUS
 62
     7
100
AcDbVertex
100
AcDb2dVertex
 10
182.7169345776
 20
91.6436048507
 30
0.0
  0
VERTEX
  5
489
330
118
100
AcDbEntity
  8
0
  6
CONTINUOUS
 62
     7
100
AcDbVertex
100
AcDb2dVertex
 10
184.4330119054
 20
91.5753435044
 30
0.0
  0
VERTEX
  5
48A
330
118
100
AcDbEntity
  8
0
  6
CONTINUOUS
 62
     7
100
AcDbVertex
100
AcDb2dVertex
 10
186.2710999409
 20
91.4802387639
 30
0.0
  0
VERTEX
  5
48B
330
118
100
AcDbEntity
  8
0
  6
CONTINUOUS
 62
     7
100
AcDbVertex
100
AcDb2dVertex
 10
188.1647395055
 20
91.3617280827
 30
0.0
  0
VERTEX
  5
48C
330
118
100
AcDbEntity
  8
0
  6
CONTINUOUS
 62
     7
100
AcDbVertex
100
AcDb2dVertex
 10
190.0455044667
 20
91.2240946715
 30
0.0
  0
VERTEX
  5
48D
330
118
100
AcDbEntity
  8
0
  6
CONTINUOUS
 62
     7
100
AcDbVertex
100
AcDb2dVertex
 10
191.8454157273
 20
91.0723129861
 30
0.0
  0
VERTEX
  5
48E
330
118
100
AcDbEntity
  8
0
  6
CONTINUOUS
 62
     7
100
AcDbVertex
100
AcDb2dVertex
 10
193.4994148175
 20
90.9118688148
 30
0.0
  0
VERTEX
  5
48F
330
118
100
AcDbEntity
  8
0
  6
CONTINUOUS
 62
     7
100
AcDbVertex
100
AcDb2dVertex
 10
194.9477331797
 20
90.7485610302
 30
0.0
  0
VERTEX
  5
490
330
118
100
AcDbEntity
  8
0
  6
CONTINUOUS
 62
     7
100
AcDbVertex
100
AcDb2dVertex
 10
196.1380230347
 20
90.5882919839
 30
0.0
  0
VERTEX
  5
491
330
118
100
AcDbEntity
  8
0
  6
CONTINUOUS
 62
     7
100
AcDbVertex
100
AcDb2dVertex
 10
197.027249829
 20
90.4368542476
 30
0.0
  0
VERTEX
  5
492
330
118
100
AcDbEntity
  8
0
  6
CONTINUOUS
 62
     7
100
AcDbVertex
100
AcDb2dVertex
 10
197.5832866589
 20
90.2997211603
 30
0.0
  0
VERTEX
  5
493
330
118
100
AcDbEntity
  8
0
  6
CONTINUOUS
 62
     7
100
AcDbVertex
100
AcDb2dVertex
 10
197.7860318581
 20
90.1818490753
 30
0.0
  0
VERTEX
  5
494
330
118
100
AcDbEntity
  8
0
  6
CONTINUOUS
 62
     7
100
AcDbVertex
100
AcDb2dVertex
 10
197.7866875092
 20
90.1734463338
 30
0.0
  0
SEQEND
  5
81B
330
118
100
AcDbEntity
  8
0
  6
CONTINUOUS
 62
     7
  0
POLYLINE
  5
119
330
1F
100
AcDbEntity
  8
0
  6
CONTINUOUS
 62
     7
100
AcDb2dPolyline
 66
     1
 10
0.0
 20
0.0
 30
0.0
 70
   128
  0
VERTEX
  5
495
330
119
100
AcDbEntity
  8
0
  6
CONTINUOUS
 62
     7
100
AcDbVertex
100
AcDb2dVertex
 10
291.0351293246
 20
794.1178550179
 30
0.0
  0
VERTEX
  5
496
330
119
100
AcDbEntity
  8
0
  6
CONTINUOUS
 62
     7
100
AcDbVertex
100
AcDb2dVertex
 10
290.2070717971
 20
794.2138781006
 30
0.0
  0
VERTEX
  5
497
330
119
100
AcDbEntity
  8
0
  6
CONTINUOUS
 62
     7
100
AcDbVertex
100
AcDb2dVertex
 10
289.6523313681
 20
794.2501177246
 30
0.0
  0
SEQEND
  5
81C
330
119
100
AcDbEntity
  8
0
  6
CONTINUOUS
 62
     7
  0
POLYLINE
  5
11A
330
1F
100
AcDbEntity
  8
0
  6
CONTINUOUS
 62
     7
100
AcDb2dPolyline
 66
     1
 10
0.0
 20
0.0
 30
0.0
 70
   128
  0
VERTEX
  5
498
330
11A
100
AcDbEntity
  8
0
  6
CONTINUOUS
 62
     7
100
AcDbVertex
100
AcDb2dVertex
 10
292.1061651866
 20
793.9979900772
 30
0.0
  0
VERTEX
  5
499
330
11A
100
AcDbEntity
  8
0
  6
CONTINUOUS
 62
     7
100
AcDbVertex
100
AcDb2dVertex
 10
292.308373944
 20
794.0248121674
 30
0.0
  0
VERTEX
  5
49A
330
11A
100
AcDbEntity
  8
0
  6
CONTINUOUS
 62
     7
100
AcDbVertex
100
AcDb2dVertex
 10
292.9498540322
 20
794.0877546722
 30
0.0
  0
VERTEX
  5
49B
330
11A
100
AcDbEntity
  8
0
  6
CONTINUOUS
 62
     7
100
AcDbVertex
100
AcDb2dVertex
 10
293.366565005
 20
794.0920462067
 30
0.0
  0
VERTEX
  5
49C
330
11A
100
AcDbEntity
  8
0
  6
CONTINUOUS
 62
     7
100
AcDbVertex
100
AcDb2dVertex
 10
293.5329066674
 20
794.0495480949
 30
0.0
  0
VERTEX
  5
49D
330
11A
100
AcDbEntity
  8
0
  6
CONTINUOUS
 62
     7
100
AcDbVertex
100
AcDb2dVertex
 10
293.4288220565
 20
793.9888109619
 30
0.0
  0
VERTEX
  5
49E
330
11A
100
AcDbEntity
  8
0
  6
CONTINUOUS
 62
     7
100
AcDbVertex
100
AcDb2dVertex
 10
293.0496918122
 20
793.9502467567
 30
0.0
  0
VERTEX
  5
49F
330
11A
100
AcDbEntity
  8
0
  6
CONTINUOUS
 62
     7
100
AcDbVertex
100
AcDb2dVertex
 10
292.4497412602
 20
793.9656247551
 30
0.0
  0
VERTEX
  5
4A0
330
11A
100
AcDbEntity
  8
0
  6
CONTINUOUS
 62
     7
100
AcDbVertex
100
AcDb2dVertex
 10
291.7132364671
 20
794.034944957
 30
0.0
  0
VERTEX
  5
4A1
330
11A
100
AcDbEntity
  8
0
  6
CONTINUOUS
 62
     7
100
AcDbVertex
100
AcDb2dVertex
 10
291.0351293246
 20
794.1178550179
 30
0.0
  0
SEQEND
  5
81D
330
11A
100
AcDbEntity
  8
0
  6
CONTINUOUS
 62
     7
  0
POLYLINE
  5
11B
330
1F
100
AcDbEntity
  8
0
  6
CONTINUOUS
 62
     7
100
AcDb2dPolyline
 66
     1
 10
0.0
 20
0.0
 30
0.0
 70
   128
  0
VERTEX
  5
4A2
330
11B
100
AcDbEntity
  8
0
  6
CONTINUOUS
 62
     7
100
AcDbVertex
100
AcDb2dVertex
 10
291.0351293246
 20
774.5149602348
 30
0.0
  0
VERTEX
  5
4A3
330
11B
100
AcDbEntity
  8
0
  6
CONTINUOUS
 62
     7
100
AcDbVertex
100
AcDb2dVertex
 10
291.8551849286
 20
774.5992412025
 30
0.0
  0
VERTEX
  5
4A4
330
11B
100
AcDbEntity
  8
0
  6
CONTINUOUS
 62
     7
100
AcDbVertex
100
AcDb2dVertex
 10
292.5883071582
 20
774.6186723167
 30
0.0
  0
VERTEX
  5
4A5
330
11B
100
AcDbEntity
  8
0
  6
CONTINUOUS
 62
     7
100
AcDbVertex
100
AcDb2dVertex
 10
293.1383537213
 20
774.5587100441
 30
0.0
  0
VERTEX
  5
4A6
330
11B
100
AcDbEntity
  8
0
  6
CONTINUOUS
 62
     7
100
AcDbVertex
100
AcDb2dVertex
 10
293.4606062333
 20
774.4374741966
 30
0.0
  0
VERTEX
  5
4A7
330
11B
100
AcDbEntity
  8
0
  6
CONTINUOUS
 62
     7
100
AcDbVertex
100
AcDb2dVertex
 10
293.5251282613
 20
774.2901315147
 30
0.0
  0
VERTEX
  5
4A8
330
11B
100
AcDbEntity
  8
0
  6
CONTINUOUS
 62
     7
100
AcDbVertex
100
AcDb2dVertex
 10
293.3070944707
 20
774.1665114815
 30
0.0
  0
VERTEX
  5
4A9
330
11B
100
AcDbEntity
  8
0
  6
CONTINUOUS
 62
     7
100
AcDbVertex
100
AcDb2dVertex
 10
292.8356366317
 20
774.1099466736
 30
0.0
  0
VERTEX
  5
4AA
330
11B
100
AcDbEntity
  8
0
  6
CONTINUOUS
 62
     7
100
AcDbVertex
100
AcDb2dVertex
 10
292.1814458529
 20
774.1296162064
 30
0.0
  0
VERTEX
  5
4AB
330
11B
100
AcDbEntity
  8
0
  6
CONTINUOUS
 62
     7
100
AcDbVertex
100
AcDb2dVertex
 10
291.4041863839
 20
774.207877105
 30
0.0
  0
VERTEX
  5
4AC
330
11B
100
AcDbEntity
  8
0
  6
CONTINUOUS
 62
     7
100
AcDbVertex
100
AcDb2dVertex
 10
290.5665474097
 20
774.3114699776
 30
0.0
  0
VERTEX
  5
4AD
330
11B
100
AcDbEntity
  8
0
  6
CONTINUOUS
 62
     7
100
AcDbVertex
100
AcDb2dVertex
 10
289.9657325904
 20
774.3741740639
 30
0.0
  0
SEQEND
  5
81E
330
11B
100
AcDbEntity
  8
0
  6
CONTINUOUS
 62
     7
  0
ARC
  5
11C
330
1F
100
AcDbEntity
  8
0
  6
CONTINUOUS
 62
     7
100
AcDbCircle
 10
288.2420162276
 20
790.5827404558
 30
0.0
 40
16.30874127585083
100
AcDbArc
 50
271.8951074467
 51
279.8613645683
  0
ARC
  5
11D
330
1F
100
AcDbEntity
  8
0
  6
CONTINUOUS
 62
     7
100
AcDbCircle
 10
307.866091691
 20
769.2016750134
 30
0.0
 40
10.25277173379435
100
AcDbArc
 50
259.7670615421
 51
271.7485965902
  0
POLYLINE
  5
11E
330
1F
100
AcDbEntity
  8
0
  6
CONTINUOUS
 62
     7
100
AcDb2dPolyline
 66
     1
 10
0.0
 20
0.0
 30
0.0
 70
   128
  0
VERTEX
  5
4AE
330
11E
100
AcDbEntity
  8
0
  6
CONTINUOUS
 62
     7
100
AcDbVertex
100
AcDb2dVertex
 10
307.1150021712
 20
758.99397034
 30
0.0
  0
VERTEX
  5
4AF
330
11E
100
AcDbEntity
  8
0
  6
CONTINUOUS
 62
     7
100
AcDbVertex
100
AcDb2dVertex
 10
306.4143942754
 20
758.8986029083
 30
0.0
  0
VERTEX
  5
4B0
330
11E
100
AcDbEntity
  8
0
  6
CONTINUOUS
 62
     7
100
AcDbVertex
100
AcDb2dVertex
 10
305.5760102431
 20
758.7973942215
 30
0.0
  0
VERTEX
  5
4B1
330
11E
100
AcDbEntity
  8
0
  6
CONTINUOUS
 62
     7
100
AcDbVertex
100
AcDb2dVertex
 10
304.7821359793
 20
758.7472667152
 30
0.0
  0
VERTEX
  5
4B2
330
11E
100
AcDbEntity
  8
0
  6
CONTINUOUS
 62
     7
100
AcDbVertex
100
AcDb2dVertex
 10
304.1453944604
 20
758.7746848518
 30
0.0
  0
VERTEX
  5
4B3
330
11E
100
AcDbEntity
  8
0
  6
CONTINUOUS
 62
     7
100
AcDbVertex
100
AcDb2dVertex
 10
303.7241684357
 20
758.8724364693
 30
0.0
  0
VERTEX
  5
4B4
330
11E
100
AcDbEntity
  8
0
  6
CONTINUOUS
 62
     7
100
AcDbVertex
100
AcDb2dVertex
 10
303.5479324023
 20
759.0134610588
 30
0.0
  0
VERTEX
  5
4B5
330
11E
100
AcDbEntity
  8
0
  6
CONTINUOUS
 62
     7
100
AcDbVertex
100
AcDb2dVertex
 10
303.6476658742
 20
759.154545253
 30
0.0
  0
VERTEX
  5
4B6
330
11E
100
AcDbEntity
  8
0
  6
CONTINUOUS
 62
     7
100
AcDbVertex
100
AcDb2dVertex
 10
304.0213869969
 20
759.2437734062
 30
0.0
  0
VERTEX
  5
4B7
330
11E
100
AcDbEntity
  8
0
  6
CONTINUOUS
 62
     7
100
AcDbVertex
100
AcDb2dVertex
 10
304.6074347655
 20
759.2542638237
 30
0.0
  0
VERTEX
  5
4B8
330
11E
100
AcDbEntity
  8
0
  6
CONTINUOUS
 62
     7
100
AcDbVertex
100
AcDb2dVertex
 10
305.3382771174
 20
759.1958512718
 30
0.0
  0
VERTEX
  5
4B9
330
11E
100
AcDbEntity
  8
0
  6
CONTINUOUS
 62
     7
100
AcDbVertex
100
AcDb2dVertex
 10
306.044681565
 20
759.1119875366
 30
0.0
  0
VERTEX
  5
4BA
330
11E
100
AcDbEntity
  8
0
  6
CONTINUOUS
 62
     7
100
AcDbVertex
100
AcDb2dVertex
 10
306.044681565
 20
759.1119875366
 30
0.0
  0
SEQEND
  5
81F
330
11E
100
AcDbEntity
  8
0
  6
CONTINUOUS
 62
     7
  0
POLYLINE
  5
11F
330
1F
100
AcDbEntity
  8
0
  6
CONTINUOUS
 62
     7
100
AcDb2dPolyline
 66
     1
 10
0.0
 20
0.0
 30
0.0
 70
   128
  0
VERTEX
  5
4BB
330
11F
100
AcDbEntity
  8
0
  6
CONTINUOUS
 62
     7
100
AcDbVertex
100
AcDb2dVertex
 10
177.7821766297
 20
90.7651388776
 30
0.0
  0
VERTEX
  5
4BC
330
11F
100
AcDbEntity
  8
0
  6
CONTINUOUS
 62
     7
100
AcDbVertex
100
AcDb2dVertex
 10
176.9331680695
 20
90.9219891552
 30
0.0
  0
VERTEX
  5
4BD
330
11F
100
AcDbEntity
  8
0
  6
CONTINUOUS
 62
     7
100
AcDbVertex
100
AcDb2dVertex
 10
175.985305206
 20
91.1406025049
 30
0.0
  0
VERTEX
  5
4BE
330
11F
100
AcDbEntity
  8
0
  6
CONTINUOUS
 62
     7
100
AcDbVertex
100
AcDb2dVertex
 10
175.3652678887
 20
91.3480851965
 30
0.0
  0
VERTEX
  5
4BF
330
11F
100
AcDbEntity
  8
0
  6
CONTINUOUS
 62
     7
100
AcDbVertex
100
AcDb2dVertex
 10
175.0954674641
 20
91.5369383226
 30
0.0
  0
VERTEX
  5
4C0
330
11F
100
AcDbEntity
  8
0
  6
CONTINUOUS
 62
     7
100
AcDbVertex
100
AcDb2dVertex
 10
175.0844108025
 20
91.5864581408
 30
0.0
  0
SEQEND
  5
820
330
11F
100
AcDbEntity
  8
0
  6
CONTINUOUS
 62
     7
  0
ELLIPSE
  5
120
330
1F
100
AcDbEntity
  8
0
  6
CONTINUOUS
 62
     7
100
AcDbEllipse
 10
545.0145030536
 20
781.7265188149
 30
0.0
 11
7.256517966689898
 21
7.18986204654118
 31
0.0
210
0.0
220
0.0
230
1.0
 40
0.9569893102
 41
3.588014571402849
 42
4.319133165907233
  0
ELLIPSE
  5
121
330
1F
100
AcDbEntity
  8
0
  6
CONTINUOUS
 62
     7
100
AcDbEllipse
 10
545.0145030536
 20
771.2379221224
 30
0.0
 11
-7.256517966689786
 21
7.323791841906655
 31
0.0
210
0.0
220
0.0
230
1.0
 40
0.9394888971
 41
0.7588151117296714
 42
3.90040776531949
  0
ELLIPSE
  5
122
330
1F
100
AcDbEntity
  8
0
  6
CONTINUOUS
 62
     7
100
AcDbEllipse
 10
331.4735243124
 20
781.7265188149
 30
0.0
 11
7.256517966689843
 21
-7.18986204654118
 31
0.0
210
0.0
220
0.0
230
1.0
 40
0.9569893102
 41
5.105644794862183
 42
5.836763389366568
  0
ELLIPSE
  5
123
330
1F
100
AcDbEntity
  8
0
  6
CONTINUOUS
 62
     7
100
AcDbEllipse
 10
331.4735243124
 20
771.2379221224
 30
0.0
 11
7.256517966689843
 21
7.323791841906655
 31
0.0
210
0.0
220
0.0
230
1.0
 40
0.9394888971
 41
2.382777541860114
 42
5.524370195449933
  0
ELLIPSE
  5
124
330
1F
100
AcDbEntity
  8
0
  6
CONTINUOUS
 62
     7
100
AcDbEllipse
 10
545.0145030536
 20
769.6095162399
 30
0.0
 11
-7.256517966689786
 21
7.323791841906655
 31
0.0
210
0.0
220
0.0
230
1.0
 40
0.9394888971
 41
1.931477838583711
 42
2.727745038465436
  0
ELLIPSE
  5
125
330
1F
100
AcDbEntity
  8
0
  6
CONTINUOUS
 62
     7
100
AcDbEllipse
 10
331.4735243124
 20
769.6095162399
 30
0.0
 11
7.256517966689786
 21
7.323791841906655
 31
0.0
210
0.0
220
0.0
230
1.0
 40
0.9394888971
 41
3.555440268714172
 42
4.351707468595885
  0
LINE
  5
126
330
1F
100
AcDbEntity
  8
0
  6
CONTINUOUS
 62
     7
100
AcDbLine
 10
618.2440208356
 20
995.277451461
 30
0.0
 11
617.9922806184
 21
992.3772086556
 31
0.0
  0
ARC
  5
127
330
1F
100
AcDbEntity
  8
0
  6
CONTINUOUS
 62
     7
100
AcDbCircle
 10
287.8645295864
 20
993.4166600638
 30
0.0
 40
29.62308413683119
100
AcDbArc
 50
180.7534202192
 51
270.7339914448
  0
LINE
  5
128
330
1F
100
AcDbEntity
  8
0
  6
CONTINUOUS
 62
     7
100
AcDbLine
 10
258.2440065305
 20
993.0271377022
 30
0.0
 11
258.2440065305
 21
995.277451461
 31
0.0
  0
LINE
  5
129
330
1F
100
AcDbEntity
  8
0
  6
CONTINUOUS
 62
     7
100
AcDbLine
 10
618.2440208356
 20
995.277451461
 30
0.0
 11
618.2440208356
 21
993.0271377022
 31
0.0
  0
ARC
  5
12A
330
1F
100
AcDbEntity
  8
0
  6
CONTINUOUS
 62
     7
100
AcDbCircle
 10
588.6234977796
 20
993.4166600638
 30
0.0
 40
29.62308413683094
100
AcDbArc
 50
269.2660085552
 51
359.2465797808
  0
LINE
  5
12B
330
1F
100
AcDbEntity
  8
0
  6
CONTINUOUS
 62
     7
100
AcDbLine
 10
258.2440065305
 20
995.277451461
 30
0.0
 11
258.2440065305
 21
1102.4581660683
 31
0.0
  0
LINE
  5
12C
330
1F
100
AcDbEntity
  8
0
  6
CONTINUOUS
 62
     7
100
AcDbLine
 10
618.2440208356
 20
1102.4581660683
 30
0.0
 11
618.2440208356
 21
995.277451461
 31
0.0
  0
LINE
  5
12D
330
1F
100
AcDbEntity
  8
0
  6
CONTINUOUS
 62
     7
100
AcDbLine
 10
258.2440065305
 20
1102.4581660683
 30
0.0
 11
258.5173832337
 21
1105.6647767479
 31
0.0
  0
ARC
  5
12E
330
1F
100
AcDbEntity
  8
0
  6
CONTINUOUS
 62
     7
100
AcDbCircle
 10
224.6400341005
 20
336.0119936111
 30
0.0
 40
9.931741655128949
100
AcDbArc
 50
359.6222665915
 51
61.3489259804
  0
ARC
  5
12F
330
1F
100
AcDbEntity
  8
0
  6
CONTINUOUS
 62
     7
100
AcDbCircle
 10
224.5721687813
 20
335.9704098543
 30
0.0
 40
9.999419685276287
100
AcDbArc
 50
241.7090693371
 51
359.8630969558
  0
ARC
  5
130
330
1F
100
AcDbEntity
  8
0
  6
CONTINUOUS
 62
     7
100
AcDbCircle
 10
651.8479932655
 20
336.0119936111
 30
0.0
 40
9.931741655128969
100
AcDbArc
 50
118.6510740196
 51
180.3777334085
  0
ARC
  5
131
330
1F
100
AcDbEntity
  8
0
  6
CONTINUOUS
 62
     7
100
AcDbCircle
 10
651.9158585847
 20
335.9704098543
 30
0.0
 40
9.999419685276314
100
AcDbArc
 50
180.1369030442
 51
298.2909306629
  0
POLYLINE
  5
132
330
1F
100
AcDbEntity
  8
0
  6
CONTINUOUS
 62
     7
100
AcDb2dPolyline
 66
     1
 10
0.0
 20
0.0
 30
0.0
 70
   128
  0
VERTEX
  5
4C1
330
132
100
AcDbEntity
  8
0
  6
CONTINUOUS
 62
     7
100
AcDbVertex
100
AcDb2dVertex
 10
1294.6202460426
 20
824.1476883347
 30
0.0
  0
VERTEX
  5
4C2
330
132
100
AcDbEntity
  8
0
  6
CONTINUOUS
 62
     7
100
AcDbVertex
100
AcDb2dVertex
 10
1292.9391044873
 20
823.7113227303
 30
0.0
  0
VERTEX
  5
4C3
330
132
100
AcDbEntity
  8
0
  6
CONTINUOUS
 62
     7
100
AcDbVertex
100
AcDb2dVertex
 10
1290.7823551196
 20
823.0267037804
 30
0.0
  0
VERTEX
  5
4C4
330
132
100
AcDbEntity
  8
0
  6
CONTINUOUS
 62
     7
100
AcDbVertex
100
AcDb2dVertex
 10
1288.7462306518
 20
822.2175707275
 30
0.0
  0
VERTEX
  5
4C5
330
132
100
AcDbEntity
  8
0
  6
CONTINUOUS
 62
     7
100
AcDbVertex
100
AcDb2dVertex
 10
1286.7558005947
 20
821.1731781418
 30
0.0
  0
VERTEX
  5
4C6
330
132
100
AcDbEntity
  8
0
  6
CONTINUOUS
 62
     7
100
AcDbVertex
100
AcDb2dVertex
 10
1285.5416018266
 20
820.3207125122
 30
0.0
  0
VERTEX
  5
4C7
330
132
100
AcDbEntity
  8
0
  6
CONTINUOUS
 62
     7
100
AcDbVertex
100
AcDb2dVertex
 10
1284.5663655299
 20
819.425569957
 30
0.0
  0
VERTEX
  5
4C8
330
132
100
AcDbEntity
  8
0
  6
CONTINUOUS
 62
     7
100
AcDbVertex
100
AcDb2dVertex
 10
1283.7539542216
 20
818.4255232269
 30
0.0
  0
VERTEX
  5
4C9
330
132
100
AcDbEntity
  8
0
  6
CONTINUOUS
 62
     7
100
AcDbVertex
100
AcDb2dVertex
 10
1283.1056046981
 20
817.2903527672
 30
0.0
  0
VERTEX
  5
4CA
330
132
100
AcDbEntity
  8
0
  6
CONTINUOUS
 62
     7
100
AcDbVertex
100
AcDb2dVertex
 10
1282.6574709016
 20
816.0210718567
 30
0.0
  0
VERTEX
  5
4CB
330
132
100
AcDbEntity
  8
0
  6
CONTINUOUS
 62
     7
100
AcDbVertex
100
AcDb2dVertex
 10
1282.4810448784
 20
814.8293365891
 30
0.0
  0
SEQEND
  5
821
330
132
100
AcDbEntity
  8
0
  6
CONTINUOUS
 62
     7
  0
LINE
  5
133
330
1F
100
AcDbEntity
  8
0
  6
CONTINUOUS
 62
     7
100
AcDbLine
 10
1294.4763678807
 20
824.1103162224
 30
0.0
 11
1288.9351997275
 21
824.3961204941
 31
0.0
  0
ARC
  5
134
330
1F
100
AcDbEntity
  8
0
  6
CONTINUOUS
 62
     7
100
AcDbCircle
 10
1288.6265340166
 20
818.4031965606
 30
0.0
 40
6.000000000000137
100
AcDbArc
 50
87.0352435309
 51
177.0
  0
LINE
  5
135
330
1F
100
AcDbEntity
  8
0
  6
CONTINUOUS
 62
     7
100
AcDbLine
 10
1789.2658117909
 20
89.9365601878
 30
0.0
 11
1789.6232608456
 21
85.9638961198
 31
0.0
  0
LINE
  5
136
330
1F
100
AcDbEntity
  8
0
  6
CONTINUOUS
 62
     7
100
AcDbLine
 10
1809.5427755016
 20
87.756051326
 30
0.0
 11
1809.1853860516
 21
91.7287152776
 31
0.0
  0
POLYLINE
  5
137
330
1F
100
AcDbEntity
  8
0
  6
CONTINUOUS
 62
     7
100
AcDb2dPolyline
 66
     1
 10
0.0
 20
0.0
 30
0.0
 70
   128
  0
VERTEX
  5
4CC
330
137
100
AcDbEntity
  8
0
  6
CONTINUOUS
 62
     7
100
AcDbVertex
100
AcDb2dVertex
 10
1794.7524193424
 20
84.6807622517
 30
0.0
  0
VERTEX
  5
4CD
330
137
100
AcDbEntity
  8
0
  6
CONTINUOUS
 62
     7
100
AcDbVertex
100
AcDb2dVertex
 10
1793.6526540417
 20
83.3689869548
 30
0.0
  0
VERTEX
  5
4CE
330
137
100
AcDbEntity
  8
0
  6
CONTINUOUS
 62
     7
100
AcDbVertex
100
AcDb2dVertex
 10
1792.8816679615
 20
81.9146457294
 30
0.0
  0
SEQEND
  5
822
330
137
100
AcDbEntity
  8
0
  6
CONTINUOUS
 62
     7
  0
ARC
  5
138
330
1F
100
AcDbEntity
  8
0
  6
CONTINUOUS
 62
     7
100
AcDbCircle
 10
1800.2978617006
 20
78.9146461688
 30
0.0
 40
8.000000000000057
100
AcDbArc
 50
22.024312837
 51
56.3997210294
  0
POLYLINE
  5
139
330
1F
100
AcDbEntity
  8
0
  6
CONTINUOUS
 62
     7
100
AcDb2dPolyline
 66
     1
 10
0.0
 20
0.0
 30
0.0
 70
   128
  0
VERTEX
  5
4CF
330
139
100
AcDbEntity
  8
0
  6
CONTINUOUS
 62
     7
100
AcDbVertex
100
AcDb2dVertex
 10
1794.4285873074
 20
86.2495970147
 30
0.0
  0
VERTEX
  5
4D0
330
139
100
AcDbEntity
  8
0
  6
CONTINUOUS
 62
     7
100
AcDbVertex
100
AcDb2dVertex
 10
1794.4217327732
 20
86.250608431
 30
0.0
  0
VERTEX
  5
4D1
330
139
100
AcDbEntity
  8
0
  6
CONTINUOUS
 62
     7
100
AcDbVertex
100
AcDb2dVertex
 10
1794.5197228092
 20
86.2126384097
 30
0.0
  0
VERTEX
  5
4D2
330
139
100
AcDbEntity
  8
0
  6
CONTINUOUS
 62
     7
100
AcDbVertex
100
AcDb2dVertex
 10
1794.674635281
 20
86.1160095016
 30
0.0
  0
VERTEX
  5
4D3
330
139
100
AcDbEntity
  8
0
  6
CONTINUOUS
 62
     7
100
AcDbVertex
100
AcDb2dVertex
 10
1794.8719862599
 20
85.9046123157
 30
0.0
  0
VERTEX
  5
4D4
330
139
100
AcDbEntity
  8
0
  6
CONTINUOUS
 62
     7
100
AcDbVertex
100
AcDb2dVertex
 10
1795.0165275234
 20
85.5662781911
 30
0.0
  0
VERTEX
  5
4D5
330
139
100
AcDbEntity
  8
0
  6
CONTINUOUS
 62
     7
100
AcDbVertex
100
AcDb2dVertex
 10
1795.0372103352
 20
85.4061260986
 30
0.0
  0
SEQEND
  5
823
330
139
100
AcDbEntity
  8
0
  6
CONTINUOUS
 62
     7
  0
ARC
  5
13A
330
1F
100
AcDbEntity
  8
0
  6
CONTINUOUS
 62
     7
100
AcDbCircle
 10
1805.2390140837
 20
86.3686622514
 30
0.0
 40
0.9386132775238344
100
AcDbArc
 50
120.4936543952
 51
232.854562994
  0
ARC
  5
13B
330
1F
100
AcDbEntity
  8
0
  6
CONTINUOUS
 62
     7
100
AcDbCircle
 10
1794.1492986382
 20
85.3424557211
 30
0.0
 40
0.8901916077766772
100
AcDbArc
 50
312.7962006834
 51
4.1015456272
  0
LINE
  5
13C
330
1F
100
AcDbEntity
  8
0
  6
CONTINUOUS
 62
     7
100
AcDbLine
 10
1265.8958066005
 20
91.3855550977
 30
0.0
 11
1265.6751204032
 21
87.4003403521
 31
0.0
  0
LINE
  5
13D
330
1F
100
AcDbEntity
  8
0
  6
CONTINUOUS
 62
     7
100
AcDbLine
 10
1285.6445241469
 20
86.2945058549
 30
0.0
 11
1285.8652103442
 21
90.2797203677
 31
0.0
  0
ARC
  5
13E
330
1F
100
AcDbEntity
  8
0
  6
CONTINUOUS
 62
     7
100
AcDbCircle
 10
1275.2184487339
 20
78.8769937398
 30
0.0
 40
7.999999999999919
100
AcDbArc
 50
125.6184039371
 51
157.975687163
  0
ARC
  5
13F
330
1F
100
AcDbEntity
  8
0
  6
CONTINUOUS
 62
     7
100
AcDbCircle
 10
1275.2184487339
 20
78.8769937398
 30
0.0
 40
8.000000000000183
100
AcDbArc
 50
22.024312837
 51
48.0423967317
  0
ARC
  5
140
330
1F
100
AcDbEntity
  8
0
  6
CONTINUOUS
 62
     7
100
AcDbCircle
 10
1270.0382269527
 20
86.1827873884
 30
0.0
 40
0.9190254794316994
100
AcDbArc
 50
357.0563212436
 51
64.4920649964
  0
ARC
  5
141
330
1F
100
AcDbEntity
  8
0
  6
CONTINUOUS
 62
     7
100
AcDbCircle
 10
1281.1933922634
 20
85.5459259721
 30
0.0
 40
0.945602206305421
100
AcDbArc
 50
110.8918937934
 51
225.1382994953
  0
ARC
  5
142
330
1F
100
AcDbEntity
  8
0
  6
CONTINUOUS
 62
     7
100
AcDbCircle
 10
1270.0265426456
 20
86.1469338708
 30
0.0
 40
0.9295663319225451
100
AcDbArc
 50
305.0743950899
 51
359.3008711169
  0
LINE
  5
143
330
1F
100
AcDbEntity
  8
0
  6
CONTINUOUS
 62
     7
100
AcDbLine
 10
1260.2184492845
 20
75.8769941682
 30
0.0
 11
1260.2184492845
 21
69.8769931848
 31
0.0
  0
LINE
  5
144
330
1F
100
AcDbEntity
  8
0
  6
CONTINUOUS
 62
     7
100
AcDbLine
 10
1290.2184504766
 20
69.8769931848
 30
0.0
 11
1290.2184504766
 21
75.8769941682
 31
0.0
  0
LINE
  5
145
330
1F
100
AcDbEntity
  8
0
  6
CONTINUOUS
 62
     7
100
AcDbLine
 10
1290.2184504766
 20
75.8769941682
 30
0.0
 11
1282.634646048
 21
81.8769932891
 31
0.0
  0
LINE
  5
146
330
1F
100
AcDbEntity
  8
0
  6
CONTINUOUS
 62
     7
100
AcDbLine
 10
1267.8022499878
 20
81.8769932891
 30
0.0
 11
1260.2184492845
 21
75.8769941682
 31
0.0
  0
LINE
  5
147
330
1F
100
AcDbEntity
  8
0
  6
CONTINUOUS
 62
     7
100
AcDbLine
 10
1785.2978709835
 20
75.9146466086
 30
0.0
 11
1785.2978709835
 21
69.9146465565
 31
0.0
  0
LINE
  5
148
330
1F
100
AcDbEntity
  8
0
  6
CONTINUOUS
 62
     7
100
AcDbLine
 10
1815.2978423733
 20
69.9146465565
 30
0.0
 11
1815.2978423733
 21
75.9146466086
 31
0.0
  0
LINE
  5
149
330
1F
100
AcDbEntity
  8
0
  6
CONTINUOUS
 62
     7
100
AcDbLine
 10
1815.2978423733
 20
75.9146466086
 30
0.0
 11
1807.7140453953
 21
81.9146457294
 31
0.0
  0
LINE
  5
14A
330
1F
100
AcDbEntity
  8
0
  6
CONTINUOUS
 62
     7
100
AcDbLine
 10
1792.8816679615
 20
81.9146457294
 30
0.0
 11
1785.2978709835
 21
75.9146466086
 31
0.0
  0
LINE
  5
14B
330
1F
100
AcDbEntity
  8
0
  6
CONTINUOUS
 62
     7
100
AcDbLine
 10
1809.1853860516
 20
91.7287152776
 30
0.0
 11
1751.6312602657
 21
731.4340342934
 31
0.0
  0
LINE
  5
14C
330
1F
100
AcDbEntity
  8
0
  6
CONTINUOUS
 62
     7
100
AcDbLine
 10
1731.7117456097
 20
729.6418418343
 30
0.0
 11
1789.2658117909
 21
89.9365601878
 31
0.0
  0
LINE
  5
14D
330
1F
100
AcDbEntity
  8
0
  6
CONTINUOUS
 62
     7
100
AcDbLine
 10
1302.3361790675
 20
749.4339217598
 30
0.0
 11
1281.454969545
 21
372.3564316685
 31
0.0
  0
LINE
  5
14E
330
1F
100
AcDbEntity
  8
0
  6
CONTINUOUS
 62
     7
100
AcDbLine
 10
1280.3491320211
 20
352.3869385178
 30
0.0
 11
1265.8958066005
 21
91.3855550977
 31
0.0
  0
LINE
  5
14F
330
1F
100
AcDbEntity
  8
0
  6
CONTINUOUS
 62
     7
100
AcDbLine
 10
1285.8652103442
 20
90.2797203677
 30
0.0
 11
1300.321810295
 21
351.3402213509
 31
0.0
  0
LINE
  5
150
330
1F
100
AcDbEntity
  8
0
  6
CONTINUOUS
 62
     7
100
AcDbLine
 10
1301.427647819
 20
371.3097145016
 30
0.0
 11
1322.3055828113
 21
748.3280767853
 31
0.0
  0
POLYLINE
  5
151
330
1F
100
AcDbEntity
  8
0
  6
CONTINUOUS
 62
     7
100
AcDb2dPolyline
 66
     1
 10
0.0
 20
0.0
 30
0.0
 70
   128
  0
VERTEX
  5
4D6
330
151
100
AcDbEntity
  8
0
  6
CONTINUOUS
 62
     7
100
AcDbVertex
100
AcDb2dVertex
 10
1339.3002528447
 20
795.3977455551
 30
0.0
  0
VERTEX
  5
4D7
330
151
100
AcDbEntity
  8
0
  6
CONTINUOUS
 62
     7
100
AcDbVertex
100
AcDb2dVertex
 10
1337.7532664436
 20
795.444415992
 30
0.0
  0
VERTEX
  5
4D8
330
151
100
AcDbEntity
  8
0
  6
CONTINUOUS
 62
     7
100
AcDbVertex
100
AcDb2dVertex
 10
1334.8661068577
 20
795.2689995224
 30
0.0
  0
VERTEX
  5
4D9
330
151
100
AcDbEntity
  8
0
  6
CONTINUOUS
 62
     7
100
AcDbVertex
100
AcDb2dVertex
 10
1332.0147324103
 20
794.7825064117
 30
0.0
  0
VERTEX
  5
4DA
330
151
100
AcDbEntity
  8
0
  6
CONTINUOUS
 62
     7
100
AcDbVertex
100
AcDb2dVertex
 10
1329.216331591
 20
793.9916123802
 30
0.0
  0
VERTEX
  5
4DB
330
151
100
AcDbEntity
  8
0
  6
CONTINUOUS
 62
     7
100
AcDbVertex
100
AcDb2dVertex
 10
1326.4828253287
 20
792.9018606598
 30
0.0
  0
VERTEX
  5
4DC
330
151
100
AcDbEntity
  8
0
  6
CONTINUOUS
 62
     7
100
AcDbVertex
100
AcDb2dVertex
 10
1323.8256279129
 20
791.517363971
 30
0.0
  0
VERTEX
  5
4DD
330
151
100
AcDbEntity
  8
0
  6
CONTINUOUS
 62
     7
100
AcDbVertex
100
AcDb2dVertex
 10
1321.2566826243
 20
789.8418774063
 30
0.0
  0
VERTEX
  5
4DE
330
151
100
AcDbEntity
  8
0
  6
CONTINUOUS
 62
     7
100
AcDbVertex
100
AcDb2dVertex
 10
1318.7892663974
 20
787.8798713142
 30
0.0
  0
VERTEX
  5
4DF
330
151
100
AcDbEntity
  8
0
  6
CONTINUOUS
 62
     7
100
AcDbVertex
100
AcDb2dVertex
 10
1316.438466658
 20
785.6380810196
 30
0.0
  0
VERTEX
  5
4E0
330
151
100
AcDbEntity
  8
0
  6
CONTINUOUS
 62
     7
100
AcDbVertex
100
AcDb2dVertex
 10
1314.2209578055
 20
783.1271757538
 30
0.0
  0
VERTEX
  5
4E1
330
151
100
AcDbEntity
  8
0
  6
CONTINUOUS
 62
     7
100
AcDbVertex
100
AcDb2dVertex
 10
1312.153987934
 20
780.3625931198
 30
0.0
  0
VERTEX
  5
4E2
330
151
100
AcDbEntity
  8
0
  6
CONTINUOUS
 62
     7
100
AcDbVertex
100
AcDb2dVertex
 10
1310.2540228266
 20
777.364419883
 30
0.0
  0
VERTEX
  5
4E3
330
151
100
AcDbEntity
  8
0
  6
CONTINUOUS
 62
     7
100
AcDbVertex
100
AcDb2dVertex
 10
1308.5354942578
 20
774.1560806686
 30
0.0
  0
VERTEX
  5
4E4
330
151
100
AcDbEntity
  8
0
  6
CONTINUOUS
 62
     7
100
AcDbVertex
100
AcDb2dVertex
 10
1307.0100921887
 20
770.7629074509
 30
0.0
  0
VERTEX
  5
4E5
330
151
100
AcDbEntity
  8
0
  6
CONTINUOUS
 62
     7
100
AcDbVertex
100
AcDb2dVertex
 10
1305.6870702404
 20
767.2119011337
 30
0.0
  0
VERTEX
  5
4E6
330
151
100
AcDbEntity
  8
0
  6
CONTINUOUS
 62
     7
100
AcDbVertex
100
AcDb2dVertex
 10
1304.5726719994
 20
763.5286917145
 30
0.0
  0
VERTEX
  5
4E7
330
151
100
AcDbEntity
  8
0
  6
CONTINUOUS
 62
     7
100
AcDbVertex
100
AcDb2dVertex
 10
1303.6711442966
 20
759.7375382835
 30
0.0
  0
VERTEX
  5
4E8
330
151
100
AcDbEntity
  8
0
  6
CONTINUOUS
 62
     7
100
AcDbVertex
100
AcDb2dVertex
 10
1302.9854971665
 20
755.8622230942
 30
0.0
  0
VERTEX
  5
4E9
330
151
100
AcDbEntity
  8
0
  6
CONTINUOUS
 62
     7
100
AcDbVertex
100
AcDb2dVertex
 10
1302.5178018707
 20
751.9260515625
 30
0.0
  0
VERTEX
  5
4EA
330
151
100
AcDbEntity
  8
0
  6
CONTINUOUS
 62
     7
100
AcDbVertex
100
AcDb2dVertex
 10
1302.3435178894
 20
749.433385318
 30
0.0
  0
SEQEND
  5
824
330
151
100
AcDbEntity
  8
0
  6
CONTINUOUS
 62
     7
  0
POLYLINE
  5
152
330
1F
100
AcDbEntity
  8
0
  6
CONTINUOUS
 62
     7
100
AcDb2dPolyline
 66
     1
 10
0.0
 20
0.0
 30
0.0
 70
   128
  0
VERTEX
  5
4EB
330
152
100
AcDbEntity
  8
0
  6
CONTINUOUS
 62
     7
100
AcDbVertex
100
AcDb2dVertex
 10
1322.2896162171
 20
748.0234970505
 30
0.0
  0
VERTEX
  5
4EC
330
152
100
AcDbEntity
  8
0
  6
CONTINUOUS
 62
     7
100
AcDbVertex
100
AcDb2dVertex
 10
1322.3902661103
 20
749.5815028603
 30
0.0
  0
VERTEX
  5
4ED
330
152
100
AcDbEntity
  8
0
  6
CONTINUOUS
 62
     7
100
AcDbVertex
100
AcDb2dVertex
 10
1322.7222788829
 20
752.60268349
 30
0.0
  0
VERTEX
  5
4EE
330
152
100
AcDbEntity
  8
0
  6
CONTINUOUS
 62
     7
100
AcDbVertex
100
AcDb2dVertex
 10
1323.2269216079
 20
755.5420865471
 30
0.0
  0
VERTEX
  5
4EF
330
152
100
AcDbEntity
  8
0
  6
CONTINUOUS
 62
     7
100
AcDbVertex
100
AcDb2dVertex
 10
1323.8945606846
 20
758.3646645004
 30
0.0
  0
VERTEX
  5
4F0
330
152
100
AcDbEntity
  8
0
  6
CONTINUOUS
 62
     7
100
AcDbVertex
100
AcDb2dVertex
 10
1324.7122172016
 20
761.0380520279
 30
0.0
  0
VERTEX
  5
4F1
330
152
100
AcDbEntity
  8
0
  6
CONTINUOUS
 62
     7
100
AcDbVertex
100
AcDb2dVertex
 10
1325.6635445851
 20
763.5324468071
 30
0.0
  0
VERTEX
  5
4F2
330
152
100
AcDbEntity
  8
0
  6
CONTINUOUS
 62
     7
100
AcDbVertex
100
AcDb2dVertex
 10
1326.728932907
 20
765.8212055618
 30
0.0
  0
VERTEX
  5
4F3
330
152
100
AcDbEntity
  8
0
  6
CONTINUOUS
 62
     7
100
AcDbVertex
100
AcDb2dVertex
 10
1327.8857696551
 20
767.8816785271
 30
0.0
  0
VERTEX
  5
4F4
330
152
100
AcDbEntity
  8
0
  6
CONTINUOUS
 62
     7
100
AcDbVertex
100
AcDb2dVertex
 10
1329.1089910764
 20
769.6964611465
 30
0.0
  0
VERTEX
  5
4F5
330
152
100
AcDbEntity
  8
0
  6
CONTINUOUS
 62
     7
100
AcDbVertex
100
AcDb2dVertex
 10
1330.3719389934
 20
771.2541093285
 30
0.0
  0
VERTEX
  5
4F6
330
152
100
AcDbEntity
  8
0
  6
CONTINUOUS
 62
     7
100
AcDbVertex
100
AcDb2dVertex
 10
1331.6460702318
 20
772.5487818176
 30
0.0
  0
VERTEX
  5
4F7
330
152
100
AcDbEntity
  8
0
  6
CONTINUOUS
 62
     7
100
AcDbVertex
100
AcDb2dVertex
 10
1332.905337562
 20
773.5839356834
 30
0.0
  0
VERTEX
  5
4F8
330
152
100
AcDbEntity
  8
0
  6
CONTINUOUS
 62
     7
100
AcDbVertex
100
AcDb2dVertex
 10
1334.1300863523
 20
774.3717302734
 30
0.0
  0
VERTEX
  5
4F9
330
152
100
AcDbEntity
  8
0
  6
CONTINUOUS
 62
     7
100
AcDbVertex
100
AcDb2dVertex
 10
1335.3130150336
 20
774.9316563065
 30
0.0
  0
VERTEX
  5
4FA
330
152
100
AcDbEntity
  8
0
  6
CONTINUOUS
 62
     7
100
AcDbVertex
100
AcDb2dVertex
 10
1336.4697027701
 20
775.2848138268
 30
0.0
  0
VERTEX
  5
4FB
330
152
100
AcDbEntity
  8
0
  6
CONTINUOUS
 62
     7
100
AcDbVertex
100
AcDb2dVertex
 10
1337.6571986574
 20
775.4397859032
 30
0.0
  0
VERTEX
  5
4FC
330
152
100
AcDbEntity
  8
0
  6
CONTINUOUS
 62
     7
100
AcDbVertex
100
AcDb2dVertex
 10
1338.3502144117
 20
775.4304875786
 30
0.0
  0
SEQEND
  5
825
330
152
100
AcDbEntity
  8
0
  6
CONTINUOUS
 62
     7
  0
POLYLINE
  5
153
330
1F
100
AcDbEntity
  8
0
  6
CONTINUOUS
 62
     7
100
AcDb2dPolyline
 66
     1
 10
0.0
 20
0.0
 30
0.0
 70
   128
  0
VERTEX
  5
4FD
330
153
100
AcDbEntity
  8
0
  6
CONTINUOUS
 62
     7
100
AcDbVertex
100
AcDb2dVertex
 10
1751.6312602657
 20
731.4340342934
 30
0.0
  0
VERTEX
  5
4FE
330
153
100
AcDbEntity
  8
0
  6
CONTINUOUS
 62
     7
100
AcDbVertex
100
AcDb2dVertex
 10
1751.3923648495
 20
733.6428036148
 30
0.0
  0
VERTEX
  5
4FF
330
153
100
AcDbEntity
  8
0
  6
CONTINUOUS
 62
     7
100
AcDbVertex
100
AcDb2dVertex
 10
1750.7632378239
 20
737.5802864487
 30
0.0
  0
VERTEX
  5
500
330
153
100
AcDbEntity
  8
0
  6
CONTINUOUS
 62
     7
100
AcDbVertex
100
AcDb2dVertex
 10
1749.8800161976
 20
741.4489259178
 30
0.0
  0
VERTEX
  5
501
330
153
100
AcDbEntity
  8
0
  6
CONTINUOUS
 62
     7
100
AcDbVertex
100
AcDb2dVertex
 10
1748.7466338772
 20
745.2232112343
 30
0.0
  0
VERTEX
  5
502
330
153
100
AcDbEntity
  8
0
  6
CONTINUOUS
 62
     7
100
AcDbVertex
100
AcDb2dVertex
 10
1747.3682764668
 20
748.8791217262
 30
0.0
  0
VERTEX
  5
503
330
153
100
AcDbEntity
  8
0
  6
CONTINUOUS
 62
     7
100
AcDbVertex
100
AcDb2dVertex
 10
1745.7516196865
 20
752.3922194893
 30
0.0
  0
VERTEX
  5
504
330
153
100
AcDbEntity
  8
0
  6
CONTINUOUS
 62
     7
100
AcDbVertex
100
AcDb2dVertex
 10
1743.905127396
 20
755.7385434563
 30
0.0
  0
VERTEX
  5
505
330
153
100
AcDbEntity
  8
0
  6
CONTINUOUS
 62
     7
100
AcDbVertex
100
AcDb2dVertex
 10
1741.8390515942
 20
758.8944305832
 30
0.0
  0
VERTEX
  5
506
330
153
100
AcDbEntity
  8
0
  6
CONTINUOUS
 62
     7
100
AcDbVertex
100
AcDb2dVertex
 10
1739.565968861
 20
761.8367542679
 30
0.0
  0
VERTEX
  5
507
330
153
100
AcDbEntity
  8
0
  6
CONTINUOUS
 62
     7
100
AcDbVertex
100
AcDb2dVertex
 10
1737.100899567
 20
764.5434607918
 30
0.0
  0
VERTEX
  5
508
330
153
100
AcDbEntity
  8
0
  6
CONTINUOUS
 62
     7
100
AcDbVertex
100
AcDb2dVertex
 10
1734.4611886639
 20
766.9939865524
 30
0.0
  0
VERTEX
  5
509
330
153
100
AcDbEntity
  8
0
  6
CONTINUOUS
 62
     7
100
AcDbVertex
100
AcDb2dVertex
 10
1731.6665056843
 20
769.1702117378
 30
0.0
  0
VERTEX
  5
50A
330
153
100
AcDbEntity
  8
0
  6
CONTINUOUS
 62
     7
100
AcDbVertex
100
AcDb2dVertex
 10
1728.7382486958
 20
771.0566391403
 30
0.0
  0
VERTEX
  5
50B
330
153
100
AcDbEntity
  8
0
  6
CONTINUOUS
 62
     7
100
AcDbVertex
100
AcDb2dVertex
 10
1725.699127068
 20
772.6411094124
 30
0.0
  0
VERTEX
  5
50C
330
153
100
AcDbEntity
  8
0
  6
CONTINUOUS
 62
     7
100
AcDbVertex
100
AcDb2dVertex
 10
1722.572446217
 20
773.9148010666
 30
0.0
  0
VERTEX
  5
50D
330
153
100
AcDbEntity
  8
0
  6
CONTINUOUS
 62
     7
100
AcDbVertex
100
AcDb2dVertex
 10
1719.3811837334
 20
774.8721112663
 30
0.0
  0
VERTEX
  5
50E
330
153
100
AcDbEntity
  8
0
  6
CONTINUOUS
 62
     7
100
AcDbVertex
100
AcDb2dVertex
 10
1716.1478105682
 20
775.5104770119
 30
0.0
  0
VERTEX
  5
50F
330
153
100
AcDbEntity
  8
0
  6
CONTINUOUS
 62
     7
100
AcDbVertex
100
AcDb2dVertex
 10
1713.0075398583
 20
775.8236398155
 30
0.0
  0
SEQEND
  5
826
330
153
100
AcDbEntity
  8
0
  6
CONTINUOUS
 62
     7
  0
POLYLINE
  5
154
330
1F
100
AcDbEntity
  8
0
  6
CONTINUOUS
 62
     7
100
AcDb2dPolyline
 66
     1
 10
0.0
 20
0.0
 30
0.0
 70
   128
  0
VERTEX
  5
510
330
154
100
AcDbEntity
  8
0
  6
CONTINUOUS
 62
     7
100
AcDbVertex
100
AcDb2dVertex
 10
1711.9608226914
 20
755.8510770256
 30
0.0
  0
VERTEX
  5
511
330
154
100
AcDbEntity
  8
0
  6
CONTINUOUS
 62
     7
100
AcDbVertex
100
AcDb2dVertex
 10
1712.782323708
 20
755.7828297073
 30
0.0
  0
VERTEX
  5
512
330
154
100
AcDbEntity
  8
0
  6
CONTINUOUS
 62
     7
100
AcDbVertex
100
AcDb2dVertex
 10
1714.8415151733
 20
755.3891410286
 30
0.0
  0
VERTEX
  5
513
330
154
100
AcDbEntity
  8
0
  6
CONTINUOUS
 62
     7
100
AcDbVertex
100
AcDb2dVertex
 10
1716.8670300144
 20
754.6834816391
 30
0.0
  0
VERTEX
  5
514
330
154
100
AcDbEntity
  8
0
  6
CONTINUOUS
 62
     7
100
AcDbVertex
100
AcDb2dVertex
 10
1718.8168171543
 20
753.6895741875
 30
0.0
  0
VERTEX
  5
515
330
154
100
AcDbEntity
  8
0
  6
CONTINUOUS
 62
     7
100
AcDbVertex
100
AcDb2dVertex
 10
1720.6779125828
 20
752.4272074158
 30
0.0
  0
VERTEX
  5
516
330
154
100
AcDbEntity
  8
0
  6
CONTINUOUS
 62
     7
100
AcDbVertex
100
AcDb2dVertex
 10
1722.4433723587
 20
750.9097923691
 30
0.0
  0
VERTEX
  5
517
330
154
100
AcDbEntity
  8
0
  6
CONTINUOUS
 62
     7
100
AcDbVertex
100
AcDb2dVertex
 10
1724.1036895413
 20
749.1482366974
 30
0.0
  0
VERTEX
  5
518
330
154
100
AcDbEntity
  8
0
  6
CONTINUOUS
 62
     7
100
AcDbVertex
100
AcDb2dVertex
 10
1725.6454828877
 20
747.1545805389
 30
0.0
  0
VERTEX
  5
519
330
154
100
AcDbEntity
  8
0
  6
CONTINUOUS
 62
     7
100
AcDbVertex
100
AcDb2dVertex
 10
1727.0529273647
 20
744.9437846596
 30
0.0
  0
VERTEX
  5
51A
330
154
100
AcDbEntity
  8
0
  6
CONTINUOUS
 62
     7
100
AcDbVertex
100
AcDb2dVertex
 10
1728.3090952534
 20
742.5342668945
 30
0.0
  0
VERTEX
  5
51B
330
154
100
AcDbEntity
  8
0
  6
CONTINUOUS
 62
     7
100
AcDbVertex
100
AcDb2dVertex
 10
1729.3975356716
 20
739.948140567
 30
0.0
  0
VERTEX
  5
51C
330
154
100
AcDbEntity
  8
0
  6
CONTINUOUS
 62
     7
100
AcDbVertex
100
AcDb2dVertex
 10
1730.3031686443
 20
737.2107376511
 30
0.0
  0
VERTEX
  5
51D
330
154
100
AcDbEntity
  8
0
  6
CONTINUOUS
 62
     7
100
AcDbVertex
100
AcDb2dVertex
 10
1731.0127023357
 20
734.3507875855
 30
0.0
  0
VERTEX
  5
51E
330
154
100
AcDbEntity
  8
0
  6
CONTINUOUS
 62
     7
100
AcDbVertex
100
AcDb2dVertex
 10
1731.5160635609
 20
731.3983311111
 30
0.0
  0
VERTEX
  5
51F
330
154
100
AcDbEntity
  8
0
  6
CONTINUOUS
 62
     7
100
AcDbVertex
100
AcDb2dVertex
 10
1731.7117456097
 20
729.6418418343
 30
0.0
  0
SEQEND
  5
827
330
154
100
AcDbEntity
  8
0
  6
CONTINUOUS
 62
     7
  0
LINE
  5
155
330
1F
100
AcDbEntity
  8
0
  6
CONTINUOUS
 62
     7
100
AcDbLine
 10
1656.5970483917
 20
758.7525715286
 30
0.0
 11
1711.9608226914
 21
755.8510770256
 31
0.0
  0
LINE
  5
156
330
1F
100
AcDbEntity
  8
0
  6
CONTINUOUS
 62
     7
100
AcDbLine
 10
1608.9117828507
 20
761.2516154701
 30
0.0
 11
1652.8066996235
 21
758.951174205
 31
0.0
  0
LINE
  5
157
330
1F
100
AcDbEntity
  8
0
  6
CONTINUOUS
 62
     7
100
AcDbLine
 10
1653.867334475
 20
778.9230813438
 30
0.0
 11
1609.9585000176
 21
781.2242378647
 31
0.0
  0
LINE
  5
158
330
1F
100
AcDbEntity
  8
0
  6
CONTINUOUS
 62
     7
100
AcDbLine
 10
1713.0075398583
 20
775.8236398155
 30
0.0
 11
1657.6484743256
 21
778.7248959
 31
0.0
  0
LINE
  5
159
330
1F
100
AcDbEntity
  8
0
  6
CONTINUOUS
 62
     7
100
AcDbLine
 10
1363.445937981
 20
774.1159667427
 30
0.0
 11
1408.7774459023
 21
771.7402448113
 31
0.0
  0
LINE
  5
15A
330
1F
100
AcDbEntity
  8
0
  6
CONTINUOUS
 62
     7
100
AcDbLine
 10
1338.2576260466
 20
775.4360308106
 30
0.0
 11
1360.2659556765
 21
774.2826213295
 31
0.0
  0
LINE
  5
15B
330
1F
100
AcDbEntity
  8
0
  6
CONTINUOUS
 62
     7
100
AcDbLine
 10
1361.319572081
 20
794.2548264916
 30
0.0
 11
1339.3043506641
 21
795.4085936005
 31
0.0
  0
LINE
  5
15C
330
1F
100
AcDbEntity
  8
0
  6
CONTINUOUS
 62
     7
100
AcDbLine
 10
1409.8241630692
 20
791.7128076012
 30
0.0
 11
1364.5073327917
 21
794.0877546722
 31
0.0
  0
LINE
  5
15D
330
1F
100
AcDbEntity
  8
0
  6
CONTINUOUS
 62
     7
100
AcDbLine
 10
1609.9585000176
 20
781.2242378647
 30
0.0
 11
1409.8241630692
 21
791.7128076012
 31
0.0
  0
LINE
  5
15E
330
1F
100
AcDbEntity
  8
0
  6
CONTINUOUS
 62
     7
100
AcDbLine
 10
1408.7774459023
 20
771.7402448113
 30
0.0
 11
1608.9117828507
 21
761.2516154701
 31
0.0
  0
LINE
  5
15F
330
1F
100
AcDbEntity
  8
0
  6
CONTINUOUS
 62
     7
100
AcDbLine
 10
1653.0845764774
 20
758.9366306717
 30
0.0
 11
1656.5970483917
 21
758.7525715286
 31
0.0
  0
LINE
  5
160
330
1F
100
AcDbEntity
  8
0
  6
CONTINUOUS
 62
     7
100
AcDbLine
 10
1657.6484743256
 20
778.7248959
 30
0.0
 11
1654.0737453598
 21
778.9122332985
 31
0.0
  0
ARC
  5
161
330
1F
100
AcDbEntity
  8
0
  6
CONTINUOUS
 62
     7
100
AcDbCircle
 10
1675.7276273212
 20
807.7858090206
 30
0.0
 40
29.96727728305927
100
AcDbArc
 50
266.943392081
 51
4.6175350947
  0
ARC
  5
162
330
1F
100
AcDbEntity
  8
0
  6
CONTINUOUS
 62
     7
100
AcDbCircle
 10
1675.8729969351
 20
807.7503575592
 30
0.0
 40
49.82528583139933
100
AcDbArc
 50
319.9962185753
 51
4.6932422203
  0
LINE
  5
163
330
1F
100
AcDbEntity
  8
0
  6
CONTINUOUS
 62
     7
100
AcDbLine
 10
1725.5312207836
 20
811.8271102364
 30
0.0
 11
1713.4195271629
 21
960.0531925613
 31
0.0
  0
LINE
  5
164
330
1F
100
AcDbEntity
  8
0
  6
CONTINUOUS
 62
     7
100
AcDbLine
 10
1693.485975613
 20
958.4243764336
 30
0.0
 11
1705.5976394314
 21
810.1982941086
 31
0.0
  0
ARC
  5
165
330
1F
100
AcDbEntity
  8
0
  6
CONTINUOUS
 62
     7
100
AcDbCircle
 10
1743.2145943417
 20
962.4882432695
 30
0.0
 40
49.89439381654499
100
AcDbArc
 50
167.0011541421
 51
184.6718803067
  0
ARC
  5
166
330
1F
100
AcDbEntity
  8
0
  6
CONTINUOUS
 62
     7
100
AcDbCircle
 10
1743.2132220455
 20
962.4883706814
 30
0.0
 40
29.89304847673747
100
AcDbArc
 50
167.0015759962
 51
184.6726653444
  0
LINE
  5
167
330
1F
100
AcDbEntity
  8
0
  6
CONTINUOUS
 62
     7
100
AcDbLine
 10
1725.3076437611
 20
1017.8176035339
 30
0.0
 11
1731.4844134945
 21
1044.5721616203
 31
0.0
  0
LINE
  5
168
330
1F
100
AcDbEntity
  8
0
  6
CONTINUOUS
 62
     7
100
AcDbLine
 10
1714.0861455101
 20
969.2120422775
 30
0.0
 11
1724.1920236248
 21
1012.9855145866
 31
0.0
  0
LINE
  5
169
330
1F
100
AcDbEntity
  8
0
  6
CONTINUOUS
 62
     7
100
AcDbLine
 10
1704.704612841
 20
1017.4844135696
 30
0.0
 11
1694.5987645287
 21
973.7110604698
 31
0.0
  0
LINE
  5
16A
330
1F
100
AcDbEntity
  8
0
  6
CONTINUOUS
 62
     7
100
AcDbLine
 10
1711.9970027107
 20
1049.0711798126
 30
0.0
 11
1705.8126035828
 21
1022.283600753
 31
0.0
  0
POLYLINE
  5
16B
330
1F
100
AcDbEntity
  8
0
  6
CONTINUOUS
 62
     7
100
AcDb2dPolyline
 66
     1
 10
0.0
 20
0.0
 30
0.0
 70
   128
  0
VERTEX
  5
520
330
16B
100
AcDbEntity
  8
0
  6
CONTINUOUS
 62
     7
100
AcDbVertex
100
AcDb2dVertex
 10
1720.4999629158
 20
1085.9015454704
 30
0.0
  0
VERTEX
  5
521
330
16B
100
AcDbEntity
  8
0
  6
CONTINUOUS
 62
     7
100
AcDbVertex
100
AcDb2dVertex
 10
1720.4596105713
 20
1085.726784652
 30
0.0
  0
VERTEX
  5
522
330
16B
100
AcDbEntity
  8
0
  6
CONTINUOUS
 62
     7
100
AcDbVertex
100
AcDb2dVertex
 10
1720.338940968
 20
1085.2040519173
 30
0.0
  0
VERTEX
  5
523
330
16B
100
AcDbEntity
  8
0
  6
CONTINUOUS
 62
     7
100
AcDbVertex
100
AcDb2dVertex
 10
1720.1389971871
 20
1084.338115638
 30
0.0
  0
VERTEX
  5
524
330
16B
100
AcDbEntity
  8
0
  6
CONTINUOUS
 62
     7
100
AcDbVertex
100
AcDb2dVertex
 10
1719.8616269726
 20
1083.1366052086
 30
0.0
  0
VERTEX
  5
525
330
16B
100
AcDbEntity
  8
0
  6
CONTINUOUS
 62
     7
100
AcDbVertex
100
AcDb2dVertex
 10
1719.509274115
 20
1081.6104282791
 30
0.0
  0
VERTEX
  5
526
330
16B
100
AcDbEntity
  8
0
  6
CONTINUOUS
 62
     7
100
AcDbVertex
100
AcDb2dVertex
 10
1719.0851274628
 20
1079.7731747086
 30
0.0
  0
VERTEX
  5
527
330
16B
100
AcDbEntity
  8
0
  6
CONTINUOUS
 62
     7
100
AcDbVertex
100
AcDb2dVertex
 10
1718.5929421085
 20
1077.6413549835
 30
0.0
  0
VERTEX
  5
528
330
16B
100
AcDbEntity
  8
0
  6
CONTINUOUS
 62
     7
100
AcDbVertex
100
AcDb2dVertex
 10
1718.0371884007
 20
1075.234102195
 30
0.0
  0
VERTEX
  5
529
330
16B
100
AcDbEntity
  8
0
  6
CONTINUOUS
 62
     7
100
AcDbVertex
100
AcDb2dVertex
 10
1717.4228135246
 20
1072.5729932243
 30
0.0
  0
VERTEX
  5
52A
330
16B
100
AcDbEntity
  8
0
  6
CONTINUOUS
 62
     7
100
AcDbVertex
100
AcDb2dVertex
 10
1716.7553607124
 20
1069.6819295342
 30
0.0
  0
VERTEX
  5
52B
330
16B
100
AcDbEntity
  8
0
  6
CONTINUOUS
 62
     7
100
AcDbVertex
100
AcDb2dVertex
 10
1716.0407904286
 20
1066.5867199356
 30
0.0
  0
VERTEX
  5
52C
330
16B
100
AcDbEntity
  8
0
  6
CONTINUOUS
 62
     7
100
AcDbVertex
100
AcDb2dVertex
 10
1715.2855101723
 20
1063.3152594025
 30
0.0
  0
VERTEX
  5
52D
330
16B
100
AcDbEntity
  8
0
  6
CONTINUOUS
 62
     7
100
AcDbVertex
100
AcDb2dVertex
 10
1714.4963148731
 20
1059.8968138153
 30
0.0
  0
VERTEX
  5
52E
330
16B
100
AcDbEntity
  8
0
  6
CONTINUOUS
 62
     7
100
AcDbVertex
100
AcDb2dVertex
 10
1713.6802378792
 20
1056.3620795662
 30
0.0
  0
VERTEX
  5
52F
330
16B
100
AcDbEntity
  8
0
  6
CONTINUOUS
 62
     7
100
AcDbVertex
100
AcDb2dVertex
 10
1712.8446403641
 20
1052.7427067215
 30
0.0
  0
VERTEX
  5
530
330
16B
100
AcDbEntity
  8
0
  6
CONTINUOUS
 62
     7
100
AcDbVertex
100
AcDb2dVertex
 10
1711.9970027107
 20
1049.0711798126
 30
0.0
  0
SEQEND
  5
828
330
16B
100
AcDbEntity
  8
0
  6
CONTINUOUS
 62
     7
  0
POLYLINE
  5
16C
330
1F
100
AcDbEntity
  8
0
  6
CONTINUOUS
 62
     7
100
AcDb2dPolyline
 66
     1
 10
0.0
 20
0.0
 30
0.0
 70
   128
  0
VERTEX
  5
531
330
16C
100
AcDbEntity
  8
0
  6
CONTINUOUS
 62
     7
100
AcDbVertex
100
AcDb2dVertex
 10
1731.4844134945
 20
1044.5721616203
 30
0.0
  0
VERTEX
  5
532
330
16C
100
AcDbEntity
  8
0
  6
CONTINUOUS
 62
     7
100
AcDbVertex
100
AcDb2dVertex
 10
1732.3320511479
 20
1048.2436885292
 30
0.0
  0
VERTEX
  5
533
330
16C
100
AcDbEntity
  8
0
  6
CONTINUOUS
 62
     7
100
AcDbVertex
100
AcDb2dVertex
 10
1733.167648663
 20
1051.8630613739
 30
0.0
  0
VERTEX
  5
534
330
16C
100
AcDbEntity
  8
0
  6
CONTINUOUS
 62
     7
100
AcDbVertex
100
AcDb2dVertex
 10
1733.9836958546
 20
1055.397795623
 30
0.0
  0
VERTEX
  5
535
330
16C
100
AcDbEntity
  8
0
  6
CONTINUOUS
 62
     7
100
AcDbVertex
100
AcDb2dVertex
 10
1734.772920956
 20
1058.8162412102
 30
0.0
  0
VERTEX
  5
536
330
16C
100
AcDbEntity
  8
0
  6
CONTINUOUS
 62
     7
100
AcDbVertex
100
AcDb2dVertex
 10
1735.52817141
 20
1062.0877017433
 30
0.0
  0
VERTEX
  5
537
330
16C
100
AcDbEntity
  8
0
  6
CONTINUOUS
 62
     7
100
AcDbVertex
100
AcDb2dVertex
 10
1736.2427714962
 20
1065.1829113419
 30
0.0
  0
VERTEX
  5
538
330
16C
100
AcDbEntity
  8
0
  6
CONTINUOUS
 62
     7
100
AcDbVertex
100
AcDb2dVertex
 10
1736.9102243084
 20
1068.073975032
 30
0.0
  0
VERTEX
  5
539
330
16C
100
AcDbEntity
  8
0
  6
CONTINUOUS
 62
     7
100
AcDbVertex
100
AcDb2dVertex
 10
1737.5245693821
 20
1070.7350840027
 30
0.0
  0
VERTEX
  5
53A
330
16C
100
AcDbEntity
  8
0
  6
CONTINUOUS
 62
     7
100
AcDbVertex
100
AcDb2dVertex
 10
1738.08032309
 20
1073.1423367912
 30
0.0
  0
VERTEX
  5
53B
330
16C
100
AcDbEntity
  8
0
  6
CONTINUOUS
 62
     7
100
AcDbVertex
100
AcDb2dVertex
 10
1738.5725382465
 20
1075.2741565163
 30
0.0
  0
VERTEX
  5
53C
330
16C
100
AcDbEntity
  8
0
  6
CONTINUOUS
 62
     7
100
AcDbVertex
100
AcDb2dVertex
 10
1738.9966848988
 20
1077.1114100868
 30
0.0
  0
VERTEX
  5
53D
330
16C
100
AcDbEntity
  8
0
  6
CONTINUOUS
 62
     7
100
AcDbVertex
100
AcDb2dVertex
 10
1739.349007954
 20
1078.6375870163
 30
0.0
  0
VERTEX
  5
53E
330
16C
100
AcDbEntity
  8
0
  6
CONTINUOUS
 62
     7
100
AcDbVertex
100
AcDb2dVertex
 10
1739.6264079708
 20
1079.839037841
 30
0.0
  0
VERTEX
  5
53F
330
16C
100
AcDbEntity
  8
0
  6
CONTINUOUS
 62
     7
100
AcDbVertex
100
AcDb2dVertex
 10
1739.8263219494
 20
1080.705033725
 30
0.0
  0
VERTEX
  5
540
330
16C
100
AcDbEntity
  8
0
  6
CONTINUOUS
 62
     7
100
AcDbVertex
100
AcDb2dVertex
 10
1739.9470213551
 20
1081.2277664597
 30
0.0
  0
VERTEX
  5
541
330
16C
100
AcDbEntity
  8
0
  6
CONTINUOUS
 62
     7
100
AcDbVertex
100
AcDb2dVertex
 10
1739.9873736996
 20
1081.4025272781
 30
0.0
  0
SEQEND
  5
829
330
16C
100
AcDbEntity
  8
0
  6
CONTINUOUS
 62
     7
  0
LINE
  5
16D
330
1F
100
AcDbEntity
  8
0
  6
CONTINUOUS
 62
     7
100
AcDbLine
 10
1740.2436736721
 20
1083.9090814049
 30
0.0
 11
1740.240335812
 21
1083.9098562653
 31
0.0
  0
POLYLINE
  5
16E
330
1F
100
AcDbEntity
  8
0
  6
CONTINUOUS
 62
     7
100
AcDb2dPolyline
 66
     1
 10
0.0
 20
0.0
 30
0.0
 70
   128
  0
VERTEX
  5
542
330
16E
100
AcDbEntity
  8
0
  6
CONTINUOUS
 62
     7
100
AcDbVertex
100
AcDb2dVertex
 10
1714.6040800709
 20
1131.089614814
 30
0.0
  0
VERTEX
  5
543
330
16E
100
AcDbEntity
  8
0
  6
CONTINUOUS
 62
     7
100
AcDbVertex
100
AcDb2dVertex
 10
1713.3776549
 20
1131.2627067024
 30
0.0
  0
VERTEX
  5
544
330
16E
100
AcDbEntity
  8
0
  6
CONTINUOUS
 62
     7
100
AcDbVertex
100
AcDb2dVertex
 10
1712.1040824551
 20
1131.1673392708
 30
0.0
  0
VERTEX
  5
545
330
16E
100
AcDbEntity
  8
0
  6
CONTINUOUS
 62
     7
100
AcDbVertex
100
AcDb2dVertex
 10
1710.9701636929
 20
1130.8544148857
 30
0.0
  0
VERTEX
  5
546
330
16E
100
AcDbEntity
  8
0
  6
CONTINUOUS
 62
     7
100
AcDbVertex
100
AcDb2dVertex
 10
1709.9927071232
 20
1130.3881873543
 30
0.0
  0
VERTEX
  5
547
330
16E
100
AcDbEntity
  8
0
  6
CONTINUOUS
 62
     7
100
AcDbVertex
100
AcDb2dVertex
 10
1709.1753188271
 20
1129.8275460655
 30
0.0
  0
VERTEX
  5
548
330
16E
100
AcDbEntity
  8
0
  6
CONTINUOUS
 62
     7
100
AcDbVertex
100
AcDb2dVertex
 10
1708.4985676903
 20
1129.2143334801
 30
0.0
  0
VERTEX
  5
549
330
16E
100
AcDbEntity
  8
0
  6
CONTINUOUS
 62
     7
100
AcDbVertex
100
AcDb2dVertex
 10
1707.9159918923
 20
1128.5497416908
 30
0.0
  0
VERTEX
  5
54A
330
16E
100
AcDbEntity
  8
0
  6
CONTINUOUS
 62
     7
100
AcDbVertex
100
AcDb2dVertex
 10
1707.3617581028
 20
1127.7747620995
 30
0.0
  0
VERTEX
  5
54B
330
16E
100
AcDbEntity
  8
0
  6
CONTINUOUS
 62
     7
100
AcDbVertex
100
AcDb2dVertex
 10
1706.7392471928
 20
1126.7172564919
 30
0.0
  0
VERTEX
  5
54C
330
16E
100
AcDbEntity
  8
0
  6
CONTINUOUS
 62
     7
100
AcDbVertex
100
AcDb2dVertex
 10
1705.8570984501
 20
1124.888109153
 30
0.0
  0
VERTEX
  5
54D
330
16E
100
AcDbEntity
  8
0
  6
CONTINUOUS
 62
     7
100
AcDbVertex
100
AcDb2dVertex
 10
1705.1748338837
 20
1123.244570678
 30
0.0
  0
VERTEX
  5
54E
330
16E
100
AcDbEntity
  8
0
  6
CONTINUOUS
 62
     7
100
AcDbVertex
100
AcDb2dVertex
 10
1704.4328752655
 20
1121.2633122856
 30
0.0
  0
VERTEX
  5
54F
330
16E
100
AcDbEntity
  8
0
  6
CONTINUOUS
 62
     7
100
AcDbVertex
100
AcDb2dVertex
 10
1703.6961022514
 20
1119.1206445152
 30
0.0
  0
VERTEX
  5
550
330
16E
100
AcDbEntity
  8
0
  6
CONTINUOUS
 62
     7
100
AcDbVertex
100
AcDb2dVertex
 10
1702.9623094696
 20
1116.828607505
 30
0.0
  0
VERTEX
  5
551
330
16E
100
AcDbEntity
  8
0
  6
CONTINUOUS
 62
     7
100
AcDbVertex
100
AcDb2dVertex
 10
1702.2404078144
 20
1114.4228448326
 30
0.0
  0
VERTEX
  5
552
330
16E
100
AcDbEntity
  8
0
  6
CONTINUOUS
 62
     7
100
AcDbVertex
100
AcDb2dVertex
 10
1701.5223208565
 20
1111.8834485466
 30
0.0
  0
VERTEX
  5
553
330
16E
100
AcDbEntity
  8
0
  6
CONTINUOUS
 62
     7
100
AcDbVertex
100
AcDb2dVertex
 10
1700.8146945137
 20
1109.2335452492
 30
0.0
  0
VERTEX
  5
554
330
16E
100
AcDbEntity
  8
0
  6
CONTINUOUS
 62
     7
100
AcDbVertex
100
AcDb2dVertex
 10
1700.1324299473
 20
1106.5263022835
 30
0.0
  0
VERTEX
  5
555
330
16E
100
AcDbEntity
  8
0
  6
CONTINUOUS
 62
     7
100
AcDbVertex
100
AcDb2dVertex
 10
1699.4862559933
 20
1103.8089265282
 30
0.0
  0
SEQEND
  5
82A
330
16E
100
AcDbEntity
  8
0
  6
CONTINUOUS
 62
     7
  0
POLYLINE
  5
16F
330
1F
100
AcDbEntity
  8
0
  6
CONTINUOUS
 62
     7
100
AcDb2dPolyline
 66
     1
 10
0.0
 20
0.0
 30
0.0
 70
   128
  0
VERTEX
  5
556
330
16F
100
AcDbEntity
  8
0
  6
CONTINUOUS
 62
     7
100
AcDbVertex
100
AcDb2dVertex
 10
1674.7432950634
 20
996.6258873398
 30
0.0
  0
VERTEX
  5
557
330
16F
100
AcDbEntity
  8
0
  6
CONTINUOUS
 62
     7
100
AcDbVertex
100
AcDb2dVertex
 10
1674.2122474808
 20
994.2738880569
 30
0.0
  0
VERTEX
  5
558
330
16F
100
AcDbEntity
  8
0
  6
CONTINUOUS
 62
     7
100
AcDbVertex
100
AcDb2dVertex
 10
1673.6364368099
 20
991.5559758598
 30
0.0
  0
VERTEX
  5
559
330
16F
100
AcDbEntity
  8
0
  6
CONTINUOUS
 62
     7
100
AcDbVertex
100
AcDb2dVertex
 10
1673.1051508087
 20
988.8675083572
 30
0.0
  0
VERTEX
  5
55A
330
16F
100
AcDbEntity
  8
0
  6
CONTINUOUS
 62
     7
100
AcDbVertex
100
AcDb2dVertex
 10
1672.6326051849
 20
986.2763752396
 30
0.0
  0
VERTEX
  5
55B
330
16F
100
AcDbEntity
  8
0
  6
CONTINUOUS
 62
     7
100
AcDbVertex
100
AcDb2dVertex
 10
1672.221243729
 20
983.8036765511
 30
0.0
  0
VERTEX
  5
55C
330
16F
100
AcDbEntity
  8
0
  6
CONTINUOUS
 62
     7
100
AcDbVertex
100
AcDb2dVertex
 10
1671.8704107899
 20
981.4430941994
 30
0.0
  0
VERTEX
  5
55D
330
16F
100
AcDbEntity
  8
0
  6
CONTINUOUS
 62
     7
100
AcDbVertex
100
AcDb2dVertex
 10
1671.588838448
 20
979.2385568077
 30
0.0
  0
VERTEX
  5
55E
330
16F
100
AcDbEntity
  8
0
  6
CONTINUOUS
 62
     7
100
AcDbVertex
100
AcDb2dVertex
 10
1671.3812652725
 20
977.2252907211
 30
0.0
  0
VERTEX
  5
55F
330
16F
100
AcDbEntity
  8
0
  6
CONTINUOUS
 62
     7
100
AcDbVertex
100
AcDb2dVertex
 10
1671.2472442288
 20
975.3493537361
 30
0.0
  0
VERTEX
  5
560
330
16F
100
AcDbEntity
  8
0
  6
CONTINUOUS
 62
     7
100
AcDbVertex
100
AcDb2dVertex
 10
1671.2024215359
 20
973.5884537155
 30
0.0
  0
VERTEX
  5
561
330
16F
100
AcDbEntity
  8
0
  6
CONTINUOUS
 62
     7
100
AcDbVertex
100
AcDb2dVertex
 10
1671.2913516659
 20
971.827374881
 30
0.0
  0
VERTEX
  5
562
330
16F
100
AcDbEntity
  8
0
  6
CONTINUOUS
 62
     7
100
AcDbVertex
100
AcDb2dVertex
 10
1671.4922491211
 20
970.599459594
 30
0.0
  0
VERTEX
  5
563
330
16F
100
AcDbEntity
  8
0
  6
CONTINUOUS
 62
     7
100
AcDbVertex
100
AcDb2dVertex
 10
1671.7507246632
 20
969.7019924576
 30
0.0
  0
VERTEX
  5
564
330
16F
100
AcDbEntity
  8
0
  6
CONTINUOUS
 62
     7
100
AcDbVertex
100
AcDb2dVertex
 10
1672.1538606781
 20
968.7698354179
 30
0.0
  0
VERTEX
  5
565
330
16F
100
AcDbEntity
  8
0
  6
CONTINUOUS
 62
     7
100
AcDbVertex
100
AcDb2dVertex
 10
1672.749549498
 20
967.8246249611
 30
0.0
  0
VERTEX
  5
566
330
16F
100
AcDbEntity
  8
0
  6
CONTINUOUS
 62
     7
100
AcDbVertex
100
AcDb2dVertex
 10
1673.5672656197
 20
966.9292439873
 30
0.0
  0
VERTEX
  5
567
330
16F
100
AcDbEntity
  8
0
  6
CONTINUOUS
 62
     7
100
AcDbVertex
100
AcDb2dVertex
 10
1674.5961013931
 20
966.1711325104
 30
0.0
  0
VERTEX
  5
568
330
16F
100
AcDbEntity
  8
0
  6
CONTINUOUS
 62
     7
100
AcDbVertex
100
AcDb2dVertex
 10
1675.7927838463
 20
965.6247367317
 30
0.0
  0
VERTEX
  5
569
330
16F
100
AcDbEntity
  8
0
  6
CONTINUOUS
 62
     7
100
AcDbVertex
100
AcDb2dVertex
 10
1676.3763729233
 20
965.5034412796
 30
0.0
  0
SEQEND
  5
82B
330
16F
100
AcDbEntity
  8
0
  6
CONTINUOUS
 62
     7
  0
LINE
  5
170
330
1F
100
AcDbEntity
  8
0
  6
CONTINUOUS
 62
     7
100
AcDbLine
 10
1699.4858387608
 20
1103.8078536446
 30
0.0
 11
1674.7412387032
 21
996.6271390373
 31
0.0
  0
POLYLINE
  5
171
330
1F
100
AcDbEntity
  8
0
  6
CONTINUOUS
 62
     7
100
AcDb2dPolyline
 66
     1
 10
0.0
 20
0.0
 30
0.0
 70
   128
  0
VERTEX
  5
56A
330
171
100
AcDbEntity
  8
0
  6
CONTINUOUS
 62
     7
100
AcDbVertex
100
AcDb2dVertex
 10
1313.0293417472
 20
370.7016875202
 30
0.0
  0
VERTEX
  5
56B
330
171
100
AcDbEntity
  8
0
  6
CONTINUOUS
 62
     7
100
AcDbVertex
100
AcDb2dVertex
 10
1308.9675534267
 20
370.914565509
 30
0.0
  0
VERTEX
  5
56C
330
171
100
AcDbEntity
  8
0
  6
CONTINUOUS
 62
     7
100
AcDbVertex
100
AcDb2dVertex
 10
1304.9045655626
 20
371.1274733002
 30
0.0
  0
VERTEX
  5
56D
330
171
100
AcDbEntity
  8
0
  6
CONTINUOUS
 62
     7
100
AcDbVertex
100
AcDb2dVertex
 10
1300.8751872677
 20
371.3386525566
 30
0.0
  0
VERTEX
  5
56E
330
171
100
AcDbEntity
  8
0
  6
CONTINUOUS
 62
     7
100
AcDbVertex
100
AcDb2dVertex
 10
1296.9139370817
 20
371.5462555344
 30
0.0
  0
VERTEX
  5
56F
330
171
100
AcDbEntity
  8
0
  6
CONTINUOUS
 62
     7
100
AcDbVertex
100
AcDb2dVertex
 10
1293.0547523994
 20
371.7484940941
 30
0.0
  0
VERTEX
  5
570
330
171
100
AcDbEntity
  8
0
  6
CONTINUOUS
 62
     7
100
AcDbVertex
100
AcDb2dVertex
 10
1289.3306765455
 20
371.9436695034
 30
0.0
  0
VERTEX
  5
571
330
171
100
AcDbEntity
  8
0
  6
CONTINUOUS
 62
     7
100
AcDbVertex
100
AcDb2dVertex
 10
1285.773620357
 20
372.1300830299
 30
0.0
  0
VERTEX
  5
572
330
171
100
AcDbEntity
  8
0
  6
CONTINUOUS
 62
     7
100
AcDbVertex
100
AcDb2dVertex
 10
1282.414052983
 20
372.3061551506
 30
0.0
  0
VERTEX
  5
573
330
171
100
AcDbEntity
  8
0
  6
CONTINUOUS
 62
     7
100
AcDbVertex
100
AcDb2dVertex
 10
1279.2807485658
 20
372.470365947
 30
0.0
  0
VERTEX
  5
574
330
171
100
AcDbEntity
  8
0
  6
CONTINUOUS
 62
     7
100
AcDbVertex
100
AcDb2dVertex
 10
1276.4005552727
 20
372.6213147099
 30
0.0
  0
VERTEX
  5
575
330
171
100
AcDbEntity
  8
0
  6
CONTINUOUS
 62
     7
100
AcDbVertex
100
AcDb2dVertex
 10
1273.7981382507
 20
372.7576901371
 30
0.0
  0
VERTEX
  5
576
330
171
100
AcDbEntity
  8
0
  6
CONTINUOUS
 62
     7
100
AcDbVertex
100
AcDb2dVertex
 10
1271.4957933623
 20
372.8783597405
 30
0.0
  0
VERTEX
  5
577
330
171
100
AcDbEntity
  8
0
  6
CONTINUOUS
 62
     7
100
AcDbVertex
100
AcDb2dVertex
 10
1269.5132385689
 20
372.9822506363
 30
0.0
  0
VERTEX
  5
578
330
171
100
AcDbEntity
  8
0
  6
CONTINUOUS
 62
     7
100
AcDbVertex
100
AcDb2dVertex
 10
1267.8674649197
 20
373.0685283596
 30
0.0
  0
VERTEX
  5
579
330
171
100
AcDbEntity
  8
0
  6
CONTINUOUS
 62
     7
100
AcDbVertex
100
AcDb2dVertex
 10
1266.5725614626
 20
373.1363882477
 30
0.0
  0
VERTEX
  5
57A
330
171
100
AcDbEntity
  8
0
  6
CONTINUOUS
 62
     7
100
AcDbVertex
100
AcDb2dVertex
 10
1265.6396295625
 20
373.1852640564
 30
0.0
  0
VERTEX
  5
57B
330
171
100
AcDbEntity
  8
0
  6
CONTINUOUS
 62
     7
100
AcDbVertex
100
AcDb2dVertex
 10
1265.0766525168
 20
373.2147683556
 30
0.0
  0
VERTEX
  5
57C
330
171
100
AcDbEntity
  8
0
  6
CONTINUOUS
 62
     7
100
AcDbVertex
100
AcDb2dVertex
 10
1264.8884545762
 20
373.2246329243
 30
0.0
  0
SEQEND
  5
82C
330
171
100
AcDbEntity
  8
0
  6
CONTINUOUS
 62
     7
  0
POLYLINE
  5
172
330
1F
100
AcDbEntity
  8
0
  6
CONTINUOUS
 62
     7
100
AcDb2dPolyline
 66
     1
 10
0.0
 20
0.0
 30
0.0
 70
   128
  0
VERTEX
  5
57D
330
172
100
AcDbEntity
  8
0
  6
CONTINUOUS
 62
     7
100
AcDbVertex
100
AcDb2dVertex
 10
1263.8417374093
 20
353.252040332
 30
0.0
  0
VERTEX
  5
57E
330
172
100
AcDbEntity
  8
0
  6
CONTINUOUS
 62
     7
100
AcDbVertex
100
AcDb2dVertex
 10
1264.0299316246
 20
353.2421757633
 30
0.0
  0
VERTEX
  5
57F
330
172
100
AcDbEntity
  8
0
  6
CONTINUOUS
 62
     7
100
AcDbVertex
100
AcDb2dVertex
 10
1264.5929086703
 20
353.2126714642
 30
0.0
  0
VERTEX
  5
580
330
172
100
AcDbEntity
  8
0
  6
CONTINUOUS
 62
     7
100
AcDbVertex
100
AcDb2dVertex
 10
1265.5258442957
 20
353.1637956554
 30
0.0
  0
VERTEX
  5
581
330
172
100
AcDbEntity
  8
0
  6
CONTINUOUS
 62
     7
100
AcDbVertex
100
AcDb2dVertex
 10
1266.8207440275
 20
353.0959357674
 30
0.0
  0
VERTEX
  5
582
330
172
100
AcDbEntity
  8
0
  6
CONTINUOUS
 62
     7
100
AcDbVertex
100
AcDb2dVertex
 10
1268.466521402
 20
353.0096878464
 30
0.0
  0
VERTEX
  5
583
330
172
100
AcDbEntity
  8
0
  6
CONTINUOUS
 62
     7
100
AcDbVertex
100
AcDb2dVertex
 10
1270.4490724701
 20
352.9057671482
 30
0.0
  0
VERTEX
  5
584
330
172
100
AcDbEntity
  8
0
  6
CONTINUOUS
 62
     7
100
AcDbVertex
100
AcDb2dVertex
 10
1272.7514173586
 20
352.7850975449
 30
0.0
  0
VERTEX
  5
585
330
172
100
AcDbEntity
  8
0
  6
CONTINUOUS
 62
     7
100
AcDbVertex
100
AcDb2dVertex
 10
1275.3538343805
 20
352.6487221176
 30
0.0
  0
VERTEX
  5
586
330
172
100
AcDbEntity
  8
0
  6
CONTINUOUS
 62
     7
100
AcDbVertex
100
AcDb2dVertex
 10
1278.2340313989
 20
352.4977733547
 30
0.0
  0
VERTEX
  5
587
330
172
100
AcDbEntity
  8
0
  6
CONTINUOUS
 62
     7
100
AcDbVertex
100
AcDb2dVertex
 10
1281.3673320908
 20
352.3335625584
 30
0.0
  0
VERTEX
  5
588
330
172
100
AcDbEntity
  8
0
  6
CONTINUOUS
 62
     7
100
AcDbVertex
100
AcDb2dVertex
 10
1284.7268994648
 20
352.1574904377
 30
0.0
  0
VERTEX
  5
589
330
172
100
AcDbEntity
  8
0
  6
CONTINUOUS
 62
     7
100
AcDbVertex
100
AcDb2dVertex
 10
1288.2839593786
 20
351.9710769112
 30
0.0
  0
VERTEX
  5
58A
330
172
100
AcDbEntity
  8
0
  6
CONTINUOUS
 62
     7
100
AcDbVertex
100
AcDb2dVertex
 10
1292.0080277819
 20
351.7759015019
 30
0.0
  0
VERTEX
  5
58B
330
172
100
AcDbEntity
  8
0
  6
CONTINUOUS
 62
     7
100
AcDbVertex
100
AcDb2dVertex
 10
1295.8672199148
 20
351.5736629421
 30
0.0
  0
VERTEX
  5
58C
330
172
100
AcDbEntity
  8
0
  6
CONTINUOUS
 62
     7
100
AcDbVertex
100
AcDb2dVertex
 10
1299.8284701008
 20
351.3660599644
 30
0.0
  0
VERTEX
  5
58D
330
172
100
AcDbEntity
  8
0
  6
CONTINUOUS
 62
     7
100
AcDbVertex
100
AcDb2dVertex
 10
1303.8578483957
 20
351.1548807079
 30
0.0
  0
VERTEX
  5
58E
330
172
100
AcDbEntity
  8
0
  6
CONTINUOUS
 62
     7
100
AcDbVertex
100
AcDb2dVertex
 10
1307.9208288092
 20
350.9419729168
 30
0.0
  0
VERTEX
  5
58F
330
172
100
AcDbEntity
  8
0
  6
CONTINUOUS
 62
     7
100
AcDbVertex
100
AcDb2dVertex
 10
1311.9826245803
 20
350.729094928
 30
0.0
  0
SEQEND
  5
82D
330
172
100
AcDbEntity
  8
0
  6
CONTINUOUS
 62
     7
  0
LINE
  5
173
330
1F
100
AcDbEntity
  8
0
  6
CONTINUOUS
 62
     7
100
AcDbLine
 10
1766.1419514317
 20
346.9550480301
 30
0.0
 11
1313.0293417472
 21
370.7016875202
 31
0.0
  0
LINE
  5
174
330
1F
100
AcDbEntity
  8
0
  6
CONTINUOUS
 62
     7
100
AcDbLine
 10
1311.9826245803
 20
350.729094928
 30
0.0
 11
1767.9523829121
 21
326.8327285702
 31
0.0
  0
POLYLINE
  5
175
330
1F
100
AcDbEntity
  8
0
  6
CONTINUOUS
 62
     7
100
AcDb2dPolyline
 66
     1
 10
0.0
 20
0.0
 30
0.0
 70
   128
  0
VERTEX
  5
590
330
175
100
AcDbEntity
  8
0
  6
CONTINUOUS
 62
     7
100
AcDbVertex
100
AcDb2dVertex
 10
1321.6477934021
 20
798.8373507912
 30
0.0
  0
VERTEX
  5
591
330
175
100
AcDbEntity
  8
0
  6
CONTINUOUS
 62
     7
100
AcDbVertex
100
AcDb2dVertex
 10
1318.0986944336
 20
799.0233768875
 30
0.0
  0
VERTEX
  5
592
330
175
100
AcDbEntity
  8
0
  6
CONTINUOUS
 62
     7
100
AcDbVertex
100
AcDb2dVertex
 10
1314.5884800452
 20
799.2073168213
 30
0.0
  0
VERTEX
  5
593
330
175
100
AcDbEntity
  8
0
  6
CONTINUOUS
 62
     7
100
AcDbVertex
100
AcDb2dVertex
 10
1311.155610134
 20
799.3872632439
 30
0.0
  0
VERTEX
  5
594
330
175
100
AcDbEntity
  8
0
  6
CONTINUOUS
 62
     7
100
AcDbVertex
100
AcDb2dVertex
 10
1307.8376952309
 20
799.5611299927
 30
0.0
  0
VERTEX
  5
595
330
175
100
AcDbEntity
  8
0
  6
CONTINUOUS
 62
     7
100
AcDbVertex
100
AcDb2dVertex
 10
1304.6710867185
 20
799.7270693237
 30
0.0
  0
VERTEX
  5
596
330
175
100
AcDbEntity
  8
0
  6
CONTINUOUS
 62
     7
100
AcDbVertex
100
AcDb2dVertex
 10
1301.6904819507
 20
799.8832930977
 30
0.0
  0
VERTEX
  5
597
330
175
100
AcDbEntity
  8
0
  6
CONTINUOUS
 62
     7
100
AcDbVertex
100
AcDb2dVertex
 10
1298.9285293717
 20
800.0280131752
 30
0.0
  0
VERTEX
  5
598
330
175
100
AcDbEntity
  8
0
  6
CONTINUOUS
 62
     7
100
AcDbVertex
100
AcDb2dVertex
 10
1296.4154932398
 20
800.1597394402
 30
0.0
  0
VERTEX
  5
599
330
175
100
AcDbEntity
  8
0
  6
CONTINUOUS
 62
     7
100
AcDbVertex
100
AcDb2dVertex
 10
1294.178910901
 20
800.2769817764
 30
0.0
  0
VERTEX
  5
59A
330
175
100
AcDbEntity
  8
0
  6
CONTINUOUS
 62
     7
100
AcDbVertex
100
AcDb2dVertex
 10
1292.2432798642
 20
800.3783692772
 30
0.0
  0
VERTEX
  5
59B
330
175
100
AcDbEntity
  8
0
  6
CONTINUOUS
 62
     7
100
AcDbVertex
100
AcDb2dVertex
 10
1290.6298119325
 20
800.4629482681
 30
0.0
  0
VERTEX
  5
59C
330
175
100
AcDbEntity
  8
0
  6
CONTINUOUS
 62
     7
100
AcDbVertex
100
AcDb2dVertex
 10
1289.3561873335
 20
800.5297054703
 30
0.0
  0
VERTEX
  5
59D
330
175
100
AcDbEntity
  8
0
  6
CONTINUOUS
 62
     7
100
AcDbVertex
100
AcDb2dVertex
 10
1288.4363535542
 20
800.5779256279
 30
0.0
  0
VERTEX
  5
59E
330
175
100
AcDbEntity
  8
0
  6
CONTINUOUS
 62
     7
100
AcDbVertex
100
AcDb2dVertex
 10
1287.88039123
 20
800.6070722992
 30
0.0
  0
VERTEX
  5
59F
330
175
100
AcDbEntity
  8
0
  6
CONTINUOUS
 62
     7
100
AcDbVertex
100
AcDb2dVertex
 10
1287.6943874854
 20
800.6167878563
 30
0.0
  0
SEQEND
  5
82E
330
175
100
AcDbEntity
  8
0
  6
CONTINUOUS
 62
     7
  0
ARC
  5
176
330
1F
100
AcDbEntity
  8
0
  6
CONTINUOUS
 62
     7
100
AcDbCircle
 10
1288.0084039583
 20
806.6085724286
 30
0.0
 40
5.999999999999976
100
AcDbArc
 50
177.0
 51
267.0
  0
LINE
  5
177
330
1F
100
AcDbEntity
  8
0
  6
CONTINUOUS
 62
     7
100
AcDbLine
 10
1282.016627838
 20
806.9226016457
 30
0.0
 11
1282.424729665
 21
814.7096504623
 31
0.0
  0
POLYLINE
  5
178
330
1F
100
AcDbEntity
  8
0
  6
CONTINUOUS
 62
     7
100
AcDb2dPolyline
 66
     1
 10
0.0
 20
0.0
 30
0.0
 70
   128
  0
VERTEX
  5
5A0
330
178
100
AcDbEntity
  8
0
  6
CONTINUOUS
 62
     7
100
AcDbVertex
100
AcDb2dVertex
 10
1295.6406924624
 20
824.2332806046
 30
0.0
  0
VERTEX
  5
5A1
330
178
100
AcDbEntity
  8
0
  6
CONTINUOUS
 62
     7
100
AcDbVertex
100
AcDb2dVertex
 10
1297.8793162603
 20
824.1159786636
 30
0.0
  0
VERTEX
  5
5A2
330
178
100
AcDbEntity
  8
0
  6
CONTINUOUS
 62
     7
100
AcDbVertex
100
AcDb2dVertex
 10
1300.3861982125
 20
823.9846100266
 30
0.0
  0
VERTEX
  5
5A3
330
178
100
AcDbEntity
  8
0
  6
CONTINUOUS
 62
     7
100
AcDbVertex
100
AcDb2dVertex
 10
1303.1344566244
 20
823.8405456001
 30
0.0
  0
VERTEX
  5
5A4
330
178
100
AcDbEntity
  8
0
  6
CONTINUOUS
 62
     7
100
AcDbVertex
100
AcDb2dVertex
 10
1306.0946393508
 20
823.6853947098
 30
0.0
  0
VERTEX
  5
5A5
330
178
100
AcDbEntity
  8
0
  6
CONTINUOUS
 62
     7
100
AcDbVertex
100
AcDb2dVertex
 10
1309.2350143689
 20
823.5208262856
 30
0.0
  0
VERTEX
  5
5A6
330
178
100
AcDbEntity
  8
0
  6
CONTINUOUS
 62
     7
100
AcDbVertex
100
AcDb2dVertex
 10
1312.5219199556
 20
823.3485688622
 30
0.0
  0
VERTEX
  5
5A7
330
178
100
AcDbEntity
  8
0
  6
CONTINUOUS
 62
     7
100
AcDbVertex
100
AcDb2dVertex
 10
1315.9201074142
 20
823.1704701836
 30
0.0
  0
VERTEX
  5
5A8
330
178
100
AcDbEntity
  8
0
  6
CONTINUOUS
 62
     7
100
AcDbVertex
100
AcDb2dVertex
 10
1319.3931657571
 20
822.9884972031
 30
0.0
  0
VERTEX
  5
5A9
330
178
100
AcDbEntity
  8
0
  6
CONTINUOUS
 62
     7
100
AcDbVertex
100
AcDb2dVertex
 10
1322.9038569826
 20
822.8044976646
 30
0.0
  0
SEQEND
  5
82F
330
178
100
AcDbEntity
  8
0
  6
CONTINUOUS
 62
     7
  0
POLYLINE
  5
179
330
1F
100
AcDbEntity
  8
0
  6
CONTINUOUS
 62
     7
100
AcDb2dPolyline
 66
     1
 10
0.0
 20
0.0
 30
0.0
 70
   128
  0
VERTEX
  5
5AA
330
179
100
AcDbEntity
  8
0
  6
CONTINUOUS
 62
     7
100
AcDbVertex
100
AcDb2dVertex
 10
1295.6406924624
 20
824.2332806046
 30
0.0
  0
VERTEX
  5
5AB
330
179
100
AcDbEntity
  8
0
  6
CONTINUOUS
 62
     7
100
AcDbVertex
100
AcDb2dVertex
 10
1294.0732020635
 20
823.9785899574
 30
0.0
  0
VERTEX
  5
5AC
330
179
100
AcDbEntity
  8
0
  6
CONTINUOUS
 62
     7
100
AcDbVertex
100
AcDb2dVertex
 10
1292.6860380668
 20
823.0800499374
 30
0.0
  0
VERTEX
  5
5AD
330
179
100
AcDbEntity
  8
0
  6
CONTINUOUS
 62
     7
100
AcDbVertex
100
AcDb2dVertex
 10
1291.6319299239
 20
821.6365446503
 30
0.0
  0
VERTEX
  5
5AE
330
179
100
AcDbEntity
  8
0
  6
CONTINUOUS
 62
     7
100
AcDbVertex
100
AcDb2dVertex
 10
1291.0300496716
 20
819.8056687767
 30
0.0
  0
VERTEX
  5
5AF
330
179
100
AcDbEntity
  8
0
  6
CONTINUOUS
 62
     7
100
AcDbVertex
100
AcDb2dVertex
 10
1290.9176129598
 20
818.5114135201
 30
0.0
  0
VERTEX
  5
5B0
330
179
100
AcDbEntity
  8
0
  6
CONTINUOUS
 62
     7
100
AcDbVertex
100
AcDb2dVertex
 10
1290.9177321691
 20
818.4725512917
 30
0.0
  0
SEQEND
  5
830
330
179
100
AcDbEntity
  8
0
  6
CONTINUOUS
 62
     7
  0
LINE
  5
17A
330
1F
100
AcDbEntity
  8
0
  6
CONTINUOUS
 62
     7
100
AcDbLine
 10
1641.2092450756
 20
782.0898761208
 30
0.0
 11
1321.6477934021
 21
798.8373507912
 31
0.0
  0
LINE
  5
17B
330
1F
100
AcDbEntity
  8
0
  6
CONTINUOUS
 62
     7
100
AcDbLine
 10
1322.9038569826
 20
822.8044976646
 30
0.0
 11
1642.465293755
 21
806.0569633896
 31
0.0
  0
POLYLINE
  5
17C
330
1F
100
AcDbEntity
  8
0
  6
CONTINUOUS
 62
     7
100
AcDb2dPolyline
 66
     1
 10
0.0
 20
0.0
 30
0.0
 70
   128
  0
VERTEX
  5
5B1
330
17C
100
AcDbEntity
  8
0
  6
CONTINUOUS
 62
     7
100
AcDbVertex
100
AcDb2dVertex
 10
1675.1626435417
 20
780.3104390556
 30
0.0
  0
VERTEX
  5
5B2
330
17C
100
AcDbEntity
  8
0
  6
CONTINUOUS
 62
     7
100
AcDbVertex
100
AcDb2dVertex
 10
1674.9766472477
 20
780.3202142174
 30
0.0
  0
VERTEX
  5
5B3
330
17C
100
AcDbEntity
  8
0
  6
CONTINUOUS
 62
     7
100
AcDbVertex
100
AcDb2dVertex
 10
1674.4206849236
 20
780.349301284
 30
0.0
  0
VERTEX
  5
5B4
330
17C
100
AcDbEntity
  8
0
  6
CONTINUOUS
 62
     7
100
AcDbVertex
100
AcDb2dVertex
 10
1673.5008362431
 20
780.3975214417
 30
0.0
  0
VERTEX
  5
5B5
330
17C
100
AcDbEntity
  8
0
  6
CONTINUOUS
 62
     7
100
AcDbVertex
100
AcDb2dVertex
 10
1672.2272339958
 20
780.4642786438
 30
0.0
  0
VERTEX
  5
5B6
330
17C
100
AcDbEntity
  8
0
  6
CONTINUOUS
 62
     7
100
AcDbVertex
100
AcDb2dVertex
 10
1670.6137660641
 20
780.5488576347
 30
0.0
  0
VERTEX
  5
5B7
330
17C
100
AcDbEntity
  8
0
  6
CONTINUOUS
 62
     7
100
AcDbVertex
100
AcDb2dVertex
 10
1668.6781350273
 20
780.6503047401
 30
0.0
  0
VERTEX
  5
5B8
330
17C
100
AcDbEntity
  8
0
  6
CONTINUOUS
 62
     7
100
AcDbVertex
100
AcDb2dVertex
 10
1666.4415303368
 20
780.7674874718
 30
0.0
  0
VERTEX
  5
5B9
330
17C
100
AcDbEntity
  8
0
  6
CONTINUOUS
 62
     7
100
AcDbVertex
100
AcDb2dVertex
 10
1663.9285091061
 20
780.8992137367
 30
0.0
  0
VERTEX
  5
5BA
330
17C
100
AcDbEntity
  8
0
  6
CONTINUOUS
 62
     7
100
AcDbVertex
100
AcDb2dVertex
 10
1661.1665490765
 20
781.0439338142
 30
0.0
  0
VERTEX
  5
5BB
330
17C
100
AcDbEntity
  8
0
  6
CONTINUOUS
 62
     7
100
AcDbVertex
100
AcDb2dVertex
 10
1658.1859592098
 20
781.2001575882
 30
0.0
  0
VERTEX
  5
5BC
330
17C
100
AcDbEntity
  8
0
  6
CONTINUOUS
 62
     7
100
AcDbVertex
100
AcDb2dVertex
 10
1655.0193432469
 20
781.3660969193
 30
0.0
  0
VERTEX
  5
5BD
330
17C
100
AcDbEntity
  8
0
  6
CONTINUOUS
 62
     7
100
AcDbVertex
100
AcDb2dVertex
 10
1651.7014208931
 20
781.5400232727
 30
0.0
  0
VERTEX
  5
5BE
330
17C
100
AcDbEntity
  8
0
  6
CONTINUOUS
 62
     7
100
AcDbVertex
100
AcDb2dVertex
 10
1648.2685509819
 20
781.7199100906
 30
0.0
  0
VERTEX
  5
5BF
330
17C
100
AcDbEntity
  8
0
  6
CONTINUOUS
 62
     7
100
AcDbVertex
100
AcDb2dVertex
 10
1644.7583440441
 20
781.9038500244
 30
0.0
  0
VERTEX
  5
5C0
330
17C
100
AcDbEntity
  8
0
  6
CONTINUOUS
 62
     7
100
AcDbVertex
100
AcDb2dVertex
 10
1641.2092450756
 20
782.0898761208
 30
0.0
  0
SEQEND
  5
831
330
17C
100
AcDbEntity
  8
0
  6
CONTINUOUS
 62
     7
  0
ARC
  5
17D
330
1F
100
AcDbEntity
  8
0
  6
CONTINUOUS
 62
     7
100
AcDbCircle
 10
1675.4766634431
 20
786.3022214063
 30
0.0
 40
5.999999999999988
100
AcDbArc
 50
267.0
 51
357.0
  0
POLYLINE
  5
17E
330
1F
100
AcDbEntity
  8
0
  6
CONTINUOUS
 62
     7
100
AcDb2dPolyline
 66
     1
 10
0.0
 20
0.0
 30
0.0
 70
   128
  0
VERTEX
  5
5C1
330
17E
100
AcDbEntity
  8
0
  6
CONTINUOUS
 62
     7
100
AcDbVertex
100
AcDb2dVertex
 10
1642.465293755
 20
806.0569633896
 30
0.0
  0
VERTEX
  5
5C2
330
17E
100
AcDbEntity
  8
0
  6
CONTINUOUS
 62
     7
100
AcDbVertex
100
AcDb2dVertex
 10
1646.0143927235
 20
805.8709968979
 30
0.0
  0
VERTEX
  5
5C3
330
17E
100
AcDbEntity
  8
0
  6
CONTINUOUS
 62
     7
100
AcDbVertex
100
AcDb2dVertex
 10
1649.5246294636
 20
805.6869973595
 30
0.0
  0
VERTEX
  5
5C4
330
17E
100
AcDbEntity
  8
0
  6
CONTINUOUS
 62
     7
100
AcDbVertex
100
AcDb2dVertex
 10
1652.9574993748
 20
805.5071105415
 30
0.0
  0
VERTEX
  5
5C5
330
17E
100
AcDbEntity
  8
0
  6
CONTINUOUS
 62
     7
100
AcDbVertex
100
AcDb2dVertex
 10
1656.2753919262
 20
805.3332437927
 30
0.0
  0
VERTEX
  5
5C6
330
17E
100
AcDbEntity
  8
0
  6
CONTINUOUS
 62
     7
100
AcDbVertex
100
AcDb2dVertex
 10
1659.4420078892
 20
805.167244857
 30
0.0
  0
VERTEX
  5
5C7
330
17E
100
AcDbEntity
  8
0
  6
CONTINUOUS
 62
     7
100
AcDbVertex
100
AcDb2dVertex
 10
1662.4226275581
 20
805.0110806877
 30
0.0
  0
VERTEX
  5
5C8
330
17E
100
AcDbEntity
  8
0
  6
CONTINUOUS
 62
     7
100
AcDbVertex
100
AcDb2dVertex
 10
1665.1845577854
 20
804.8663010056
 30
0.0
  0
VERTEX
  5
5C9
330
17E
100
AcDbEntity
  8
0
  6
CONTINUOUS
 62
     7
100
AcDbVertex
100
AcDb2dVertex
 10
1667.6976088184
 20
804.7346343452
 30
0.0
  0
VERTEX
  5
5CA
330
17E
100
AcDbEntity
  8
0
  6
CONTINUOUS
 62
     7
100
AcDbVertex
100
AcDb2dVertex
 10
1669.9341837067
 20
804.617392009
 30
0.0
  0
VERTEX
  5
5CB
330
17E
100
AcDbEntity
  8
0
  6
CONTINUOUS
 62
     7
100
AcDbVertex
100
AcDb2dVertex
 10
1671.8698147434
 20
804.5159449036
 30
0.0
  0
VERTEX
  5
5CC
330
17E
100
AcDbEntity
  8
0
  6
CONTINUOUS
 62
     7
100
AcDbVertex
100
AcDb2dVertex
 10
1673.4832826752
 20
804.4313659126
 30
0.0
  0
VERTEX
  5
5CD
330
17E
100
AcDbEntity
  8
0
  6
CONTINUOUS
 62
     7
100
AcDbVertex
100
AcDb2dVertex
 10
1674.7569147247
 20
804.3646683151
 30
0.0
  0
VERTEX
  5
5CE
330
17E
100
AcDbEntity
  8
0
  6
CONTINUOUS
 62
     7
100
AcDbVertex
100
AcDb2dVertex
 10
1675.6767336029
 20
804.3164481575
 30
0.0
  0
VERTEX
  5
5CF
330
17E
100
AcDbEntity
  8
0
  6
CONTINUOUS
 62
     7
100
AcDbVertex
100
AcDb2dVertex
 10
1676.2326959271
 20
804.2873014862
 30
0.0
  0
VERTEX
  5
5D0
330
17E
100
AcDbEntity
  8
0
  6
CONTINUOUS
 62
     7
100
AcDbVertex
100
AcDb2dVertex
 10
1676.4187220234
 20
804.2775263245
 30
0.0
  0
SEQEND
  5
832
330
17E
100
AcDbEntity
  8
0
  6
CONTINUOUS
 62
     7
  0
ARC
  5
17F
330
1F
100
AcDbEntity
  8
0
  6
CONTINUOUS
 62
     7
100
AcDbCircle
 10
1676.104694918
 20
798.2857758234
 30
0.0
 40
5.999999999999988
100
AcDbArc
 50
357.0
 51
87.0
  0
LINE
  5
180
330
1F
100
AcDbEntity
  8
0
  6
CONTINUOUS
 62
     7
100
AcDbLine
 10
1682.0964816708
 20
797.9717721397
 30
0.0
 11
1681.4684275288
 21
785.988198703
 31
0.0
  0
POLYLINE
  5
181
330
1F
100
AcDbEntity
  8
0
  6
CONTINUOUS
 62
     7
100
AcDb2dPolyline
 66
     1
 10
0.0
 20
0.0
 30
0.0
 70
   128
  0
VERTEX
  5
5D1
330
181
100
AcDbEntity
  8
0
  6
CONTINUOUS
 62
     7
100
AcDbVertex
100
AcDb2dVertex
 10
1282.4338901538
 20
814.8844112808
 30
0.0
  0
VERTEX
  5
5D2
330
181
100
AcDbEntity
  8
0
  6
CONTINUOUS
 62
     7
100
AcDbVertex
100
AcDb2dVertex
 10
1282.4405174452
 20
815.010892337
 30
0.0
  0
VERTEX
  5
5D3
330
181
100
AcDbEntity
  8
0
  6
CONTINUOUS
 62
     7
100
AcDbVertex
100
AcDb2dVertex
 10
1282.6280522842
 20
818.5892571861
 30
0.0
  0
SEQEND
  5
833
330
181
100
AcDbEntity
  8
0
  6
CONTINUOUS
 62
     7
  0
POLYLINE
  5
182
330
1F
100
AcDbEntity
  8
0
  6
CONTINUOUS
 62
     7
100
AcDb2dPolyline
 66
     1
 10
0.0
 20
0.0
 30
0.0
 70
   128
  0
VERTEX
  5
5D4
330
182
100
AcDbEntity
  8
0
  6
CONTINUOUS
 62
     7
100
AcDbVertex
100
AcDb2dVertex
 10
1789.6230820316
 20
85.9664255919
 30
0.0
  0
VERTEX
  5
5D5
330
182
100
AcDbEntity
  8
0
  6
CONTINUOUS
 62
     7
100
AcDbVertex
100
AcDb2dVertex
 10
1789.7967103619
 20
86.1246638166
 30
0.0
  0
VERTEX
  5
5D6
330
182
100
AcDbEntity
  8
0
  6
CONTINUOUS
 62
     7
100
AcDbVertex
100
AcDb2dVertex
 10
1790.3240326542
 20
86.3094782623
 30
0.0
  0
VERTEX
  5
5D7
330
182
100
AcDbEntity
  8
0
  6
CONTINUOUS
 62
     7
100
AcDbVertex
100
AcDb2dVertex
 10
1791.1859754223
 20
86.5141890178
 30
0.0
  0
VERTEX
  5
5D8
330
182
100
AcDbEntity
  8
0
  6
CONTINUOUS
 62
     7
100
AcDbVertex
100
AcDb2dVertex
 10
1792.3514250416
 20
86.7313971909
 30
0.0
  0
VERTEX
  5
5D9
330
182
100
AcDbEntity
  8
0
  6
CONTINUOUS
 62
     7
100
AcDbVertex
100
AcDb2dVertex
 10
1793.7783006329
 20
86.9532526637
 30
0.0
  0
VERTEX
  5
5DA
330
182
100
AcDbEntity
  8
0
  6
CONTINUOUS
 62
     7
100
AcDbVertex
100
AcDb2dVertex
 10
1795.4149249691
 20
87.1717367487
 30
0.0
  0
VERTEX
  5
5DB
330
182
100
AcDbEntity
  8
0
  6
CONTINUOUS
 62
     7
100
AcDbVertex
100
AcDb2dVertex
 10
1797.2021702427
 20
87.3789529948
 30
0.0
  0
VERTEX
  5
5DC
330
182
100
AcDbEntity
  8
0
  6
CONTINUOUS
 62
     7
100
AcDbVertex
100
AcDb2dVertex
 10
1799.0754846233
 20
87.5674117057
 30
0.0
  0
VERTEX
  5
5DD
330
182
100
AcDbEntity
  8
0
  6
CONTINUOUS
 62
     7
100
AcDbVertex
100
AcDb2dVertex
 10
1800.9671572346
 20
87.7303018866
 30
0.0
  0
VERTEX
  5
5DE
330
182
100
AcDbEntity
  8
0
  6
CONTINUOUS
 62
     7
100
AcDbVertex
100
AcDb2dVertex
 10
1802.8088215489
 20
87.861736182
 30
0.0
  0
VERTEX
  5
5DF
330
182
100
AcDbEntity
  8
0
  6
CONTINUOUS
 62
     7
100
AcDbVertex
100
AcDb2dVertex
 10
1804.5338395733
 20
87.9569643809
 30
0.0
  0
VERTEX
  5
5E0
330
182
100
AcDbEntity
  8
0
  6
CONTINUOUS
 62
     7
100
AcDbVertex
100
AcDb2dVertex
 10
1806.0799840588
 20
88.0125440823
 30
0.0
  0
VERTEX
  5
5E1
330
182
100
AcDbEntity
  8
0
  6
CONTINUOUS
 62
     7
100
AcDbVertex
100
AcDb2dVertex
 10
1807.3912862438
 20
88.026467122
 30
0.0
  0
VERTEX
  5
5E2
330
182
100
AcDbEntity
  8
0
  6
CONTINUOUS
 62
     7
100
AcDbVertex
100
AcDb2dVertex
 10
1808.4203604359
 20
87.99823012
 30
0.0
  0
VERTEX
  5
5E3
330
182
100
AcDbEntity
  8
0
  6
CONTINUOUS
 62
     7
100
AcDbVertex
100
AcDb2dVertex
 10
1809.1300133366
 20
87.9288535731
 30
0.0
  0
VERTEX
  5
5E4
330
182
100
AcDbEntity
  8
0
  6
CONTINUOUS
 62
     7
100
AcDbVertex
100
AcDb2dVertex
 10
1809.4946745533
 20
87.8208448345
 30
0.0
  0
VERTEX
  5
5E5
330
182
100
AcDbEntity
  8
0
  6
CONTINUOUS
 62
     7
100
AcDbVertex
100
AcDb2dVertex
 10
1809.5010522503
 20
87.6781075428
 30
0.0
  0
VERTEX
  5
5E6
330
182
100
AcDbEntity
  8
0
  6
CONTINUOUS
 62
     7
100
AcDbVertex
100
AcDb2dVertex
 10
1809.1490272183
 20
87.5058009921
 30
0.0
  0
VERTEX
  5
5E7
330
182
100
AcDbEntity
  8
0
  6
CONTINUOUS
 62
     7
100
AcDbVertex
100
AcDb2dVertex
 10
1808.4511760372
 20
87.3101524709
 30
0.0
  0
VERTEX
  5
5E8
330
182
100
AcDbEntity
  8
0
  6
CONTINUOUS
 62
     7
100
AcDbVertex
100
AcDb2dVertex
 10
1807.4328902859
 20
87.0982335115
 30
0.0
  0
VERTEX
  5
5E9
330
182
100
AcDbEntity
  8
0
  6
CONTINUOUS
 62
     7
100
AcDbVertex
100
AcDb2dVertex
 10
1806.1308268208
 20
86.8777028451
 30
0.0
  0
VERTEX
  5
5EA
330
182
100
AcDbEntity
  8
0
  6
CONTINUOUS
 62
     7
100
AcDbVertex
100
AcDb2dVertex
 10
1804.5921329159
 20
86.6565318944
 30
0.0
  0
VERTEX
  5
5EB
330
182
100
AcDbEntity
  8
0
  6
CONTINUOUS
 62
     7
100
AcDbVertex
100
AcDb2dVertex
 10
1804.3972257275
 20
86.6307309995
 30
0.0
  0
SEQEND
  5
834
330
182
100
AcDbEntity
  8
0
  6
CONTINUOUS
 62
     7
  0
ARC
  5
183
330
1F
100
AcDbEntity
  8
0
  6
CONTINUOUS
 62
     7
100
AcDbCircle
 10
1792.8009560681
 20
100.8099985085
 30
0.0
 40
15.17993874560981
100
AcDbArc
 50
257.9159147853
 51
277.9420531657
  0
ARC
  5
184
330
1F
100
AcDbEntity
  8
0
  6
CONTINUOUS
 62
     7
100
AcDbCircle
 10
1803.3000161235
 20
45.2527987238
 30
0.0
 40
42.24892044998812
100
AcDbArc
 50
87.7570371421
 51
102.3598083025
  0
POLYLINE
  5
185
330
1F
100
AcDbEntity
  8
0
  6
CONTINUOUS
 62
     7
100
AcDb2dPolyline
 66
     1
 10
0.0
 20
0.0
 30
0.0
 70
   128
  0
VERTEX
  5
5EC
330
185
100
AcDbEntity
  8
0
  6
CONTINUOUS
 62
     7
100
AcDbVertex
100
AcDb2dVertex
 10
1805.1189783711
 20
87.2759163546
 30
0.0
  0
VERTEX
  5
5ED
330
185
100
AcDbEntity
  8
0
  6
CONTINUOUS
 62
     7
100
AcDbVertex
100
AcDb2dVertex
 10
1804.8285845417
 20
87.1735959014
 30
0.0
  0
VERTEX
  5
5EE
330
185
100
AcDbEntity
  8
0
  6
CONTINUOUS
 62
     7
100
AcDbVertex
100
AcDb2dVertex
 10
1804.7966960568
 20
87.164733203
 30
0.0
  0
SEQEND
  5
835
330
185
100
AcDbEntity
  8
0
  6
CONTINUOUS
 62
     7
  0
LINE
  5
186
330
1F
100
AcDbEntity
  8
0
  6
CONTINUOUS
 62
     7
100
AcDbLine
 10
1794.3473461765
 20
86.2340686078
 30
0.0
 11
1794.141054501
 21
86.2626993264
 31
0.0
  0
POLYLINE
  5
187
330
1F
100
AcDbEntity
  8
0
  6
CONTINUOUS
 62
     7
100
AcDb2dPolyline
 66
     1
 10
0.0
 20
0.0
 30
0.0
 70
   128
  0
VERTEX
  5
5EF
330
187
100
AcDbEntity
  8
0
  6
CONTINUOUS
 62
     7
100
AcDbVertex
100
AcDb2dVertex
 10
1789.2656329769
 20
89.9390893689
 30
0.0
  0
VERTEX
  5
5F0
330
187
100
AcDbEntity
  8
0
  6
CONTINUOUS
 62
     7
100
AcDbVertex
100
AcDb2dVertex
 10
1789.4392613072
 20
90.0973277682
 30
0.0
  0
VERTEX
  5
5F1
330
187
100
AcDbEntity
  8
0
  6
CONTINUOUS
 62
     7
100
AcDbVertex
100
AcDb2dVertex
 10
1789.9665835995
 20
90.2821421557
 30
0.0
  0
VERTEX
  5
5F2
330
187
100
AcDbEntity
  8
0
  6
CONTINUOUS
 62
     7
100
AcDbVertex
100
AcDb2dVertex
 10
1790.8285859722
 20
90.486852882
 30
0.0
  0
VERTEX
  5
5F3
330
187
100
AcDbEntity
  8
0
  6
CONTINUOUS
 62
     7
100
AcDbVertex
100
AcDb2dVertex
 10
1791.9940355915
 20
90.7040611861
 30
0.0
  0
VERTEX
  5
5F4
330
187
100
AcDbEntity
  8
0
  6
CONTINUOUS
 62
     7
100
AcDbVertex
100
AcDb2dVertex
 10
1793.4208515782
 20
90.9259165716
 30
0.0
  0
VERTEX
  5
5F5
330
187
100
AcDbEntity
  8
0
  6
CONTINUOUS
 62
     7
100
AcDbVertex
100
AcDb2dVertex
 10
1795.0574759144
 20
91.144400613
 30
0.0
  0
VERTEX
  5
5F6
330
187
100
AcDbEntity
  8
0
  6
CONTINUOUS
 62
     7
100
AcDbVertex
100
AcDb2dVertex
 10
1796.844721188
 20
91.3516167717
 30
0.0
  0
VERTEX
  5
5F7
330
187
100
AcDbEntity
  8
0
  6
CONTINUOUS
 62
     7
100
AcDbVertex
100
AcDb2dVertex
 10
1798.7180951733
 20
91.5400755991
 30
0.0
  0
VERTEX
  5
5F8
330
187
100
AcDbEntity
  8
0
  6
CONTINUOUS
 62
     7
100
AcDbVertex
100
AcDb2dVertex
 10
1800.6097081799
 20
91.7029658382
 30
0.0
  0
VERTEX
  5
5F9
330
187
100
AcDbEntity
  8
0
  6
CONTINUOUS
 62
     7
100
AcDbVertex
100
AcDb2dVertex
 10
1802.4513724941
 20
91.8344001918
 30
0.0
  0
VERTEX
  5
5FA
330
187
100
AcDbEntity
  8
0
  6
CONTINUOUS
 62
     7
100
AcDbVertex
100
AcDb2dVertex
 10
1804.1764501232
 20
91.9296281578
 30
0.0
  0
VERTEX
  5
5FB
330
187
100
AcDbEntity
  8
0
  6
CONTINUOUS
 62
     7
100
AcDbVertex
100
AcDb2dVertex
 10
1805.7225350041
 20
91.9852080921
 30
0.0
  0
VERTEX
  5
5FC
330
187
100
AcDbEntity
  8
0
  6
CONTINUOUS
 62
     7
100
AcDbVertex
100
AcDb2dVertex
 10
1807.0338371891
 20
91.9991310154
 30
0.0
  0
VERTEX
  5
5FD
330
187
100
AcDbEntity
  8
0
  6
CONTINUOUS
 62
     7
100
AcDbVertex
100
AcDb2dVertex
 10
1808.0629113812
 20
91.9708940134
 30
0.0
  0
VERTEX
  5
5FE
330
187
100
AcDbEntity
  8
0
  6
CONTINUOUS
 62
     7
100
AcDbVertex
100
AcDb2dVertex
 10
1808.7726238865
 20
91.9015173501
 30
0.0
  0
VERTEX
  5
5FF
330
187
100
AcDbEntity
  8
0
  6
CONTINUOUS
 62
     7
100
AcDbVertex
100
AcDb2dVertex
 10
1809.1372254986
 20
91.7935085533
 30
0.0
  0
VERTEX
  5
600
330
187
100
AcDbEntity
  8
0
  6
CONTINUOUS
 62
     7
100
AcDbVertex
100
AcDb2dVertex
 10
1809.1853860516
 20
91.7287152776
 30
0.0
  0
SEQEND
  5
836
330
187
100
AcDbEntity
  8
0
  6
CONTINUOUS
 62
     7
  0
POLYLINE
  5
188
330
1F
100
AcDbEntity
  8
0
  6
CONTINUOUS
 62
     7
100
AcDb2dPolyline
 66
     1
 10
0.0
 20
0.0
 30
0.0
 70
   128
  0
VERTEX
  5
601
330
188
100
AcDbEntity
  8
0
  6
CONTINUOUS
 62
     7
100
AcDbVertex
100
AcDb2dVertex
 10
1265.8957581717
 20
91.3843553214
 30
0.0
  0
VERTEX
  5
602
330
188
100
AcDbEntity
  8
0
  6
CONTINUOUS
 62
     7
100
AcDbVertex
100
AcDb2dVertex
 10
1266.0796385008
 20
91.4989906529
 30
0.0
  0
VERTEX
  5
603
330
188
100
AcDbEntity
  8
0
  6
CONTINUOUS
 62
     7
100
AcDbVertex
100
AcDb2dVertex
 10
1266.6177492339
 20
91.5895422155
 30
0.0
  0
VERTEX
  5
604
330
188
100
AcDbEntity
  8
0
  6
CONTINUOUS
 62
     7
100
AcDbVertex
100
AcDb2dVertex
 10
1267.4906406302
 20
91.6527372835
 30
0.0
  0
VERTEX
  5
605
330
188
100
AcDbEntity
  8
0
  6
CONTINUOUS
 62
     7
100
AcDbVertex
100
AcDb2dVertex
 10
1268.6667632062
 20
91.6862917881
 30
0.0
  0
VERTEX
  5
606
330
188
100
AcDbEntity
  8
0
  6
CONTINUOUS
 62
     7
100
AcDbVertex
100
AcDb2dVertex
 10
1270.1036076743
 20
91.688993031
 30
0.0
  0
VERTEX
  5
607
330
188
100
AcDbEntity
  8
0
  6
CONTINUOUS
 62
     7
100
AcDbVertex
100
AcDb2dVertex
 10
1271.749247213
 20
91.660743398
 30
0.0
  0
VERTEX
  5
608
330
188
100
AcDbEntity
  8
0
  6
CONTINUOUS
 62
     7
100
AcDbVertex
100
AcDb2dVertex
 10
1273.5442001123
 20
91.6025638514
 30
0.0
  0
VERTEX
  5
609
330
188
100
AcDbEntity
  8
0
  6
CONTINUOUS
 62
     7
100
AcDbVertex
100
AcDb2dVertex
 10
1275.4235904414
 20
91.5165571429
 30
0.0
  0
VERTEX
  5
60A
330
188
100
AcDbEntity
  8
0
  6
CONTINUOUS
 62
     7
100
AcDbVertex
100
AcDb2dVertex
 10
1277.3194987077
 20
91.4058317946
 30
0.0
  0
VERTEX
  5
60B
330
188
100
AcDbEntity
  8
0
  6
CONTINUOUS
 62
     7
100
AcDbVertex
100
AcDb2dVertex
 10
1279.1633981961
 20
91.2743897576
 30
0.0
  0
VERTEX
  5
60C
330
188
100
AcDbEntity
  8
0
  6
CONTINUOUS
 62
     7
100
AcDbVertex
100
AcDb2dVertex
 10
1280.8886434633
 20
91.1269816212
 30
0.0
  0
VERTEX
  5
60D
330
188
100
AcDbEntity
  8
0
  6
CONTINUOUS
 62
     7
100
AcDbVertex
100
AcDb2dVertex
 10
1282.4328843254
 20
90.9689351617
 30
0.0
  0
VERTEX
  5
60E
330
188
100
AcDbEntity
  8
0
  6
CONTINUOUS
 62
     7
100
AcDbVertex
100
AcDb2dVertex
 10
1283.740304758
 20
90.8059625405
 30
0.0
  0
VERTEX
  5
60F
330
188
100
AcDbEntity
  8
0
  6
CONTINUOUS
 62
     7
100
AcDbVertex
100
AcDb2dVertex
 10
1284.7636494536
 20
90.6439540346
 30
0.0
  0
VERTEX
  5
610
330
188
100
AcDbEntity
  8
0
  6
CONTINUOUS
 62
     7
100
AcDbVertex
100
AcDb2dVertex
 10
1285.4659374553
 20
90.4887650328
 30
0.0
  0
VERTEX
  5
611
330
188
100
AcDbEntity
  8
0
  6
CONTINUOUS
 62
     7
100
AcDbVertex
100
AcDb2dVertex
 10
1285.8217809099
 20
90.3460045162
 30
0.0
  0
VERTEX
  5
612
330
188
100
AcDbEntity
  8
0
  6
CONTINUOUS
 62
     7
100
AcDbVertex
100
AcDb2dVertex
 10
1285.8652103442
 20
90.2797203677
 30
0.0
  0
SEQEND
  5
837
330
188
100
AcDbEntity
  8
0
  6
CONTINUOUS
 62
     7
  0
POLYLINE
  5
189
330
1F
100
AcDbEntity
  8
0
  6
CONTINUOUS
 62
     7
100
AcDb2dPolyline
 66
     1
 10
0.0
 20
0.0
 30
0.0
 70
   128
  0
VERTEX
  5
613
330
189
100
AcDbEntity
  8
0
  6
CONTINUOUS
 62
     7
100
AcDbVertex
100
AcDb2dVertex
 10
1265.6750719744
 20
87.3991405758
 30
0.0
  0
VERTEX
  5
614
330
189
100
AcDbEntity
  8
0
  6
CONTINUOUS
 62
     7
100
AcDbVertex
100
AcDb2dVertex
 10
1265.8589523036
 20
87.5137759073
 30
0.0
  0
VERTEX
  5
615
330
189
100
AcDbEntity
  8
0
  6
CONTINUOUS
 62
     7
100
AcDbVertex
100
AcDb2dVertex
 10
1266.3970630366
 20
87.6043274699
 30
0.0
  0
VERTEX
  5
616
330
189
100
AcDbEntity
  8
0
  6
CONTINUOUS
 62
     7
100
AcDbVertex
100
AcDb2dVertex
 10
1267.2699507076
 20
87.667522596
 30
0.0
  0
VERTEX
  5
617
330
189
100
AcDbEntity
  8
0
  6
CONTINUOUS
 62
     7
100
AcDbVertex
100
AcDb2dVertex
 10
1268.4460732836
 20
87.7010772171
 30
0.0
  0
VERTEX
  5
618
330
189
100
AcDbEntity
  8
0
  6
CONTINUOUS
 62
     7
100
AcDbVertex
100
AcDb2dVertex
 10
1269.882921477
 20
87.7037782854
 30
0.0
  0
VERTEX
  5
619
330
189
100
AcDbEntity
  8
0
  6
CONTINUOUS
 62
     7
100
AcDbVertex
100
AcDb2dVertex
 10
1271.5285572905
 20
87.6755287106
 30
0.0
  0
VERTEX
  5
61A
330
189
100
AcDbEntity
  8
0
  6
CONTINUOUS
 62
     7
100
AcDbVertex
100
AcDb2dVertex
 10
1273.3235101897
 20
87.6173492222
 30
0.0
  0
VERTEX
  5
61B
330
189
100
AcDbEntity
  8
0
  6
CONTINUOUS
 62
     7
100
AcDbVertex
100
AcDb2dVertex
 10
1275.2029042441
 20
87.5313425137
 30
0.0
  0
VERTEX
  5
61C
330
189
100
AcDbEntity
  8
0
  6
CONTINUOUS
 62
     7
100
AcDbVertex
100
AcDb2dVertex
 10
1277.0988125104
 20
87.4206171072
 30
0.0
  0
VERTEX
  5
61D
330
189
100
AcDbEntity
  8
0
  6
CONTINUOUS
 62
     7
100
AcDbVertex
100
AcDb2dVertex
 10
1278.9427119989
 20
87.2891751284
 30
0.0
  0
VERTEX
  5
61E
330
189
100
AcDbEntity
  8
0
  6
CONTINUOUS
 62
     7
100
AcDbVertex
100
AcDb2dVertex
 10
1280.667957266
 20
87.1417670211
 30
0.0
  0
VERTEX
  5
61F
330
189
100
AcDbEntity
  8
0
  6
CONTINUOUS
 62
     7
100
AcDbVertex
100
AcDb2dVertex
 10
1282.2121981281
 20
86.9837204161
 30
0.0
  0
VERTEX
  5
620
330
189
100
AcDbEntity
  8
0
  6
CONTINUOUS
 62
     7
100
AcDbVertex
100
AcDb2dVertex
 10
1283.5196148354
 20
86.8207478131
 30
0.0
  0
VERTEX
  5
621
330
189
100
AcDbEntity
  8
0
  6
CONTINUOUS
 62
     7
100
AcDbVertex
100
AcDb2dVertex
 10
1284.5429632563
 20
86.6587395946
 30
0.0
  0
VERTEX
  5
622
330
189
100
AcDbEntity
  8
0
  6
CONTINUOUS
 62
     7
100
AcDbVertex
100
AcDb2dVertex
 10
1285.2452475328
 20
86.50355052
 30
0.0
  0
VERTEX
  5
623
330
189
100
AcDbEntity
  8
0
  6
CONTINUOUS
 62
     7
100
AcDbVertex
100
AcDb2dVertex
 10
1285.6010947126
 20
86.3607899452
 30
0.0
  0
VERTEX
  5
624
330
189
100
AcDbEntity
  8
0
  6
CONTINUOUS
 62
     7
100
AcDbVertex
100
AcDb2dVertex
 10
1285.597633918
 20
86.2356173972
 30
0.0
  0
VERTEX
  5
625
330
189
100
AcDbEntity
  8
0
  6
CONTINUOUS
 62
     7
100
AcDbVertex
100
AcDb2dVertex
 10
1285.2349955339
 20
86.1325572411
 30
0.0
  0
VERTEX
  5
626
330
189
100
AcDbEntity
  8
0
  6
CONTINUOUS
 62
     7
100
AcDbVertex
100
AcDb2dVertex
 10
1284.5262851316
 20
86.0553343015
 30
0.0
  0
VERTEX
  5
627
330
189
100
AcDbEntity
  8
0
  6
CONTINUOUS
 62
     7
100
AcDbVertex
100
AcDb2dVertex
 10
1283.4971215326
 20
86.0067397522
 30
0.0
  0
VERTEX
  5
628
330
189
100
AcDbEntity
  8
0
  6
CONTINUOUS
 62
     7
100
AcDbVertex
100
AcDb2dVertex
 10
1282.1846943099
 20
85.9885291363
 30
0.0
  0
VERTEX
  5
629
330
189
100
AcDbEntity
  8
0
  6
CONTINUOUS
 62
     7
100
AcDbVertex
100
AcDb2dVertex
 10
1280.6364413101
 20
86.0013613644
 30
0.0
  0
VERTEX
  5
62A
330
189
100
AcDbEntity
  8
0
  6
CONTINUOUS
 62
     7
100
AcDbVertex
100
AcDb2dVertex
 10
1280.4349254567
 20
86.005024256
 30
0.0
  0
SEQEND
  5
838
330
189
100
AcDbEntity
  8
0
  6
CONTINUOUS
 62
     7
  0
ARC
  5
18A
330
1F
100
AcDbEntity
  8
0
  6
CONTINUOUS
 62
     7
100
AcDbCircle
 10
1271.1055764416
 20
103.9973905517
 30
0.0
 40
17.46402820173504
100
AcDbArc
 50
251.8832847571
 51
269.1408185988
  0
ARC
  5
18B
330
1F
100
AcDbEntity
  8
0
  6
CONTINUOUS
 62
     7
100
AcDbCircle
 10
1273.0473671677
 20
40.018300257
 30
0.0
 40
47.32123707984395
100
AcDbArc
 50
80.2189736189
 51
93.3408435842
  0
POLYLINE
  5
18C
330
1F
100
AcDbEntity
  8
0
  6
CONTINUOUS
 62
     7
100
AcDb2dPolyline
 66
     1
 10
0.0
 20
0.0
 30
0.0
 70
   128
  0
VERTEX
  5
62B
330
18C
100
AcDbEntity
  8
0
  6
CONTINUOUS
 62
     7
100
AcDbVertex
100
AcDb2dVertex
 10
1281.2180485326
 20
86.4746366794
 30
0.0
  0
VERTEX
  5
62C
330
18C
100
AcDbEntity
  8
0
  6
CONTINUOUS
 62
     7
100
AcDbVertex
100
AcDb2dVertex
 10
1280.9076238174
 20
86.4201314913
 30
0.0
  0
VERTEX
  5
62D
330
18C
100
AcDbEntity
  8
0
  6
CONTINUOUS
 62
     7
100
AcDbVertex
100
AcDb2dVertex
 10
1280.9011082846
 20
86.419414373
 30
0.0
  0
SEQEND
  5
839
330
18C
100
AcDbEntity
  8
0
  6
CONTINUOUS
 62
     7
  0
POLYLINE
  5
18D
330
1F
100
AcDbEntity
  8
0
  6
CONTINUOUS
 62
     7
100
AcDb2dPolyline
 66
     1
 10
0.0
 20
0.0
 30
0.0
 70
   128
  0
VERTEX
  5
62E
330
18D
100
AcDbEntity
  8
0
  6
CONTINUOUS
 62
     7
100
AcDbVertex
100
AcDb2dVertex
 10
1270.3774798411
 20
87.0065925343
 30
0.0
  0
VERTEX
  5
62F
330
18D
100
AcDbEntity
  8
0
  6
CONTINUOUS
 62
     7
100
AcDbVertex
100
AcDb2dVertex
 10
1270.1864842075
 20
87.057090707
 30
0.0
  0
VERTEX
  5
630
330
18D
100
AcDbEntity
  8
0
  6
CONTINUOUS
 62
     7
100
AcDbVertex
100
AcDb2dVertex
 10
1270.1140980918
 20
87.0824441014
 30
0.0
  0
SEQEND
  5
83A
330
18D
100
AcDbEntity
  8
0
  6
CONTINUOUS
 62
     7
  0
LINE
  5
18E
330
1F
100
AcDbEntity
  8
0
  6
CONTINUOUS
 62
     7
100
AcDbLine
 10
1260.2184492845
 20
69.8769931848
 30
0.0
 11
1290.2184504766
 21
69.8769931848
 31
0.0
  0
LINE
  5
18F
330
1F
100
AcDbEntity
  8
0
  6
CONTINUOUS
 62
     7
100
AcDbLine
 10
1260.2184492845
 20
75.8769941682
 30
0.0
 11
1290.2184504766
 21
75.8769941682
 31
0.0
  0
LINE
  5
190
330
1F
100
AcDbEntity
  8
0
  6
CONTINUOUS
 62
     7
100
AcDbLine
 10
1267.8022499878
 20
81.8769932891
 30
0.0
 11
1282.634646048
 21
81.8769932891
 31
0.0
  0
LINE
  5
191
330
1F
100
AcDbEntity
  8
0
  6
CONTINUOUS
 62
     7
100
AcDbLine
 10
1785.2978709835
 20
75.9146466086
 30
0.0
 11
1815.2978423733
 21
75.9146466086
 31
0.0
  0
LINE
  5
192
330
1F
100
AcDbEntity
  8
0
  6
CONTINUOUS
 62
     7
100
AcDbLine
 10
1785.2978709835
 20
69.9146465565
 30
0.0
 11
1815.2978423733
 21
69.9146465565
 31
0.0
  0
LINE
  5
193
330
1F
100
AcDbEntity
  8
0
  6
CONTINUOUS
 62
     7
100
AcDbLine
 10
1792.8816679615
 20
81.9146457294
 30
0.0
 11
1807.7140453953
 21
81.9146457294
 31
0.0
  0
POLYLINE
  5
194
330
1F
100
AcDbEntity
  8
0
  6
CONTINUOUS
 62
     7
100
AcDb2dPolyline
 66
     1
 10
0.0
 20
0.0
 30
0.0
 70
   128
  0
VERTEX
  5
631
330
194
100
AcDbEntity
  8
0
  6
CONTINUOUS
 62
     7
100
AcDbVertex
100
AcDb2dVertex
 10
1789.2658117909
 20
89.9365601878
 30
0.0
  0
VERTEX
  5
632
330
194
100
AcDbEntity
  8
0
  6
CONTINUOUS
 62
     7
100
AcDbVertex
100
AcDb2dVertex
 10
1789.4330624241
 20
90.0942726227
 30
0.0
  0
VERTEX
  5
633
330
194
100
AcDbEntity
  8
0
  6
CONTINUOUS
 62
     7
100
AcDbVertex
100
AcDb2dVertex
 10
1789.954245438
 20
90.2786715239
 30
0.0
  0
VERTEX
  5
634
330
194
100
AcDbEntity
  8
0
  6
CONTINUOUS
 62
     7
100
AcDbVertex
100
AcDb2dVertex
 10
1790.8105257649
 20
90.4830922306
 30
0.0
  0
VERTEX
  5
635
330
194
100
AcDbEntity
  8
0
  6
CONTINUOUS
 62
     7
100
AcDbVertex
100
AcDb2dVertex
 10
1791.970968594
 20
90.7001464008
 30
0.0
  0
VERTEX
  5
636
330
194
100
AcDbEntity
  8
0
  6
CONTINUOUS
 62
     7
100
AcDbVertex
100
AcDb2dVertex
 10
1793.3935526508
 20
90.9219891552
 30
0.0
  0
VERTEX
  5
637
330
194
100
AcDbEntity
  8
0
  6
CONTINUOUS
 62
     7
100
AcDbVertex
100
AcDb2dVertex
 10
1795.0269583363
 20
91.1406025049
 30
0.0
  0
VERTEX
  5
638
330
194
100
AcDbEntity
  8
0
  6
CONTINUOUS
 62
     7
100
AcDbVertex
100
AcDb2dVertex
 10
1796.8121174473
 20
91.3480851965
 30
0.0
  0
VERTEX
  5
639
330
194
100
AcDbEntity
  8
0
  6
CONTINUOUS
 62
     7
100
AcDbVertex
100
AcDb2dVertex
 10
1798.6844781536
 20
91.5369383226
 30
0.0
  0
VERTEX
  5
63A
330
194
100
AcDbEntity
  8
0
  6
CONTINUOUS
 62
     7
100
AcDbVertex
100
AcDb2dVertex
 10
1800.5764487881
 20
91.7003361325
 30
0.0
  0
VERTEX
  5
63B
330
194
100
AcDbEntity
  8
0
  6
CONTINUOUS
 62
     7
100
AcDbVertex
100
AcDb2dVertex
 10
1802.4195436138
 20
91.8323730518
 30
0.0
  0
VERTEX
  5
63C
330
194
100
AcDbEntity
  8
0
  6
CONTINUOUS
 62
     7
100
AcDbVertex
100
AcDb2dVertex
 10
1804.1472438473
 20
91.9282770416
 30
0.0
  0
VERTEX
  5
63D
330
194
100
AcDbEntity
  8
0
  6
CONTINUOUS
 62
     7
100
AcDbVertex
100
AcDb2dVertex
 10
1805.6970242161
 20
91.9845816613
 30
0.0
  0
VERTEX
  5
63E
330
194
100
AcDbEntity
  8
0
  6
CONTINUOUS
 62
     7
100
AcDbVertex
100
AcDb2dVertex
 10
1807.0129159588
 20
91.9992520873
 30
0.0
  0
VERTEX
  5
63F
330
194
100
AcDbEntity
  8
0
  6
CONTINUOUS
 62
     7
100
AcDbVertex
100
AcDb2dVertex
 10
1808.0473545689
 20
91.9717579315
 30
0.0
  0
VERTEX
  5
640
330
194
100
AcDbEntity
  8
0
  6
CONTINUOUS
 62
     7
100
AcDbVertex
100
AcDb2dVertex
 10
1808.762967934
 20
91.9030931479
 30
0.0
  0
VERTEX
  5
641
330
194
100
AcDbEntity
  8
0
  6
CONTINUOUS
 62
     7
100
AcDbVertex
100
AcDb2dVertex
 10
1809.1338876385
 20
91.7957392455
 30
0.0
  0
VERTEX
  5
642
330
194
100
AcDbEntity
  8
0
  6
CONTINUOUS
 62
     7
100
AcDbVertex
100
AcDb2dVertex
 10
1809.1853860516
 20
91.7287152776
 30
0.0
  0
SEQEND
  5
83B
330
194
100
AcDbEntity
  8
0
  6
CONTINUOUS
 62
     7
  0
POLYLINE
  5
195
330
1F
100
AcDbEntity
  8
0
  6
CONTINUOUS
 62
     7
100
AcDb2dPolyline
 66
     1
 10
0.0
 20
0.0
 30
0.0
 70
   128
  0
VERTEX
  5
643
330
195
100
AcDbEntity
  8
0
  6
CONTINUOUS
 62
     7
100
AcDbVertex
100
AcDb2dVertex
 10
1285.8652252454
 20
90.2799349212
 30
0.0
  0
VERTEX
  5
644
330
195
100
AcDbEntity
  8
0
  6
CONTINUOUS
 62
     7
100
AcDbVertex
100
AcDb2dVertex
 10
1285.7845205564
 20
90.3702704751
 30
0.0
  0
VERTEX
  5
645
330
195
100
AcDbEntity
  8
0
  6
CONTINUOUS
 62
     7
100
AcDbVertex
100
AcDb2dVertex
 10
1285.3657047946
 20
90.5156362502
 30
0.0
  0
VERTEX
  5
646
330
195
100
AcDbEntity
  8
0
  6
CONTINUOUS
 62
     7
100
AcDbVertex
100
AcDb2dVertex
 10
1284.6040617425
 20
90.6724592721
 30
0.0
  0
VERTEX
  5
647
330
195
100
AcDbEntity
  8
0
  6
CONTINUOUS
 62
     7
100
AcDbVertex
100
AcDb2dVertex
 10
1283.5271287459
 20
90.8350715633
 30
0.0
  0
VERTEX
  5
648
330
195
100
AcDbEntity
  8
0
  6
CONTINUOUS
 62
     7
100
AcDbVertex
100
AcDb2dVertex
 10
1282.1738276381
 20
90.9975959009
 30
0.0
  0
VERTEX
  5
649
330
195
100
AcDbEntity
  8
0
  6
CONTINUOUS
 62
     7
100
AcDbVertex
100
AcDb2dVertex
 10
1280.5930714804
 20
91.154158196
 30
0.0
  0
VERTEX
  5
64A
330
195
100
AcDbEntity
  8
0
  6
CONTINUOUS
 62
     7
100
AcDbVertex
100
AcDb2dVertex
 10
1278.8419875998
 20
91.2990999283
 30
0.0
  0
VERTEX
  5
64B
330
195
100
AcDbEntity
  8
0
  6
CONTINUOUS
 62
     7
100
AcDbVertex
100
AcDb2dVertex
 10
1276.9838686782
 20
91.427182481
 30
0.0
  0
VERTEX
  5
64C
330
195
100
AcDbEntity
  8
0
  6
CONTINUOUS
 62
     7
100
AcDbVertex
100
AcDb2dVertex
 10
1275.0858742494
 20
91.533776657
 30
0.0
  0
VERTEX
  5
64D
330
195
100
AcDbEntity
  8
0
  6
CONTINUOUS
 62
     7
100
AcDbVertex
100
AcDb2dVertex
 10
1273.2165980834
 20
91.6150298369
 30
0.0
  0
VERTEX
  5
64E
330
195
100
AcDbEntity
  8
0
  6
CONTINUOUS
 62
     7
100
AcDbVertex
100
AcDb2dVertex
 10
1271.4436020452
 20
91.6680053275
 30
0.0
  0
VERTEX
  5
64F
330
195
100
AcDbEntity
  8
0
  6
CONTINUOUS
 62
     7
100
AcDbVertex
100
AcDb2dVertex
 10
1269.8309685785
 20
91.6907884463
 30
0.0
  0
VERTEX
  5
650
330
195
100
AcDbEntity
  8
0
  6
CONTINUOUS
 62
     7
100
AcDbVertex
100
AcDb2dVertex
 10
1268.43697985
 20
91.6825557876
 30
0.0
  0
VERTEX
  5
651
330
195
100
AcDbEntity
  8
0
  6
CONTINUOUS
 62
     7
100
AcDbVertex
100
AcDb2dVertex
 10
1267.3120204109
 20
91.6436048507
 30
0.0
  0
VERTEX
  5
652
330
195
100
AcDbEntity
  8
0
  6
CONTINUOUS
 62
     7
100
AcDbVertex
100
AcDb2dVertex
 10
1266.4967480797
 20
91.5753435044
 30
0.0
  0
VERTEX
  5
653
330
195
100
AcDbEntity
  8
0
  6
CONTINUOUS
 62
     7
100
AcDbVertex
100
AcDb2dVertex
 10
1266.0206299025
 20
91.4802387639
 30
0.0
  0
VERTEX
  5
654
330
195
100
AcDbEntity
  8
0
  6
CONTINUOUS
 62
     7
100
AcDbVertex
100
AcDb2dVertex
 10
1265.8958140511
 20
91.3856804188
 30
0.0
  0
SEQEND
  5
83C
330
195
100
AcDbEntity
  8
0
  6
CONTINUOUS
 62
     7
  0
POLYLINE
  5
196
330
1F
100
AcDbEntity
  8
0
  6
CONTINUOUS
 62
     7
100
AcDb2dPolyline
 66
     1
 10
0.0
 20
0.0
 30
0.0
 70
   128
  0
VERTEX
  5
655
330
196
100
AcDbEntity
  8
0
  6
CONTINUOUS
 62
     7
100
AcDbVertex
100
AcDb2dVertex
 10
1653.2544497151
 20
778.8250317032
 30
0.0
  0
VERTEX
  5
656
330
196
100
AcDbEntity
  8
0
  6
CONTINUOUS
 62
     7
100
AcDbVertex
100
AcDb2dVertex
 10
1653.3900502819
 20
778.7136902267
 30
0.0
  0
VERTEX
  5
657
330
196
100
AcDbEntity
  8
0
  6
CONTINUOUS
 62
     7
100
AcDbVertex
100
AcDb2dVertex
 10
1653.7960473198
 20
778.6210050041
 30
0.0
  0
VERTEX
  5
658
330
196
100
AcDbEntity
  8
0
  6
CONTINUOUS
 62
     7
100
AcDbVertex
100
AcDb2dVertex
 10
1654.4166210789
 20
778.582440799
 30
0.0
  0
VERTEX
  5
659
330
196
100
AcDbEntity
  8
0
  6
CONTINUOUS
 62
     7
100
AcDbVertex
100
AcDb2dVertex
 10
1655.1677588123
 20
778.6016930992
 30
0.0
  0
VERTEX
  5
65A
330
196
100
AcDbEntity
  8
0
  6
CONTINUOUS
 62
     7
100
AcDbVertex
100
AcDb2dVertex
 10
1655.9897962708
 20
778.6570062096
 30
0.0
  0
VERTEX
  5
65B
330
196
100
AcDbEntity
  8
0
  6
CONTINUOUS
 62
     7
100
AcDbVertex
100
AcDb2dVertex
 10
1656.8070355553
 20
778.7126173431
 30
0.0
  0
VERTEX
  5
65C
330
196
100
AcDbEntity
  8
0
  6
CONTINUOUS
 62
     7
100
AcDbVertex
100
AcDb2dVertex
 10
1657.5046185154
 20
778.7294854576
 30
0.0
  0
VERTEX
  5
65D
330
196
100
AcDbEntity
  8
0
  6
CONTINUOUS
 62
     7
100
AcDbVertex
100
AcDb2dVertex
 10
1657.6480272907
 20
778.7178625519
 30
0.0
  0
SEQEND
  5
83D
330
196
100
AcDbEntity
  8
0
  6
CONTINUOUS
 62
     7
  0
ARC
  5
197
330
1F
100
AcDbEntity
  8
0
  6
CONTINUOUS
 62
     7
100
AcDbCircle
 10
1654.1746229061
 20
774.373048463
 30
0.0
 40
4.546083311212511
100
AcDbArc
 50
69.8292558531
 51
101.6779307925
  0
ARC
  5
198
330
1F
100
AcDbEntity
  8
0
  6
CONTINUOUS
 62
     7
100
AcDbCircle
 10
1653.6412444436
 20
764.67438254
 30
0.0
 40
5.740767959384191
100
AcDbArc
 50
255.6798322235
 51
280.8082956986
  0
POLYLINE
  5
199
330
1F
100
AcDbEntity
  8
0
  6
CONTINUOUS
 62
     7
100
AcDb2dPolyline
 66
     1
 10
0.0
 20
0.0
 30
0.0
 70
   128
  0
VERTEX
  5
65E
330
199
100
AcDbEntity
  8
0
  6
CONTINUOUS
 62
     7
100
AcDbVertex
100
AcDb2dVertex
 10
1656.5974954266
 20
758.7611545975
 30
0.0
  0
VERTEX
  5
65F
330
199
100
AcDbEntity
  8
0
  6
CONTINUOUS
 62
     7
100
AcDbVertex
100
AcDb2dVertex
 10
1656.3349667687
 20
758.7746848518
 30
0.0
  0
VERTEX
  5
660
330
199
100
AcDbEntity
  8
0
  6
CONTINUOUS
 62
     7
100
AcDbVertex
100
AcDb2dVertex
 10
1655.6436422962
 20
758.8724364693
 30
0.0
  0
VERTEX
  5
661
330
199
100
AcDbEntity
  8
0
  6
CONTINUOUS
 62
     7
100
AcDbVertex
100
AcDb2dVertex
 10
1654.8472050327
 20
759.0134610588
 30
0.0
  0
VERTEX
  5
662
330
199
100
AcDbEntity
  8
0
  6
CONTINUOUS
 62
     7
100
AcDbVertex
100
AcDb2dVertex
 10
1654.0158692497
 20
759.154545253
 30
0.0
  0
VERTEX
  5
663
330
199
100
AcDbEntity
  8
0
  6
CONTINUOUS
 62
     7
100
AcDbVertex
100
AcDb2dVertex
 10
1653.2612148422
 20
759.2437734062
 30
0.0
  0
VERTEX
  5
664
330
199
100
AcDbEntity
  8
0
  6
CONTINUOUS
 62
     7
100
AcDbVertex
100
AcDb2dVertex
 10
1652.6838246483
 20
759.2542638237
 30
0.0
  0
VERTEX
  5
665
330
199
100
AcDbEntity
  8
0
  6
CONTINUOUS
 62
     7
100
AcDbVertex
100
AcDb2dVertex
 10
1652.3277465004
 20
759.1958512718
 30
0.0
  0
VERTEX
  5
666
330
199
100
AcDbEntity
  8
0
  6
CONTINUOUS
 62
     7
100
AcDbVertex
100
AcDb2dVertex
 10
1652.2213224072
 20
759.1119875366
 30
0.0
  0
SEQEND
  5
83E
330
199
100
AcDbEntity
  8
0
  6
CONTINUOUS
 62
     7
  0
POLYLINE
  5
19A
330
1F
100
AcDbEntity
  8
0
  6
CONTINUOUS
 62
     7
100
AcDb2dPolyline
 66
     1
 10
0.0
 20
0.0
 30
0.0
 70
   128
  0
VERTEX
  5
667
330
19A
100
AcDbEntity
  8
0
  6
CONTINUOUS
 62
     7
100
AcDbVertex
100
AcDb2dVertex
 10
1361.3191697497
 20
794.2464222366
 30
0.0
  0
VERTEX
  5
668
330
19A
100
AcDbEntity
  8
0
  6
CONTINUOUS
 62
     7
100
AcDbVertex
100
AcDb2dVertex
 10
1361.5766767162
 20
794.2353953774
 30
0.0
  0
VERTEX
  5
669
330
19A
100
AcDbEntity
  8
0
  6
CONTINUOUS
 62
     7
100
AcDbVertex
100
AcDb2dVertex
 10
1362.3231652874
 20
794.1390742714
 30
0.0
  0
VERTEX
  5
66A
330
19A
100
AcDbEntity
  8
0
  6
CONTINUOUS
 62
     7
100
AcDbVertex
100
AcDb2dVertex
 10
1363.1353679794
 20
793.9989437515
 30
0.0
  0
VERTEX
  5
66B
330
19A
100
AcDbEntity
  8
0
  6
CONTINUOUS
 62
     7
100
AcDbVertex
100
AcDb2dVertex
 10
1363.9415357012
 20
793.8572635109
 30
0.0
  0
VERTEX
  5
66C
330
19A
100
AcDbEntity
  8
0
  6
CONTINUOUS
 62
     7
100
AcDbVertex
100
AcDb2dVertex
 10
1364.6337691444
 20
793.7661876137
 30
0.0
  0
VERTEX
  5
66D
330
19A
100
AcDbEntity
  8
0
  6
CONTINUOUS
 62
     7
100
AcDbVertex
100
AcDb2dVertex
 10
1365.1194128889
 20
793.7551011498
 30
0.0
  0
VERTEX
  5
66E
330
19A
100
AcDbEntity
  8
0
  6
CONTINUOUS
 62
     7
100
AcDbVertex
100
AcDb2dVertex
 10
1365.3635237116
 20
793.8156594688
 30
0.0
  0
VERTEX
  5
66F
330
19A
100
AcDbEntity
  8
0
  6
CONTINUOUS
 62
     7
100
AcDbVertex
100
AcDb2dVertex
 10
1365.3459105391
 20
793.9197291786
 30
0.0
  0
VERTEX
  5
670
330
19A
100
AcDbEntity
  8
0
  6
CONTINUOUS
 62
     7
100
AcDbVertex
100
AcDb2dVertex
 10
1365.049347629
 20
794.0248121674
 30
0.0
  0
VERTEX
  5
671
330
19A
100
AcDbEntity
  8
0
  6
CONTINUOUS
 62
     7
100
AcDbVertex
100
AcDb2dVertex
 10
1364.5078543324
 20
794.0877546722
 30
0.0
  0
VERTEX
  5
672
330
19A
100
AcDbEntity
  8
0
  6
CONTINUOUS
 62
     7
100
AcDbVertex
100
AcDb2dVertex
 10
1363.8021055359
 20
794.0920462067
 30
0.0
  0
VERTEX
  5
673
330
19A
100
AcDbEntity
  8
0
  6
CONTINUOUS
 62
     7
100
AcDbVertex
100
AcDb2dVertex
 10
1363.0016896624
 20
794.0495480949
 30
0.0
  0
VERTEX
  5
674
330
19A
100
AcDbEntity
  8
0
  6
CONTINUOUS
 62
     7
100
AcDbVertex
100
AcDb2dVertex
 10
1362.8894690174
 20
794.0413822586
 30
0.0
  0
SEQEND
  5
83F
330
19A
100
AcDbEntity
  8
0
  6
CONTINUOUS
 62
     7
  0
ARC
  5
19B
330
1F
100
AcDbEntity
  8
0
  6
CONTINUOUS
 62
     7
100
AcDbCircle
 10
1363.36765088
 20
779.7495163216
 30
0.0
 40
5.624983144022521
100
AcDbArc
 50
254.4545633328
 51
279.8753318111
  0
POLYLINE
  5
19C
330
1F
100
AcDbEntity
  8
0
  6
CONTINUOUS
 62
     7
100
AcDb2dPolyline
 66
     1
 10
0.0
 20
0.0
 30
0.0
 70
   128
  0
VERTEX
  5
675
330
19C
100
AcDbEntity
  8
0
  6
CONTINUOUS
 62
     7
100
AcDbVertex
100
AcDb2dVertex
 10
1364.3273118633
 20
774.2534746582
 30
0.0
  0
VERTEX
  5
676
330
19C
100
AcDbEntity
  8
0
  6
CONTINUOUS
 62
     7
100
AcDbVertex
100
AcDb2dVertex
 10
1364.3208596605
 20
774.3114699776
 30
0.0
  0
VERTEX
  5
677
330
19C
100
AcDbEntity
  8
0
  6
CONTINUOUS
 62
     7
100
AcDbVertex
100
AcDb2dVertex
 10
1364.0267703432
 20
774.3943800385
 30
0.0
  0
VERTEX
  5
678
330
19C
100
AcDbEntity
  8
0
  6
CONTINUOUS
 62
     7
100
AcDbVertex
100
AcDb2dVertex
 10
1363.4953353304
 20
774.4226326401
 30
0.0
  0
VERTEX
  5
679
330
19C
100
AcDbEntity
  8
0
  6
CONTINUOUS
 62
     7
100
AcDbVertex
100
AcDb2dVertex
 10
1362.7989593643
 20
774.3962873871
 30
0.0
  0
VERTEX
  5
67A
330
19C
100
AcDbEntity
  8
0
  6
CONTINUOUS
 62
     7
100
AcDbVertex
100
AcDb2dVertex
 10
1361.9924191136
 20
774.3385304863
 30
0.0
  0
VERTEX
  5
67B
330
19C
100
AcDbEntity
  8
0
  6
CONTINUOUS
 62
     7
100
AcDbVertex
100
AcDb2dVertex
 10
1361.1502501864
 20
774.2861976082
 30
0.0
  0
VERTEX
  5
67C
330
19C
100
AcDbEntity
  8
0
  6
CONTINUOUS
 62
     7
100
AcDbVertex
100
AcDb2dVertex
 10
1360.390797605
 20
774.2776145393
 30
0.0
  0
VERTEX
  5
67D
330
19C
100
AcDbEntity
  8
0
  6
CONTINUOUS
 62
     7
100
AcDbVertex
100
AcDb2dVertex
 10
1360.2663431067
 20
774.2882837708
 30
0.0
  0
SEQEND
  5
840
330
19C
100
AcDbEntity
  8
0
  6
CONTINUOUS
 62
     7
  0
ELLIPSE
  5
19D
330
1F
100
AcDbEntity
  8
0
  6
CONTINUOUS
 62
     7
100
AcDbEllipse
 10
1609.4351489119
 20
771.2379221224
 30
0.0
 11
11.9012033571446
 21
-0.6237156387437608
 31
0.0
210
0.0
220
0.0
230
1.0
 40
0.8390996312
 41
0.0
 42
1.570796326794887
  0
ELLIPSE
  5
19E
330
1F
100
AcDbEntity
  8
0
  6
CONTINUOUS
 62
     7
100
AcDbEllipse
 10
1609.4351489119
 20
771.2379221224
 30
0.0
 11
11.9012033571446
 21
-0.6237156387437608
 31
0.0
210
0.0
220
0.0
230
1.0
 40
0.8390996312
 41
4.712388980384691
 42
6.283185307179586
  0
ELLIPSE
  5
19F
330
1F
100
AcDbEntity
  8
0
  6
CONTINUOUS
 62
     7
100
AcDbEllipse
 10
1409.3008017597
 20
781.7265188149
 30
0.0
 11
0.5233595624295049
 21
9.986295347545706
 31
0.0
210
0.0
220
0.0
230
1.0
 40
0.8390996312
 41
0.0
 42
3.141592653589837
  0
POLYLINE
  5
1A0
330
1F
100
AcDbEntity
  8
0
  6
CONTINUOUS
 62
     7
100
AcDb2dPolyline
 66
     1
 10
0.0
 20
0.0
 30
0.0
 70
   128
  0
VERTEX
  5
67E
330
1A0
100
AcDbEntity
  8
0
  6
CONTINUOUS
 62
     7
100
AcDbVertex
100
AcDb2dVertex
 10
1704.6972516674
 20
1017.4482335503
 30
0.0
  0
VERTEX
  5
67F
330
1A0
100
AcDbEntity
  8
0
  6
CONTINUOUS
 62
     7
100
AcDbVertex
100
AcDb2dVertex
 10
1704.74925672
 20
1017.5749530251
 30
0.0
  0
VERTEX
  5
680
330
1A0
100
AcDbEntity
  8
0
  6
CONTINUOUS
 62
     7
100
AcDbVertex
100
AcDb2dVertex
 10
1704.9128416676
 20
1017.9358591492
 30
0.0
  0
VERTEX
  5
681
330
1A0
100
AcDbEntity
  8
0
  6
CONTINUOUS
 62
     7
100
AcDbVertex
100
AcDb2dVertex
 10
1705.1510814327
 20
1018.5065140183
 30
0.0
  0
VERTEX
  5
682
330
1A0
100
AcDbEntity
  8
0
  6
CONTINUOUS
 62
     7
100
AcDbVertex
100
AcDb2dVertex
 10
1705.4095271725
 20
1019.2454327995
 30
0.0
  0
VERTEX
  5
683
330
1A0
100
AcDbEntity
  8
0
  6
CONTINUOUS
 62
     7
100
AcDbVertex
100
AcDb2dVertex
 10
1705.6233290333
 20
1020.0549830849
 30
0.0
  0
VERTEX
  5
684
330
1A0
100
AcDbEntity
  8
0
  6
CONTINUOUS
 62
     7
100
AcDbVertex
100
AcDb2dVertex
 10
1705.7595852512
 20
1020.8316316063
 30
0.0
  0
VERTEX
  5
685
330
1A0
100
AcDbEntity
  8
0
  6
CONTINUOUS
 62
     7
100
AcDbVertex
100
AcDb2dVertex
 10
1705.8238390583
 20
1021.511243766
 30
0.0
  0
VERTEX
  5
686
330
1A0
100
AcDbEntity
  8
0
  6
CONTINUOUS
 62
     7
100
AcDbVertex
100
AcDb2dVertex
 10
1705.8370116848
 20
1022.026704734
 30
0.0
  0
VERTEX
  5
687
330
1A0
100
AcDbEntity
  8
0
  6
CONTINUOUS
 62
     7
100
AcDbVertex
100
AcDb2dVertex
 10
1705.8269683022
 20
1022.2942103798
 30
0.0
  0
VERTEX
  5
688
330
1A0
100
AcDbEntity
  8
0
  6
CONTINUOUS
 62
     7
100
AcDbVertex
100
AcDb2dVertex
 10
1705.8207992214
 20
1022.2816934044
 30
0.0
  0
SEQEND
  5
841
330
1A0
100
AcDbEntity
  8
0
  6
CONTINUOUS
 62
     7
  0
ARC
  5
1A1
330
1F
100
AcDbEntity
  8
0
  6
CONTINUOUS
 62
     7
100
AcDbCircle
 10
1734.6233119529
 20
1013.1046638886
 30
0.0
 40
10.43999396363066
100
AcDbArc
 50
153.1644506546
 51
180.6437767726
  0
ARC
  5
1A2
330
1F
100
AcDbEntity
  8
0
  6
CONTINUOUS
 62
     7
100
AcDbCircle
 10
1739.8551497098
 20
1011.1700975336
 30
0.0
 40
15.9943510450637
100
AcDbArc
 50
155.441893752
 51
164.9082519065
  0
ARC
  5
1A3
330
1F
100
AcDbEntity
  8
0
  6
CONTINUOUS
 62
     7
100
AcDbCircle
 10
1730.2436613066
 20
1083.6520308766
 30
0.0
 40
10.00000000000004
100
AcDbArc
 50
0.0
 51
167.0
  0
POLYLINE
  5
1A4
330
1F
100
AcDbEntity
  8
0
  6
CONTINUOUS
 62
     7
100
AcDb2dPolyline
 66
     1
 10
0.0
 20
0.0
 30
0.0
 70
   128
  0
VERTEX
  5
689
330
1A4
100
AcDbEntity
  8
0
  6
CONTINUOUS
 62
     7
100
AcDbVertex
100
AcDb2dVertex
 10
1739.9873736996
 20
1081.4025272781
 30
0.0
  0
VERTEX
  5
68A
330
1A4
100
AcDbEntity
  8
0
  6
CONTINUOUS
 62
     7
100
AcDbVertex
100
AcDb2dVertex
 10
1740.0629523892
 20
1081.7594994957
 30
0.0
  0
VERTEX
  5
68B
330
1A4
100
AcDbEntity
  8
0
  6
CONTINUOUS
 62
     7
100
AcDbVertex
100
AcDb2dVertex
 10
1740.2436736721
 20
1083.652006572
 30
0.0
  0
SEQEND
  5
842
330
1A4
100
AcDbEntity
  8
0
  6
CONTINUOUS
 62
     7
  0
LINE
  5
1A5
330
1F
100
AcDbEntity
  8
0
  6
CONTINUOUS
 62
     7
100
AcDbLine
 10
1714.6108750004
 20
1131.1051120216
 30
0.0
 11
1721.8277755875
 21
1129.4389237816
 31
0.0
  0
LINE
  5
1A6
330
1F
100
AcDbEntity
  8
0
  6
CONTINUOUS
 62
     7
100
AcDbLine
 10
1683.5860911507
 20
963.7960066254
 30
0.0
 11
1676.3691905636
 21
965.4621948654
 31
0.0
  0
POLYLINE
  5
1A7
330
1F
100
AcDbEntity
  8
0
  6
CONTINUOUS
 62
     7
100
AcDb2dPolyline
 66
     1
 10
0.0
 20
0.0
 30
0.0
 70
   128
  0
VERTEX
  5
68C
330
1A7
100
AcDbEntity
  8
0
  6
CONTINUOUS
 62
     7
100
AcDbVertex
100
AcDb2dVertex
 10
1696.1808506149
 20
991.6773905212
 30
0.0
  0
VERTEX
  5
68D
330
1A7
100
AcDbEntity
  8
0
  6
CONTINUOUS
 62
     7
100
AcDbVertex
100
AcDb2dVertex
 10
1695.4761448998
 20
988.6250962669
 30
0.0
  0
VERTEX
  5
68E
330
1A7
100
AcDbEntity
  8
0
  6
CONTINUOUS
 62
     7
100
AcDbVertex
100
AcDb2dVertex
 10
1694.7835389275
 20
985.6249560768
 30
0.0
  0
VERTEX
  5
68F
330
1A7
100
AcDbEntity
  8
0
  6
CONTINUOUS
 62
     7
100
AcDbVertex
100
AcDb2dVertex
 10
1694.1148046154
 20
982.7284087593
 30
0.0
  0
VERTEX
  5
690
330
1A7
100
AcDbEntity
  8
0
  6
CONTINUOUS
 62
     7
100
AcDbVertex
100
AcDb2dVertex
 10
1693.48144566
 20
979.9849857742
 30
0.0
  0
VERTEX
  5
691
330
1A7
100
AcDbEntity
  8
0
  6
CONTINUOUS
 62
     7
100
AcDbVertex
100
AcDb2dVertex
 10
1692.894250502
 20
977.441595977
 30
0.0
  0
VERTEX
  5
692
330
1A7
100
AcDbEntity
  8
0
  6
CONTINUOUS
 62
     7
100
AcDbVertex
100
AcDb2dVertex
 10
1692.3632923264
 20
975.141810363
 30
0.0
  0
VERTEX
  5
693
330
1A7
100
AcDbEntity
  8
0
  6
CONTINUOUS
 62
     7
100
AcDbVertex
100
AcDb2dVertex
 10
1691.8976608414
 20
973.1249679977
 30
0.0
  0
VERTEX
  5
694
330
1A7
100
AcDbEntity
  8
0
  6
CONTINUOUS
 62
     7
100
AcDbVertex
100
AcDb2dVertex
 10
1691.5053132671
 20
971.4255203659
 30
0.0
  0
VERTEX
  5
695
330
1A7
100
AcDbEntity
  8
0
  6
CONTINUOUS
 62
     7
100
AcDbVertex
100
AcDb2dVertex
 10
1691.1929849285
 20
970.0726141388
 30
0.0
  0
VERTEX
  5
696
330
1A7
100
AcDbEntity
  8
0
  6
CONTINUOUS
 62
     7
100
AcDbVertex
100
AcDb2dVertex
 10
1690.9659806389
 20
969.0893759186
 30
0.0
  0
VERTEX
  5
697
330
1A7
100
AcDbEntity
  8
0
  6
CONTINUOUS
 62
     7
100
AcDbVertex
100
AcDb2dVertex
 10
1690.8282045025
 20
968.4926142151
 30
0.0
  0
VERTEX
  5
698
330
1A7
100
AcDbEntity
  8
0
  6
CONTINUOUS
 62
     7
100
AcDbVertex
100
AcDb2dVertex
 10
1690.7820109028
 20
968.2925214226
 30
0.0
  0
SEQEND
  5
843
330
1A7
100
AcDbEntity
  8
0
  6
CONTINUOUS
 62
     7
  0
ARC
  5
1A8
330
1F
100
AcDbEntity
  8
0
  6
CONTINUOUS
 62
     7
100
AcDbCircle
 10
1684.9358020114
 20
969.6422438517
 30
0.0
 40
6.000000000000035
100
AcDbArc
 50
257.0
 51
347.0
  0
POLYLINE
  5
1A9
330
1F
100
AcDbEntity
  8
0
  6
CONTINUOUS
 62
     7
100
AcDb2dPolyline
 66
     1
 10
0.0
 20
0.0
 30
0.0
 70
   128
  0
VERTEX
  5
699
330
1A9
100
AcDbEntity
  8
0
  6
CONTINUOUS
 62
     7
100
AcDbVertex
100
AcDb2dVertex
 10
1726.3242605824
 20
1122.2429742271
 30
0.0
  0
VERTEX
  5
69A
330
1A9
100
AcDbEntity
  8
0
  6
CONTINUOUS
 62
     7
100
AcDbVertex
100
AcDb2dVertex
 10
1726.2781265873
 20
1122.0429410393
 30
0.0
  0
VERTEX
  5
69B
330
1A9
100
AcDbEntity
  8
0
  6
CONTINUOUS
 62
     7
100
AcDbVertex
100
AcDb2dVertex
 10
1726.1403206486
 20
1121.4461793358
 30
0.0
  0
VERTEX
  5
69C
330
1A9
100
AcDbEntity
  8
0
  6
CONTINUOUS
 62
     7
100
AcDbVertex
100
AcDb2dVertex
 10
1725.9133461613
 20
1120.4629411156
 30
0.0
  0
VERTEX
  5
69D
330
1A9
100
AcDbEntity
  8
0
  6
CONTINUOUS
 62
     7
100
AcDbVertex
100
AcDb2dVertex
 10
1725.600958218
 20
1119.1100348885
 30
0.0
  0
VERTEX
  5
69E
330
1A9
100
AcDbEntity
  8
0
  6
CONTINUOUS
 62
     7
100
AcDbVertex
100
AcDb2dVertex
 10
1725.2086404461
 20
1117.4105872566
 30
0.0
  0
VERTEX
  5
69F
330
1A9
100
AcDbEntity
  8
0
  6
CONTINUOUS
 62
     7
100
AcDbVertex
100
AcDb2dVertex
 10
1724.7430089611
 20
1115.3936852867
 30
0.0
  0
VERTEX
  5
6A0
330
1A9
100
AcDbEntity
  8
0
  6
CONTINUOUS
 62
     7
100
AcDbVertex
100
AcDb2dVertex
 10
1724.2120507855
 20
1113.0938996727
 30
0.0
  0
VERTEX
  5
6A1
330
1A9
100
AcDbEntity
  8
0
  6
CONTINUOUS
 62
     7
100
AcDbVertex
100
AcDb2dVertex
 10
1723.6248854298
 20
1110.5505694801
 30
0.0
  0
VERTEX
  5
6A2
330
1A9
100
AcDbEntity
  8
0
  6
CONTINUOUS
 62
     7
100
AcDbVertex
100
AcDb2dVertex
 10
1722.9914966721
 20
1107.8070868904
 30
0.0
  0
VERTEX
  5
6A3
330
1A9
100
AcDbEntity
  8
0
  6
CONTINUOUS
 62
     7
100
AcDbVertex
100
AcDb2dVertex
 10
1722.3227921623
 20
1104.9105395729
 30
0.0
  0
VERTEX
  5
6A4
330
1A9
100
AcDbEntity
  8
0
  6
CONTINUOUS
 62
     7
100
AcDbVertex
100
AcDb2dVertex
 10
1721.6301563877
 20
1101.9105185921
 30
0.0
  0
VERTEX
  5
6A5
330
1A9
100
AcDbEntity
  8
0
  6
CONTINUOUS
 62
     7
100
AcDbVertex
100
AcDb2dVertex
 10
1720.9254506725
 20
1098.8581647331
 30
0.0
  0
SEQEND
  5
844
330
1A9
100
AcDbEntity
  8
0
  6
CONTINUOUS
 62
     7
  0
ARC
  5
1AA
330
1F
100
AcDbEntity
  8
0
  6
CONTINUOUS
 62
     7
100
AcDbCircle
 10
1720.4780685977
 20
1123.5927140878
 30
0.0
 40
6.000000000000316
100
AcDbArc
 50
347.0
 51
77.0
  0
LINE
  5
1AB
330
1F
100
AcDbEntity
  8
0
  6
CONTINUOUS
 62
     7
100
AcDbLine
 10
1720.9254506725
 20
1098.8581647331
 30
0.0
 11
1696.1808506149
 21
991.6773905212
 31
0.0
  0
ARC
  5
1AC
330
1F
100
AcDbEntity
  8
0
  6
CONTINUOUS
 62
     7
100
AcDbCircle
 10
1264.3650951918
 20
363.2383441129
 30
0.0
 40
10.00000000000008
100
AcDbArc
 50
87.0
 51
267.0
  0
LINE
  5
1AD
330
1F
100
AcDbEntity
  8
0
  6
CONTINUOUS
 62
     7
100
AcDbLine
 10
278.2440172593
 20
1382.2548429354
 30
0.0
 11
598.2440101067
 21
1382.2548429354
 31
0.0
  0
LINE
  5
1AE
330
1F
100
AcDbEntity
  8
0
  6
CONTINUOUS
 62
     7
100
AcDbLine
 10
699.0881847302
 20
1893.0389995559
 30
0.0
 11
699.3885027329
 21
1893.3963890059
 31
0.0
  0
LINE
  5
1AF
330
1F
100
AcDbEntity
  8
0
  6
CONTINUOUS
 62
     7
100
AcDbLine
 10
684.0763079087
 20
1906.2625284179
 30
0.0
 11
683.7759750048
 21
1905.9050793631
 31
0.0
  0
LINE
  5
1B0
330
1F
100
AcDbEntity
  8
0
  6
CONTINUOUS
 62
     7
100
AcDbLine
 10
192.7120523612
 20
1905.9050793631
 30
0.0
 11
192.4117194573
 21
1906.2625284179
 31
0.0
  0
LINE
  5
1B1
330
1F
100
AcDbEntity
  8
0
  6
CONTINUOUS
 62
     7
100
AcDbLine
 10
177.0995246331
 20
1893.3963890059
 30
0.0
 11
177.3998426358
 21
1893.0389995559
 31
0.0
  0
POLYLINE
  5
1B2
330
1F
100
AcDbEntity
  8
0
  6
CONTINUOUS
 62
     7
100
AcDb2dPolyline
 66
     1
 10
0.0
 20
0.0
 30
0.0
 70
   128
  0
VERTEX
  5
6A6
330
1B2
100
AcDbEntity
  8
0
  6
CONTINUOUS
 62
     7
100
AcDbVertex
100
AcDb2dVertex
 10
635.4922788302
 20
1407.6485524757
 30
0.0
  0
VERTEX
  5
6A7
330
1B2
100
AcDbEntity
  8
0
  6
CONTINUOUS
 62
     7
100
AcDbVertex
100
AcDb2dVertex
 10
635.6188492934
 20
1407.5424860103
 30
0.0
  0
VERTEX
  5
6A8
330
1B2
100
AcDbEntity
  8
0
  6
CONTINUOUS
 62
     7
100
AcDbVertex
100
AcDb2dVertex
 10
636.7999600331
 20
1406.5527806862
 30
0.0
  0
VERTEX
  5
6A9
330
1B2
100
AcDbEntity
  8
0
  6
CONTINUOUS
 62
     7
100
AcDbVertex
100
AcDb2dVertex
 10
637.7238916318
 20
1405.7785759552
 30
0.0
  0
VERTEX
  5
6AA
330
1B2
100
AcDbEntity
  8
0
  6
CONTINUOUS
 62
     7
100
AcDbVertex
100
AcDb2dVertex
 10
638.3823292414
 20
1405.2268381102
 30
0.0
  0
VERTEX
  5
6AB
330
1B2
100
AcDbEntity
  8
0
  6
CONTINUOUS
 62
     7
100
AcDbVertex
100
AcDb2dVertex
 10
638.7693422
 20
1404.9025366886
 30
0.0
  0
SEQEND
  5
845
330
1B2
100
AcDbEntity
  8
0
  6
CONTINUOUS
 62
     7
  0
POLYLINE
  5
1B3
330
1F
100
AcDbEntity
  8
0
  6
CONTINUOUS
 62
     7
100
AcDb2dPolyline
 66
     1
 10
0.0
 20
0.0
 30
0.0
 70
   128
  0
VERTEX
  5
6AC
330
1B3
100
AcDbEntity
  8
0
  6
CONTINUOUS
 62
     7
100
AcDbVertex
100
AcDb2dVertex
 10
651.6147540967
 20
1420.2320988162
 30
0.0
  0
VERTEX
  5
6AD
330
1B3
100
AcDbEntity
  8
0
  6
CONTINUOUS
 62
     7
100
AcDbVertex
100
AcDb2dVertex
 10
651.227726237
 20
1420.5564002378
 30
0.0
  0
VERTEX
  5
6AE
330
1B3
100
AcDbEntity
  8
0
  6
CONTINUOUS
 62
     7
100
AcDbVertex
100
AcDb2dVertex
 10
650.5693035285
 20
1421.1081380828
 30
0.0
  0
VERTEX
  5
6AF
330
1B3
100
AcDbEntity
  8
0
  6
CONTINUOUS
 62
     7
100
AcDbVertex
100
AcDb2dVertex
 10
649.6453719298
 20
1421.8823428138
 30
0.0
  0
VERTEX
  5
6B0
330
1B3
100
AcDbEntity
  8
0
  6
CONTINUOUS
 62
     7
100
AcDbVertex
100
AcDb2dVertex
 10
648.4642611901
 20
1422.8720555885
 30
0.0
  0
VERTEX
  5
6B1
330
1B3
100
AcDbEntity
  8
0
  6
CONTINUOUS
 62
     7
100
AcDbVertex
100
AcDb2dVertex
 10
647.0365958373
 20
1424.0683580621
 30
0.0
  0
VERTEX
  5
6B2
330
1B3
100
AcDbEntity
  8
0
  6
CONTINUOUS
 62
     7
100
AcDbVertex
100
AcDb2dVertex
 10
645.3752504746
 20
1425.460491596
 30
0.0
  0
VERTEX
  5
6B3
330
1B3
100
AcDbEntity
  8
0
  6
CONTINUOUS
 62
     7
100
AcDbVertex
100
AcDb2dVertex
 10
643.4951411645
 20
1427.0359317644
 30
0.0
  0
VERTEX
  5
6B4
330
1B3
100
AcDbEntity
  8
0
  6
CONTINUOUS
 62
     7
100
AcDbVertex
100
AcDb2dVertex
 10
641.413195626
 20
1428.7804852112
 30
0.0
  0
VERTEX
  5
6B5
330
1B3
100
AcDbEntity
  8
0
  6
CONTINUOUS
 62
     7
100
AcDbVertex
100
AcDb2dVertex
 10
639.148174421
 20
1430.6784684642
 30
0.0
  0
VERTEX
  5
6B6
330
1B3
100
AcDbEntity
  8
0
  6
CONTINUOUS
 62
     7
100
AcDbVertex
100
AcDb2dVertex
 10
638.2440166632
 20
1431.4361031039
 30
0.0
  0
SEQEND
  5
846
330
1B3
100
AcDbEntity
  8
0
  6
CONTINUOUS
 62
     7
  0
LINE
  5
1B4
330
1F
100
AcDbEntity
  8
0
  6
CONTINUOUS
 62
     7
100
AcDbLine
 10
618.2440208356
 20
1796.8247051223
 30
0.0
 11
626.2035952966
 21
1806.2975819095
 31
0.0
  0
POLYLINE
  5
1B5
330
1F
100
AcDbEntity
  8
0
  6
CONTINUOUS
 62
     7
100
AcDb2dPolyline
 66
     1
 10
0.0
 20
0.0
 30
0.0
 70
   128
  0
VERTEX
  5
6B7
330
1B5
100
AcDbEntity
  8
0
  6
CONTINUOUS
 62
     7
100
AcDbVertex
100
AcDb2dVertex
 10
635.416089193
 20
1848.351013182
 30
0.0
  0
VERTEX
  5
6B8
330
1B5
100
AcDbEntity
  8
0
  6
CONTINUOUS
 62
     7
100
AcDbVertex
100
AcDb2dVertex
 10
635.0200461308
 20
1847.8796596511
 30
0.0
  0
VERTEX
  5
6B9
330
1B5
100
AcDbEntity
  8
0
  6
CONTINUOUS
 62
     7
100
AcDbVertex
100
AcDb2dVertex
 10
634.4006644646
 20
1847.1425290091
 30
0.0
  0
VERTEX
  5
6BA
330
1B5
100
AcDbEntity
  8
0
  6
CONTINUOUS
 62
     7
100
AcDbVertex
100
AcDb2dVertex
 10
633.5634725253
 20
1846.1461777671
 30
0.0
  0
VERTEX
  5
6BB
330
1B5
100
AcDbEntity
  8
0
  6
CONTINUOUS
 62
     7
100
AcDbVertex
100
AcDb2dVertex
 10
632.5158761899
 20
1844.8994274123
 30
0.0
  0
VERTEX
  5
6BC
330
1B5
100
AcDbEntity
  8
0
  6
CONTINUOUS
 62
     7
100
AcDbVertex
100
AcDb2dVertex
 10
631.2671886842
 20
1843.4133048041
 30
0.0
  0
VERTEX
  5
6BD
330
1B5
100
AcDbEntity
  8
0
  6
CONTINUOUS
 62
     7
100
AcDbVertex
100
AcDb2dVertex
 10
629.8284815709
 20
1841.7010421737
 30
0.0
  0
VERTEX
  5
6BE
330
1B5
100
AcDbEntity
  8
0
  6
CONTINUOUS
 62
     7
100
AcDbVertex
100
AcDb2dVertex
 10
628.2125251452
 20
1839.77789831
 30
0.0
  0
VERTEX
  5
6BF
330
1B5
100
AcDbEntity
  8
0
  6
CONTINUOUS
 62
     7
100
AcDbVertex
100
AcDb2dVertex
 10
626.4336692254
 20
1837.6608605368
 30
0.0
  0
VERTEX
  5
6C0
330
1B5
100
AcDbEntity
  8
0
  6
CONTINUOUS
 62
     7
100
AcDbVertex
100
AcDb2dVertex
 10
624.5077090422
 20
1835.3687043174
 30
0.0
  0
VERTEX
  5
6C1
330
1B5
100
AcDbEntity
  8
0
  6
CONTINUOUS
 62
     7
100
AcDbVertex
100
AcDb2dVertex
 10
622.4517362277
 20
1832.9218740447
 30
0.0
  0
VERTEX
  5
6C2
330
1B5
100
AcDbEntity
  8
0
  6
CONTINUOUS
 62
     7
100
AcDbVertex
100
AcDb2dVertex
 10
620.283989803
 20
1830.3420062049
 30
0.0
  0
VERTEX
  5
6C3
330
1B5
100
AcDbEntity
  8
0
  6
CONTINUOUS
 62
     7
100
AcDbVertex
100
AcDb2dVertex
 10
618.0237220685
 20
1827.6519889815
 30
0.0
  0
VERTEX
  5
6C4
330
1B5
100
AcDbEntity
  8
0
  6
CONTINUOUS
 62
     7
100
AcDbVertex
100
AcDb2dVertex
 10
615.6909750859
 20
1824.8757238372
 30
0.0
  0
VERTEX
  5
6C5
330
1B5
100
AcDbEntity
  8
0
  6
CONTINUOUS
 62
     7
100
AcDbVertex
100
AcDb2dVertex
 10
613.6584566991
 20
1822.4567885383
 30
0.0
  0
SEQEND
  5
847
330
1B5
100
AcDbEntity
  8
0
  6
CONTINUOUS
 62
     7
  0
POLYLINE
  5
1B6
330
1F
100
AcDbEntity
  8
0
  6
CONTINUOUS
 62
     7
100
AcDb2dPolyline
 66
     1
 10
0.0
 20
0.0
 30
0.0
 70
   128
  0
VERTEX
  5
6C6
330
1B6
100
AcDbEntity
  8
0
  6
CONTINUOUS
 62
     7
100
AcDbVertex
100
AcDb2dVertex
 10
626.2035952966
 20
1806.2975819095
 30
0.0
  0
VERTEX
  5
6C7
330
1B6
100
AcDbEntity
  8
0
  6
CONTINUOUS
 62
     7
100
AcDbVertex
100
AcDb2dVertex
 10
628.6186860959
 20
1809.1718072875
 30
0.0
  0
VERTEX
  5
6C8
330
1B6
100
AcDbEntity
  8
0
  6
CONTINUOUS
 62
     7
100
AcDbVertex
100
AcDb2dVertex
 10
631.0031848113
 20
1812.0096440299
 30
0.0
  0
VERTEX
  5
6C9
330
1B6
100
AcDbEntity
  8
0
  6
CONTINUOUS
 62
     7
100
AcDbVertex
100
AcDb2dVertex
 10
633.3359168927
 20
1814.7858793719
 30
0.0
  0
VERTEX
  5
6CA
330
1B6
100
AcDbEntity
  8
0
  6
CONTINUOUS
 62
     7
100
AcDbVertex
100
AcDb2dVertex
 10
635.5961846272
 20
1817.4758965953
 30
0.0
  0
VERTEX
  5
6CB
330
1B6
100
AcDbEntity
  8
0
  6
CONTINUOUS
 62
     7
100
AcDbVertex
100
AcDb2dVertex
 10
637.7639310519
 20
1820.0557644351
 30
0.0
  0
VERTEX
  5
6CC
330
1B6
100
AcDbEntity
  8
0
  6
CONTINUOUS
 62
     7
100
AcDbVertex
100
AcDb2dVertex
 10
639.8199187676
 20
1822.5026245101
 30
0.0
  0
VERTEX
  5
6CD
330
1B6
100
AcDbEntity
  8
0
  6
CONTINUOUS
 62
     7
100
AcDbVertex
100
AcDb2dVertex
 10
641.7458789508
 20
1824.7947807296
 30
0.0
  0
VERTEX
  5
6CE
330
1B6
100
AcDbEntity
  8
0
  6
CONTINUOUS
 62
     7
100
AcDbVertex
100
AcDb2dVertex
 10
643.5247348706
 20
1826.9118185027
 30
0.0
  0
VERTEX
  5
6CF
330
1B6
100
AcDbEntity
  8
0
  6
CONTINUOUS
 62
     7
100
AcDbVertex
100
AcDb2dVertex
 10
645.1406763951
 20
1828.8349623664
 30
0.0
  0
VERTEX
  5
6D0
330
1B6
100
AcDbEntity
  8
0
  6
CONTINUOUS
 62
     7
100
AcDbVertex
100
AcDb2dVertex
 10
646.5793835084
 20
1830.5472249968
 30
0.0
  0
VERTEX
  5
6D1
330
1B6
100
AcDbEntity
  8
0
  6
CONTINUOUS
 62
     7
100
AcDbVertex
100
AcDb2dVertex
 10
647.8280710141
 20
1832.0332880004
 30
0.0
  0
VERTEX
  5
6D2
330
1B6
100
AcDbEntity
  8
0
  6
CONTINUOUS
 62
     7
100
AcDbVertex
100
AcDb2dVertex
 10
648.8756673495
 20
1833.2800383551
 30
0.0
  0
VERTEX
  5
6D3
330
1B6
100
AcDbEntity
  8
0
  6
CONTINUOUS
 62
     7
100
AcDbVertex
100
AcDb2dVertex
 10
649.71287419
 20
1834.2764492019
 30
0.0
  0
VERTEX
  5
6D4
330
1B6
100
AcDbEntity
  8
0
  6
CONTINUOUS
 62
     7
100
AcDbVertex
100
AcDb2dVertex
 10
650.332240955
 20
1835.0135798438
 30
0.0
  0
VERTEX
  5
6D5
330
1B6
100
AcDbEntity
  8
0
  6
CONTINUOUS
 62
     7
100
AcDbVertex
100
AcDb2dVertex
 10
650.7282989184
 20
1835.4849333747
 30
0.0
  0
SEQEND
  5
848
330
1B6
100
AcDbEntity
  8
0
  6
CONTINUOUS
 62
     7
  0
LINE
  5
1B7
330
1F
100
AcDbEntity
  8
0
  6
CONTINUOUS
 62
     7
100
AcDbLine
 10
638.7693422
 20
1404.9025366886
 30
0.0
 11
669.8783027093
 21
1378.8347954734
 31
0.0
  0
LINE
  5
1B8
330
1F
100
AcDbEntity
  8
0
  6
CONTINUOUS
 62
     7
100
AcDbLine
 10
683.830438749
 20
1393.2369689329
 30
0.0
 11
651.6147540967
 21
1420.2320988162
 31
0.0
  0
LINE
  5
1B9
330
1F
100
AcDbEntity
  8
0
  6
CONTINUOUS
 62
     7
100
AcDbLine
 10
683.7759750048
 20
1905.9050793631
 30
0.0
 11
635.416089193
 21
1848.351013182
 31
0.0
  0
LINE
  5
1BA
330
1F
100
AcDbEntity
  8
0
  6
CONTINUOUS
 62
     7
100
AcDbLine
 10
650.7282989184
 20
1835.4849333747
 30
0.0
 11
699.0881847302
 21
1893.0389995559
 31
0.0
  0
POLYLINE
  5
1BB
330
1F
100
AcDbEntity
  8
0
  6
CONTINUOUS
 62
     7
100
AcDb2dPolyline
 66
     1
 10
0.0
 20
0.0
 30
0.0
 70
   128
  0
VERTEX
  5
6D6
330
1BB
100
AcDbEntity
  8
0
  6
CONTINUOUS
 62
     7
100
AcDbVertex
100
AcDb2dVertex
 10
237.7186851661
 20
1404.9025366886
 30
0.0
  0
VERTEX
  5
6D7
330
1BB
100
AcDbEntity
  8
0
  6
CONTINUOUS
 62
     7
100
AcDbVertex
100
AcDb2dVertex
 10
238.1056981246
 20
1405.2268381102
 30
0.0
  0
VERTEX
  5
6D8
330
1BB
100
AcDbEntity
  8
0
  6
CONTINUOUS
 62
     7
100
AcDbVertex
100
AcDb2dVertex
 10
238.7641357342
 20
1405.7785759552
 30
0.0
  0
VERTEX
  5
6D9
330
1BB
100
AcDbEntity
  8
0
  6
CONTINUOUS
 62
     7
100
AcDbVertex
100
AcDb2dVertex
 10
239.6880673329
 20
1406.5527806862
 30
0.0
  0
VERTEX
  5
6DA
330
1BB
100
AcDbEntity
  8
0
  6
CONTINUOUS
 62
     7
100
AcDbVertex
100
AcDb2dVertex
 10
240.8691780726
 20
1407.5424860103
 30
0.0
  0
VERTEX
  5
6DB
330
1BB
100
AcDbEntity
  8
0
  6
CONTINUOUS
 62
     7
100
AcDbVertex
100
AcDb2dVertex
 10
240.9957485358
 20
1407.6485524757
 30
0.0
  0
SEQEND
  5
849
330
1BB
100
AcDbEntity
  8
0
  6
CONTINUOUS
 62
     7
  0
POLYLINE
  5
1BC
330
1F
100
AcDbEntity
  8
0
  6
CONTINUOUS
 62
     7
100
AcDb2dPolyline
 66
     1
 10
0.0
 20
0.0
 30
0.0
 70
   128
  0
VERTEX
  5
6DC
330
1BC
100
AcDbEntity
  8
0
  6
CONTINUOUS
 62
     7
100
AcDbVertex
100
AcDb2dVertex
 10
238.2440107028
 20
1431.4361031039
 30
0.0
  0
VERTEX
  5
6DD
330
1BC
100
AcDbEntity
  8
0
  6
CONTINUOUS
 62
     7
100
AcDbVertex
100
AcDb2dVertex
 10
237.339852945
 20
1430.6784684642
 30
0.0
  0
VERTEX
  5
6DE
330
1BC
100
AcDbEntity
  8
0
  6
CONTINUOUS
 62
     7
100
AcDbVertex
100
AcDb2dVertex
 10
235.0748317401
 20
1428.7804852112
 30
0.0
  0
VERTEX
  5
6DF
330
1BC
100
AcDbEntity
  8
0
  6
CONTINUOUS
 62
     7
100
AcDbVertex
100
AcDb2dVertex
 10
232.9928862015
 20
1427.0359317644
 30
0.0
  0
VERTEX
  5
6E0
330
1BC
100
AcDbEntity
  8
0
  6
CONTINUOUS
 62
     7
100
AcDbVertex
100
AcDb2dVertex
 10
231.1127768914
 20
1425.460491596
 30
0.0
  0
VERTEX
  5
6E1
330
1BC
100
AcDbEntity
  8
0
  6
CONTINUOUS
 62
     7
100
AcDbVertex
100
AcDb2dVertex
 10
229.4514315287
 20
1424.0683580621
 30
0.0
  0
VERTEX
  5
6E2
330
1BC
100
AcDbEntity
  8
0
  6
CONTINUOUS
 62
     7
100
AcDbVertex
100
AcDb2dVertex
 10
228.0237661759
 20
1422.8720555885
 30
0.0
  0
VERTEX
  5
6E3
330
1BC
100
AcDbEntity
  8
0
  6
CONTINUOUS
 62
     7
100
AcDbVertex
100
AcDb2dVertex
 10
226.8426554362
 20
1421.8823428138
 30
0.0
  0
VERTEX
  5
6E4
330
1BC
100
AcDbEntity
  8
0
  6
CONTINUOUS
 62
     7
100
AcDbVertex
100
AcDb2dVertex
 10
225.9187238375
 20
1421.1081380828
 30
0.0
  0
VERTEX
  5
6E5
330
1BC
100
AcDbEntity
  8
0
  6
CONTINUOUS
 62
     7
100
AcDbVertex
100
AcDb2dVertex
 10
225.260301129
 20
1420.5564002378
 30
0.0
  0
VERTEX
  5
6E6
330
1BC
100
AcDbEntity
  8
0
  6
CONTINUOUS
 62
     7
100
AcDbVertex
100
AcDb2dVertex
 10
224.8732732693
 20
1420.2320988162
 30
0.0
  0
SEQEND
  5
84A
330
1BC
100
AcDbEntity
  8
0
  6
CONTINUOUS
 62
     7
  0
LINE
  5
1BD
330
1F
100
AcDbEntity
  8
0
  6
CONTINUOUS
 62
     7
100
AcDbLine
 10
250.2844320695
 20
1806.2975819095
 30
0.0
 11
258.2440065305
 21
1796.8247051223
 31
0.0
  0
POLYLINE
  5
1BE
330
1F
100
AcDbEntity
  8
0
  6
CONTINUOUS
 62
     7
100
AcDb2dPolyline
 66
     1
 10
0.0
 20
0.0
 30
0.0
 70
   128
  0
VERTEX
  5
6E7
330
1BE
100
AcDbEntity
  8
0
  6
CONTINUOUS
 62
     7
100
AcDbVertex
100
AcDb2dVertex
 10
262.8347264687
 20
1822.4506492598
 30
0.0
  0
VERTEX
  5
6E8
330
1BE
100
AcDbEntity
  8
0
  6
CONTINUOUS
 62
     7
100
AcDbVertex
100
AcDb2dVertex
 10
260.7970522801
 20
1824.8757238372
 30
0.0
  0
VERTEX
  5
6E9
330
1BE
100
AcDbEntity
  8
0
  6
CONTINUOUS
 62
     7
100
AcDbVertex
100
AcDb2dVertex
 10
258.4643052975
 20
1827.6519889815
 30
0.0
  0
VERTEX
  5
6EA
330
1BE
100
AcDbEntity
  8
0
  6
CONTINUOUS
 62
     7
100
AcDbVertex
100
AcDb2dVertex
 10
256.204037563
 20
1830.3420062049
 30
0.0
  0
VERTEX
  5
6EB
330
1BE
100
AcDbEntity
  8
0
  6
CONTINUOUS
 62
     7
100
AcDbVertex
100
AcDb2dVertex
 10
254.0362911383
 20
1832.9218740447
 30
0.0
  0
VERTEX
  5
6EC
330
1BE
100
AcDbEntity
  8
0
  6
CONTINUOUS
 62
     7
100
AcDbVertex
100
AcDb2dVertex
 10
251.9803183238
 20
1835.3687043174
 30
0.0
  0
VERTEX
  5
6ED
330
1BE
100
AcDbEntity
  8
0
  6
CONTINUOUS
 62
     7
100
AcDbVertex
100
AcDb2dVertex
 10
250.0543581406
 20
1837.6608605368
 30
0.0
  0
VERTEX
  5
6EE
330
1BE
100
AcDbEntity
  8
0
  6
CONTINUOUS
 62
     7
100
AcDbVertex
100
AcDb2dVertex
 10
248.2755022208
 20
1839.77789831
 30
0.0
  0
VERTEX
  5
6EF
330
1BE
100
AcDbEntity
  8
0
  6
CONTINUOUS
 62
     7
100
AcDbVertex
100
AcDb2dVertex
 10
246.6595457951
 20
1841.7010421737
 30
0.0
  0
VERTEX
  5
6F0
330
1BE
100
AcDbEntity
  8
0
  6
CONTINUOUS
 62
     7
100
AcDbVertex
100
AcDb2dVertex
 10
245.2208386819
 20
1843.4133048041
 30
0.0
  0
VERTEX
  5
6F1
330
1BE
100
AcDbEntity
  8
0
  6
CONTINUOUS
 62
     7
100
AcDbVertex
100
AcDb2dVertex
 10
243.9721511761
 20
1844.8994274123
 30
0.0
  0
VERTEX
  5
6F2
330
1BE
100
AcDbEntity
  8
0
  6
CONTINUOUS
 62
     7
100
AcDbVertex
100
AcDb2dVertex
 10
242.9245548407
 20
1846.1461777671
 30
0.0
  0
VERTEX
  5
6F3
330
1BE
100
AcDbEntity
  8
0
  6
CONTINUOUS
 62
     7
100
AcDbVertex
100
AcDb2dVertex
 10
242.0873629014
 20
1847.1425290091
 30
0.0
  0
VERTEX
  5
6F4
330
1BE
100
AcDbEntity
  8
0
  6
CONTINUOUS
 62
     7
100
AcDbVertex
100
AcDb2dVertex
 10
241.4679812352
 20
1847.8796596511
 30
0.0
  0
VERTEX
  5
6F5
330
1BE
100
AcDbEntity
  8
0
  6
CONTINUOUS
 62
     7
100
AcDbVertex
100
AcDb2dVertex
 10
241.071938173
 20
1848.351013182
 30
0.0
  0
SEQEND
  5
84B
330
1BE
100
AcDbEntity
  8
0
  6
CONTINUOUS
 62
     7
  0
POLYLINE
  5
1BF
330
1F
100
AcDbEntity
  8
0
  6
CONTINUOUS
 62
     7
100
AcDb2dPolyline
 66
     1
 10
0.0
 20
0.0
 30
0.0
 70
   128
  0
VERTEX
  5
6F6
330
1BF
100
AcDbEntity
  8
0
  6
CONTINUOUS
 62
     7
100
AcDbVertex
100
AcDb2dVertex
 10
225.7597284476
 20
1835.4849333747
 30
0.0
  0
VERTEX
  5
6F7
330
1BF
100
AcDbEntity
  8
0
  6
CONTINUOUS
 62
     7
100
AcDbVertex
100
AcDb2dVertex
 10
226.155786411
 20
1835.0135798438
 30
0.0
  0
VERTEX
  5
6F8
330
1BF
100
AcDbEntity
  8
0
  6
CONTINUOUS
 62
     7
100
AcDbVertex
100
AcDb2dVertex
 10
226.775153176
 20
1834.2764492019
 30
0.0
  0
VERTEX
  5
6F9
330
1BF
100
AcDbEntity
  8
0
  6
CONTINUOUS
 62
     7
100
AcDbVertex
100
AcDb2dVertex
 10
227.6123600165
 20
1833.2800383551
 30
0.0
  0
VERTEX
  5
6FA
330
1BF
100
AcDbEntity
  8
0
  6
CONTINUOUS
 62
     7
100
AcDbVertex
100
AcDb2dVertex
 10
228.6599563519
 20
1832.0332880004
 30
0.0
  0
VERTEX
  5
6FB
330
1BF
100
AcDbEntity
  8
0
  6
CONTINUOUS
 62
     7
100
AcDbVertex
100
AcDb2dVertex
 10
229.9086438576
 20
1830.5472249968
 30
0.0
  0
VERTEX
  5
6FC
330
1BF
100
AcDbEntity
  8
0
  6
CONTINUOUS
 62
     7
100
AcDbVertex
100
AcDb2dVertex
 10
231.3473509709
 20
1828.8349623664
 30
0.0
  0
VERTEX
  5
6FD
330
1BF
100
AcDbEntity
  8
0
  6
CONTINUOUS
 62
     7
100
AcDbVertex
100
AcDb2dVertex
 10
232.9632924954
 20
1826.9118185027
 30
0.0
  0
VERTEX
  5
6FE
330
1BF
100
AcDbEntity
  8
0
  6
CONTINUOUS
 62
     7
100
AcDbVertex
100
AcDb2dVertex
 10
234.7421484153
 20
1824.7947807296
 30
0.0
  0
VERTEX
  5
6FF
330
1BF
100
AcDbEntity
  8
0
  6
CONTINUOUS
 62
     7
100
AcDbVertex
100
AcDb2dVertex
 10
236.6681085984
 20
1822.5026245101
 30
0.0
  0
VERTEX
  5
700
330
1BF
100
AcDbEntity
  8
0
  6
CONTINUOUS
 62
     7
100
AcDbVertex
100
AcDb2dVertex
 10
238.7240963141
 20
1820.0557644351
 30
0.0
  0
VERTEX
  5
701
330
1BF
100
AcDbEntity
  8
0
  6
CONTINUOUS
 62
     7
100
AcDbVertex
100
AcDb2dVertex
 10
240.8918427388
 20
1817.4758965953
 30
0.0
  0
VERTEX
  5
702
330
1BF
100
AcDbEntity
  8
0
  6
CONTINUOUS
 62
     7
100
AcDbVertex
100
AcDb2dVertex
 10
243.1521104733
 20
1814.7858793719
 30
0.0
  0
VERTEX
  5
703
330
1BF
100
AcDbEntity
  8
0
  6
CONTINUOUS
 62
     7
100
AcDbVertex
100
AcDb2dVertex
 10
245.4848425547
 20
1812.0096440299
 30
0.0
  0
VERTEX
  5
704
330
1BF
100
AcDbEntity
  8
0
  6
CONTINUOUS
 62
     7
100
AcDbVertex
100
AcDb2dVertex
 10
247.8693412701
 20
1809.1718072875
 30
0.0
  0
VERTEX
  5
705
330
1BF
100
AcDbEntity
  8
0
  6
CONTINUOUS
 62
     7
100
AcDbVertex
100
AcDb2dVertex
 10
250.2844320695
 20
1806.2975819095
 30
0.0
  0
SEQEND
  5
84C
330
1BF
100
AcDbEntity
  8
0
  6
CONTINUOUS
 62
     7
  0
LINE
  5
1C0
330
1F
100
AcDbEntity
  8
0
  6
CONTINUOUS
 62
     7
100
AcDbLine
 10
206.6033916632
 20
1378.8294832094
 30
0.0
 11
237.7186851661
 21
1404.9025366886
 31
0.0
  0
LINE
  5
1C1
330
1F
100
AcDbEntity
  8
0
  6
CONTINUOUS
 62
     7
100
AcDbLine
 10
224.8732732693
 20
1420.2320988162
 30
0.0
 11
192.6317798058
 21
1393.215347348
 31
0.0
  0
LINE
  5
1C2
330
1F
100
AcDbEntity
  8
0
  6
CONTINUOUS
 62
     7
100
AcDbLine
 10
177.3998426358
 20
1893.0389995559
 30
0.0
 11
225.7597284476
 21
1835.4849333747
 31
0.0
  0
LINE
  5
1C3
330
1F
100
AcDbEntity
  8
0
  6
CONTINUOUS
 62
     7
100
AcDbLine
 10
241.071938173
 20
1848.351013182
 30
0.0
 11
192.7120523612
 21
1905.9050793631
 31
0.0
  0
POLYLINE
  5
1C4
330
1F
100
AcDbEntity
  8
0
  6
CONTINUOUS
 62
     7
100
AcDb2dPolyline
 66
     1
 10
0.0
 20
0.0
 30
0.0
 70
   128
  0
VERTEX
  5
706
330
1C4
100
AcDbEntity
  8
0
  6
CONTINUOUS
 62
     7
100
AcDbVertex
100
AcDb2dVertex
 10
539.1679467718
 20
1826.7244811042
 30
0.0
  0
VERTEX
  5
707
330
1C4
100
AcDbEntity
  8
0
  6
CONTINUOUS
 62
     7
100
AcDbVertex
100
AcDb2dVertex
 10
538.6696146886
 20
1827.7282829268
 30
0.0
  0
VERTEX
  5
708
330
1C4
100
AcDbEntity
  8
0
  6
CONTINUOUS
 62
     7
100
AcDbVertex
100
AcDb2dVertex
 10
537.6844616691
 20
1829.1797156318
 30
0.0
  0
VERTEX
  5
709
330
1C4
100
AcDbEntity
  8
0
  6
CONTINUOUS
 62
     7
100
AcDbVertex
100
AcDb2dVertex
 10
536.5299569527
 20
1830.4911370261
 30
0.0
  0
VERTEX
  5
70A
330
1C4
100
AcDbEntity
  8
0
  6
CONTINUOUS
 62
     7
100
AcDbVertex
100
AcDb2dVertex
 10
535.2002294819
 20
1831.6889519675
 30
0.0
  0
VERTEX
  5
70B
330
1C4
100
AcDbEntity
  8
0
  6
CONTINUOUS
 62
     7
100
AcDbVertex
100
AcDb2dVertex
 10
533.6517082612
 20
1832.8101749404
 30
0.0
  0
VERTEX
  5
70C
330
1C4
100
AcDbEntity
  8
0
  6
CONTINUOUS
 62
     7
100
AcDbVertex
100
AcDb2dVertex
 10
531.7893313329
 20
1833.8970060332
 30
0.0
  0
VERTEX
  5
70D
330
1C4
100
AcDbEntity
  8
0
  6
CONTINUOUS
 62
     7
100
AcDbVertex
100
AcDb2dVertex
 10
529.4741826216
 20
1834.9797244056
 30
0.0
  0
VERTEX
  5
70E
330
1C4
100
AcDbEntity
  8
0
  6
CONTINUOUS
 62
     7
100
AcDbVertex
100
AcDb2dVertex
 10
526.671400861
 20
1836.0238189681
 30
0.0
  0
VERTEX
  5
70F
330
1C4
100
AcDbEntity
  8
0
  6
CONTINUOUS
 62
     7
100
AcDbVertex
100
AcDb2dVertex
 10
523.6778916876
 20
1836.9189019187
 30
0.0
  0
VERTEX
  5
710
330
1C4
100
AcDbEntity
  8
0
  6
CONTINUOUS
 62
     7
100
AcDbVertex
100
AcDb2dVertex
 10
520.6047730605
 20
1837.6692051871
 30
0.0
  0
VERTEX
  5
711
330
1C4
100
AcDbEntity
  8
0
  6
CONTINUOUS
 62
     7
100
AcDbVertex
100
AcDb2dVertex
 10
517.4368904988
 20
1838.307511328
 30
0.0
  0
VERTEX
  5
712
330
1C4
100
AcDbEntity
  8
0
  6
CONTINUOUS
 62
     7
100
AcDbVertex
100
AcDb2dVertex
 10
514.1604753296
 20
1838.8529534324
 30
0.0
  0
VERTEX
  5
713
330
1C4
100
AcDbEntity
  8
0
  6
CONTINUOUS
 62
     7
100
AcDbVertex
100
AcDb2dVertex
 10
510.7740970413
 20
1839.3151874526
 30
0.0
  0
VERTEX
  5
714
330
1C4
100
AcDbEntity
  8
0
  6
CONTINUOUS
 62
     7
100
AcDbVertex
100
AcDb2dVertex
 10
507.2850497524
 20
1839.698862551
 30
0.0
  0
VERTEX
  5
715
330
1C4
100
AcDbEntity
  8
0
  6
CONTINUOUS
 62
     7
100
AcDbVertex
100
AcDb2dVertex
 10
503.7062900225
 20
1840.0061840995
 30
0.0
  0
VERTEX
  5
716
330
1C4
100
AcDbEntity
  8
0
  6
CONTINUOUS
 62
     7
100
AcDbVertex
100
AcDb2dVertex
 10
500.0544810752
 20
1840.2381653769
 30
0.0
  0
VERTEX
  5
717
330
1C4
100
AcDbEntity
  8
0
  6
CONTINUOUS
 62
     7
100
AcDbVertex
100
AcDb2dVertex
 10
496.348815606
 20
1840.395044802
 30
0.0
  0
VERTEX
  5
718
330
1C4
100
AcDbEntity
  8
0
  6
CONTINUOUS
 62
     7
100
AcDbVertex
100
AcDb2dVertex
 10
492.6101254384
 20
1840.4769415839
 30
0.0
  0
VERTEX
  5
719
330
1C4
100
AcDbEntity
  8
0
  6
CONTINUOUS
 62
     7
100
AcDbVertex
100
AcDb2dVertex
 10
490.3875203888
 20
1840.4901142104
 30
0.0
  0
SEQEND
  5
84D
330
1C4
100
AcDbEntity
  8
0
  6
CONTINUOUS
 62
     7
  0
POLYLINE
  5
1C5
330
1F
100
AcDbEntity
  8
0
  6
CONTINUOUS
 62
     7
100
AcDb2dPolyline
 66
     1
 10
0.0
 20
0.0
 30
0.0
 70
   128
  0
VERTEX
  5
71A
330
1C5
100
AcDbEntity
  8
0
  6
CONTINUOUS
 62
     7
100
AcDbVertex
100
AcDb2dVertex
 10
386.1005069772
 20
1840.4901142104
 30
0.0
  0
VERTEX
  5
71B
330
1C5
100
AcDbEntity
  8
0
  6
CONTINUOUS
 62
     7
100
AcDbVertex
100
AcDb2dVertex
 10
384.1272393326
 20
1840.4797430022
 30
0.0
  0
VERTEX
  5
71C
330
1C5
100
AcDbEntity
  8
0
  6
CONTINUOUS
 62
     7
100
AcDbVertex
100
AcDb2dVertex
 10
380.3921142678
 20
1840.4029722197
 30
0.0
  0
VERTEX
  5
71D
330
1C5
100
AcDbEntity
  8
0
  6
CONTINUOUS
 62
     7
100
AcDbVertex
100
AcDb2dVertex
 10
376.693422542
 20
1840.2516956313
 30
0.0
  0
VERTEX
  5
71E
330
1C5
100
AcDbEntity
  8
0
  6
CONTINUOUS
 62
     7
100
AcDbVertex
100
AcDb2dVertex
 10
373.0536313812
 20
1840.0262112601
 30
0.0
  0
VERTEX
  5
71F
330
1C5
100
AcDbEntity
  8
0
  6
CONTINUOUS
 62
     7
100
AcDbVertex
100
AcDb2dVertex
 10
369.4932894866
 20
1839.7268767341
 30
0.0
  0
VERTEX
  5
720
330
1C5
100
AcDbEntity
  8
0
  6
CONTINUOUS
 62
     7
100
AcDbVertex
100
AcDb2dVertex
 10
366.0312878052
 20
1839.3537516578
 30
0.0
  0
VERTEX
  5
721
330
1C5
100
AcDbEntity
  8
0
  6
CONTINUOUS
 62
     7
100
AcDbVertex
100
AcDb2dVertex
 10
362.6841219227
 20
1838.9061803801
 30
0.0
  0
VERTEX
  5
722
330
1C5
100
AcDbEntity
  8
0
  6
CONTINUOUS
 62
     7
100
AcDbVertex
100
AcDb2dVertex
 10
359.4648899595
 20
1838.3823747619
 30
0.0
  0
VERTEX
  5
723
330
1C5
100
AcDbEntity
  8
0
  6
CONTINUOUS
 62
     7
100
AcDbVertex
100
AcDb2dVertex
 10
356.381884412
 20
1837.7779240592
 30
0.0
  0
VERTEX
  5
724
330
1C5
100
AcDbEntity
  8
0
  6
CONTINUOUS
 62
     7
100
AcDbVertex
100
AcDb2dVertex
 10
353.4362526695
 20
1837.0840067847
 30
0.0
  0
VERTEX
  5
725
330
1C5
100
AcDbEntity
  8
0
  6
CONTINUOUS
 62
     7
100
AcDbVertex
100
AcDb2dVertex
 10
350.6182940761
 20
1836.2825627311
 30
0.0
  0
VERTEX
  5
726
330
1C5
100
AcDbEntity
  8
0
  6
CONTINUOUS
 62
     7
100
AcDbVertex
100
AcDb2dVertex
 10
347.9014100591
 20
1835.3369350417
 30
0.0
  0
VERTEX
  5
727
330
1C5
100
AcDbEntity
  8
0
  6
CONTINUOUS
 62
     7
100
AcDbVertex
100
AcDb2dVertex
 10
345.2370824377
 20
1834.1714258178
 30
0.0
  0
VERTEX
  5
728
330
1C5
100
AcDbEntity
  8
0
  6
CONTINUOUS
 62
     7
100
AcDbVertex
100
AcDb2dVertex
 10
343.0898027579
 20
1832.972657202
 30
0.0
  0
VERTEX
  5
729
330
1C5
100
AcDbEntity
  8
0
  6
CONTINUOUS
 62
     7
100
AcDbVertex
100
AcDb2dVertex
 10
341.3909362714
 20
1831.7715640052
 30
0.0
  0
VERTEX
  5
72A
330
1C5
100
AcDbEntity
  8
0
  6
CONTINUOUS
 62
     7
100
AcDbVertex
100
AcDb2dVertex
 10
339.9708109061
 20
1830.5039520247
 30
0.0
  0
VERTEX
  5
72B
330
1C5
100
AcDbEntity
  8
0
  6
CONTINUOUS
 62
     7
100
AcDbVertex
100
AcDb2dVertex
 10
338.7644948522
 20
1829.1292304976
 30
0.0
  0
VERTEX
  5
72C
330
1C5
100
AcDbEntity
  8
0
  6
CONTINUOUS
 62
     7
100
AcDbVertex
100
AcDb2dVertex
 10
337.7590837042
 20
1827.6261205657
 30
0.0
  0
VERTEX
  5
72D
330
1C5
100
AcDbEntity
  8
0
  6
CONTINUOUS
 62
     7
100
AcDbVertex
100
AcDb2dVertex
 10
337.3228671114
 20
1826.7244811042
 30
0.0
  0
SEQEND
  5
84E
330
1C5
100
AcDbEntity
  8
0
  6
CONTINUOUS
 62
     7
  0
LINE
  5
1C6
330
1F
100
AcDbEntity
  8
0
  6
CONTINUOUS
 62
     7
100
AcDbLine
 10
437.2185325335
 20
1840.4901142104
 30
0.0
 11
386.1005069772
 21
1840.4901142104
 31
0.0
  0
LINE
  5
1C7
330
1F
100
AcDbEntity
  8
0
  6
CONTINUOUS
 62
     7
100
AcDbLine
 10
490.3875203888
 20
1840.4901142104
 30
0.0
 11
439.3029268683
 21
1840.4901142104
 31
0.0
  0
LINE
  5
1C8
330
1F
100
AcDbEntity
  8
0
  6
CONTINUOUS
 62
     7
100
AcDbLine
 10
588.2440196435
 20
1826.7244811042
 30
0.0
 11
288.2440077225
 21
1826.7244811042
 31
0.0
  0
POLYLINE
  5
1C9
330
1F
100
AcDbEntity
  8
0
  6
CONTINUOUS
 62
     7
100
AcDb2dPolyline
 66
     1
 10
0.0
 20
0.0
 30
0.0
 70
   128
  0
VERTEX
  5
72E
330
1C9
100
AcDbEntity
  8
0
  6
CONTINUOUS
 62
     7
100
AcDbVertex
100
AcDb2dVertex
 10
618.2440208356
 20
1815.3256888373
 30
0.0
  0
VERTEX
  5
72F
330
1C9
100
AcDbEntity
  8
0
  6
CONTINUOUS
 62
     7
100
AcDbVertex
100
AcDb2dVertex
 10
618.1008355777
 20
1816.7570049746
 30
0.0
  0
VERTEX
  5
730
330
1C9
100
AcDbEntity
  8
0
  6
CONTINUOUS
 62
     7
100
AcDbVertex
100
AcDb2dVertex
 10
617.6840948025
 20
1818.1219215377
 30
0.0
  0
VERTEX
  5
731
330
1C9
100
AcDbEntity
  8
0
  6
CONTINUOUS
 62
     7
100
AcDbVertex
100
AcDb2dVertex
 10
617.0551763932
 20
1819.3254883273
 30
0.0
  0
VERTEX
  5
732
330
1C9
100
AcDbEntity
  8
0
  6
CONTINUOUS
 62
     7
100
AcDbVertex
100
AcDb2dVertex
 10
616.2578599612
 20
1820.3757817729
 30
0.0
  0
VERTEX
  5
733
330
1C9
100
AcDbEntity
  8
0
  6
CONTINUOUS
 62
     7
100
AcDbVertex
100
AcDb2dVertex
 10
615.3074489991
 20
1821.2986404879
 30
0.0
  0
VERTEX
  5
734
330
1C9
100
AcDbEntity
  8
0
  6
CONTINUOUS
 62
     7
100
AcDbVertex
100
AcDb2dVertex
 10
614.1737537543
 20
1822.1352214797
 30
0.0
  0
VERTEX
  5
735
330
1C9
100
AcDbEntity
  8
0
  6
CONTINUOUS
 62
     7
100
AcDbVertex
100
AcDb2dVertex
 10
612.7586649815
 20
1822.934966801
 30
0.0
  0
VERTEX
  5
736
330
1C9
100
AcDbEntity
  8
0
  6
CONTINUOUS
 62
     7
100
AcDbVertex
100
AcDb2dVertex
 10
610.8966903846
 20
1823.7339968665
 30
0.0
  0
VERTEX
  5
737
330
1C9
100
AcDbEntity
  8
0
  6
CONTINUOUS
 62
     7
100
AcDbVertex
100
AcDb2dVertex
 10
608.6001681248
 20
1824.4767899497
 30
0.0
  0
VERTEX
  5
738
330
1C9
100
AcDbEntity
  8
0
  6
CONTINUOUS
 62
     7
100
AcDbVertex
100
AcDb2dVertex
 10
606.2007831494
 20
1825.0700945838
 30
0.0
  0
VERTEX
  5
739
330
1C9
100
AcDbEntity
  8
0
  6
CONTINUOUS
 62
     7
100
AcDbVertex
100
AcDb2dVertex
 10
603.7127809684
 20
1825.5491967185
 30
0.0
  0
VERTEX
  5
73A
330
1C9
100
AcDbEntity
  8
0
  6
CONTINUOUS
 62
     7
100
AcDbVertex
100
AcDb2dVertex
 10
601.1201279322
 20
1825.9377593978
 30
0.0
  0
VERTEX
  5
73B
330
1C9
100
AcDbEntity
  8
0
  6
CONTINUOUS
 62
     7
100
AcDbVertex
100
AcDb2dVertex
 10
598.4249847094
 20
1826.245617388
 30
0.0
  0
VERTEX
  5
73C
330
1C9
100
AcDbEntity
  8
0
  6
CONTINUOUS
 62
     7
100
AcDbVertex
100
AcDb2dVertex
 10
595.6417309205
 20
1826.4765853866
 30
0.0
  0
VERTEX
  5
73D
330
1C9
100
AcDbEntity
  8
0
  6
CONTINUOUS
 62
     7
100
AcDbVertex
100
AcDb2dVertex
 10
592.7917050282
 20
1826.6320343001
 30
0.0
  0
VERTEX
  5
73E
330
1C9
100
AcDbEntity
  8
0
  6
CONTINUOUS
 62
     7
100
AcDbVertex
100
AcDb2dVertex
 10
589.9002837102
 20
1826.7123217566
 30
0.0
  0
VERTEX
  5
73F
330
1C9
100
AcDbEntity
  8
0
  6
CONTINUOUS
 62
     7
100
AcDbVertex
100
AcDb2dVertex
 10
588.2440196435
 20
1826.7244811042
 30
0.0
  0
SEQEND
  5
84F
330
1C9
100
AcDbEntity
  8
0
  6
CONTINUOUS
 62
     7
  0
POLYLINE
  5
1CA
330
1F
100
AcDbEntity
  8
0
  6
CONTINUOUS
 62
     7
100
AcDb2dPolyline
 66
     1
 10
0.0
 20
0.0
 30
0.0
 70
   128
  0
VERTEX
  5
740
330
1CA
100
AcDbEntity
  8
0
  6
CONTINUOUS
 62
     7
100
AcDbVertex
100
AcDb2dVertex
 10
288.2440077225
 20
1826.7244811042
 30
0.0
  0
VERTEX
  5
741
330
1CA
100
AcDbEntity
  8
0
  6
CONTINUOUS
 62
     7
100
AcDbVertex
100
AcDb2dVertex
 10
286.7169516246
 20
1826.7141695006
 30
0.0
  0
VERTEX
  5
742
330
1CA
100
AcDbEntity
  8
0
  6
CONTINUOUS
 62
     7
100
AcDbVertex
100
AcDb2dVertex
 10
283.8308798234
 20
1826.6374583228
 30
0.0
  0
VERTEX
  5
743
330
1CA
100
AcDbEntity
  8
0
  6
CONTINUOUS
 62
     7
100
AcDbVertex
100
AcDb2dVertex
 10
280.9916125695
 20
1826.4864201529
 30
0.0
  0
VERTEX
  5
744
330
1CA
100
AcDbEntity
  8
0
  6
CONTINUOUS
 62
     7
100
AcDbVertex
100
AcDb2dVertex
 10
278.2274620692
 20
1826.2615914328
 30
0.0
  0
VERTEX
  5
745
330
1CA
100
AcDbEntity
  8
0
  6
CONTINUOUS
 62
     7
100
AcDbVertex
100
AcDb2dVertex
 10
275.5632238547
 20
1825.9630913718
 30
0.0
  0
VERTEX
  5
746
330
1CA
100
AcDbEntity
  8
0
  6
CONTINUOUS
 62
     7
100
AcDbVertex
100
AcDb2dVertex
 10
273.0198191563
 20
1825.5902643187
 30
0.0
  0
VERTEX
  5
747
330
1CA
100
AcDbEntity
  8
0
  6
CONTINUOUS
 62
     7
100
AcDbVertex
100
AcDb2dVertex
 10
270.6120150248
 20
1825.1395339949
 30
0.0
  0
VERTEX
  5
748
330
1CA
100
AcDbEntity
  8
0
  6
CONTINUOUS
 62
     7
100
AcDbVertex
100
AcDb2dVertex
 10
268.3448331515
 20
1824.6019000991
 30
0.0
  0
VERTEX
  5
749
330
1CA
100
AcDbEntity
  8
0
  6
CONTINUOUS
 62
     7
100
AcDbVertex
100
AcDb2dVertex
 10
266.2066357295
 20
1823.9544148429
 30
0.0
  0
VERTEX
  5
74A
330
1CA
100
AcDbEntity
  8
0
  6
CONTINUOUS
 62
     7
100
AcDbVertex
100
AcDb2dVertex
 10
264.1563402573
 20
1823.139082907
 30
0.0
  0
VERTEX
  5
74B
330
1CA
100
AcDbEntity
  8
0
  6
CONTINUOUS
 62
     7
100
AcDbVertex
100
AcDb2dVertex
 10
262.4536888758
 20
1822.2241516097
 30
0.0
  0
VERTEX
  5
74C
330
1CA
100
AcDbEntity
  8
0
  6
CONTINUOUS
 62
     7
100
AcDbVertex
100
AcDb2dVertex
 10
261.2114535729
 20
1821.3246281131
 30
0.0
  0
VERTEX
  5
74D
330
1CA
100
AcDbEntity
  8
0
  6
CONTINUOUS
 62
     7
100
AcDbVertex
100
AcDb2dVertex
 10
260.197086827
 20
1820.3384096606
 30
0.0
  0
VERTEX
  5
74E
330
1CA
100
AcDbEntity
  8
0
  6
CONTINUOUS
 62
     7
100
AcDbVertex
100
AcDb2dVertex
 10
259.3698339621
 20
1819.2252631171
 30
0.0
  0
VERTEX
  5
74F
330
1CA
100
AcDbEntity
  8
0
  6
CONTINUOUS
 62
     7
100
AcDbVertex
100
AcDb2dVertex
 10
258.7454902093
 20
1817.9765160067
 30
0.0
  0
VERTEX
  5
750
330
1CA
100
AcDbEntity
  8
0
  6
CONTINUOUS
 62
     7
100
AcDbVertex
100
AcDb2dVertex
 10
258.3600567738
 20
1816.615324734
 30
0.0
  0
VERTEX
  5
751
330
1CA
100
AcDbEntity
  8
0
  6
CONTINUOUS
 62
     7
100
AcDbVertex
100
AcDb2dVertex
 10
258.2440065305
 20
1815.3256888373
 30
0.0
  0
SEQEND
  5
850
330
1CA
100
AcDbEntity
  8
0
  6
CONTINUOUS
 62
     7
  0
POLYLINE
  5
1CB
330
1F
100
AcDbEntity
  8
0
  6
CONTINUOUS
 62
     7
100
AcDb2dPolyline
 66
     1
 10
0.0
 20
0.0
 30
0.0
 70
   128
  0
VERTEX
  5
752
330
1CB
100
AcDbEntity
  8
0
  6
CONTINUOUS
 62
     7
100
AcDbVertex
100
AcDb2dVertex
 10
414.6256806413
 20
1799.8933012469
 30
0.0
  0
VERTEX
  5
753
330
1CB
100
AcDbEntity
  8
0
  6
CONTINUOUS
 62
     7
100
AcDbVertex
100
AcDb2dVertex
 10
414.6706914614
 20
1799.9234611972
 30
0.0
  0
VERTEX
  5
754
330
1CB
100
AcDbEntity
  8
0
  6
CONTINUOUS
 62
     7
100
AcDbVertex
100
AcDb2dVertex
 10
414.9833588014
 20
1800.1013810618
 30
0.0
  0
VERTEX
  5
755
330
1CB
100
AcDbEntity
  8
0
  6
CONTINUOUS
 62
     7
100
AcDbVertex
100
AcDb2dVertex
 10
415.5552616427
 20
1800.3706748469
 30
0.0
  0
VERTEX
  5
756
330
1CB
100
AcDbEntity
  8
0
  6
CONTINUOUS
 62
     7
100
AcDbVertex
100
AcDb2dVertex
 10
416.4386006157
 20
1800.7171864493
 30
0.0
  0
VERTEX
  5
757
330
1CB
100
AcDbEntity
  8
0
  6
CONTINUOUS
 62
     7
100
AcDbVertex
100
AcDb2dVertex
 10
417.6444118927
 20
1801.1105771048
 30
0.0
  0
VERTEX
  5
758
330
1CB
100
AcDbEntity
  8
0
  6
CONTINUOUS
 62
     7
100
AcDbVertex
100
AcDb2dVertex
 10
419.1716058264
 20
1801.5228922351
 30
0.0
  0
VERTEX
  5
759
330
1CB
100
AcDbEntity
  8
0
  6
CONTINUOUS
 62
     7
100
AcDbVertex
100
AcDb2dVertex
 10
420.9552394311
 20
1801.9220049365
 30
0.0
  0
VERTEX
  5
75A
330
1CB
100
AcDbEntity
  8
0
  6
CONTINUOUS
 62
     7
100
AcDbVertex
100
AcDb2dVertex
 10
423.0155447582
 20
1802.3019249423
 30
0.0
  0
VERTEX
  5
75B
330
1CB
100
AcDbEntity
  8
0
  6
CONTINUOUS
 62
     7
100
AcDbVertex
100
AcDb2dVertex
 10
425.3093866716
 20
1802.6431317313
 30
0.0
  0
VERTEX
  5
75C
330
1CB
100
AcDbEntity
  8
0
  6
CONTINUOUS
 62
     7
100
AcDbVertex
100
AcDb2dVertex
 10
427.7772601778
 20
1802.9309625609
 30
0.0
  0
VERTEX
  5
75D
330
1CB
100
AcDbEntity
  8
0
  6
CONTINUOUS
 62
     7
100
AcDbVertex
100
AcDb2dVertex
 10
430.3991846825
 20
1803.1610364898
 30
0.0
  0
VERTEX
  5
75E
330
1CB
100
AcDbEntity
  8
0
  6
CONTINUOUS
 62
     7
100
AcDbVertex
100
AcDb2dVertex
 10
432.5813591565
 20
1803.2984848006
 30
0.0
  0
VERTEX
  5
75F
330
1CB
100
AcDbEntity
  8
0
  6
CONTINUOUS
 62
     7
100
AcDbVertex
100
AcDb2dVertex
 10
434.0293734419
 20
1803.3637220843
 30
0.0
  0
VERTEX
  5
760
330
1CB
100
AcDbEntity
  8
0
  6
CONTINUOUS
 62
     7
100
AcDbVertex
100
AcDb2dVertex
 10
436.8339283244
 20
1803.4346814139
 30
0.0
  0
VERTEX
  5
761
330
1CB
100
AcDbEntity
  8
0
  6
CONTINUOUS
 62
     7
100
AcDbVertex
100
AcDb2dVertex
 10
439.6882033759
 20
1803.4346218093
 30
0.0
  0
VERTEX
  5
762
330
1CB
100
AcDbEntity
  8
0
  6
CONTINUOUS
 62
     7
100
AcDbVertex
100
AcDb2dVertex
 10
442.5161384131
 20
1803.3616359218
 30
0.0
  0
VERTEX
  5
763
330
1CB
100
AcDbEntity
  8
0
  6
CONTINUOUS
 62
     7
100
AcDbVertex
100
AcDb2dVertex
 10
445.2749356712
 20
1803.2173926814
 30
0.0
  0
VERTEX
  5
764
330
1CB
100
AcDbEntity
  8
0
  6
CONTINUOUS
 62
     7
100
AcDbVertex
100
AcDb2dVertex
 10
447.9671545411
 20
1803.0039782508
 30
0.0
  0
VERTEX
  5
765
330
1CB
100
AcDbEntity
  8
0
  6
CONTINUOUS
 62
     7
100
AcDbVertex
100
AcDb2dVertex
 10
450.5169648762
 20
1802.7280683501
 30
0.0
  0
VERTEX
  5
766
330
1CB
100
AcDbEntity
  8
0
  6
CONTINUOUS
 62
     7
100
AcDbVertex
100
AcDb2dVertex
 10
452.8713688339
 20
1802.3984844668
 30
0.0
  0
VERTEX
  5
767
330
1CB
100
AcDbEntity
  8
0
  6
CONTINUOUS
 62
     7
100
AcDbVertex
100
AcDb2dVertex
 10
455.0636062483
 20
1802.0154650195
 30
0.0
  0
VERTEX
  5
768
330
1CB
100
AcDbEntity
  8
0
  6
CONTINUOUS
 62
     7
100
AcDbVertex
100
AcDb2dVertex
 10
457.0015059869
 20
1801.5996034129
 30
0.0
  0
VERTEX
  5
769
330
1CB
100
AcDbEntity
  8
0
  6
CONTINUOUS
 62
     7
100
AcDbVertex
100
AcDb2dVertex
 10
458.6232142607
 20
1801.1746222957
 30
0.0
  0
VERTEX
  5
76A
330
1CB
100
AcDbEntity
  8
0
  6
CONTINUOUS
 62
     7
100
AcDbVertex
100
AcDb2dVertex
 10
459.9789014171
 20
1800.7420117839
 30
0.0
  0
VERTEX
  5
76B
330
1CB
100
AcDbEntity
  8
0
  6
CONTINUOUS
 62
     7
100
AcDbVertex
100
AcDb2dVertex
 10
460.8844785104
 20
1800.392132519
 30
0.0
  0
VERTEX
  5
76C
330
1CB
100
AcDbEntity
  8
0
  6
CONTINUOUS
 62
     7
100
AcDbVertex
100
AcDb2dVertex
 10
461.482473285
 20
1800.113600014
 30
0.0
  0
VERTEX
  5
76D
330
1CB
100
AcDbEntity
  8
0
  6
CONTINUOUS
 62
     7
100
AcDbVertex
100
AcDb2dVertex
 10
461.8267608891
 20
1799.9161894305
 30
0.0
  0
VERTEX
  5
76E
330
1CB
100
AcDbEntity
  8
0
  6
CONTINUOUS
 62
     7
100
AcDbVertex
100
AcDb2dVertex
 10
461.8611043404
 20
1799.8930926307
 30
0.0
  0
SEQEND
  5
851
330
1CB
100
AcDbEntity
  8
0
  6
CONTINUOUS
 62
     7
  0
ARC
  5
1CC
330
1F
100
AcDbEntity
  8
0
  6
CONTINUOUS
 62
     7
100
AcDbCircle
 10
438.2380374661
 20
1915.2719661551
 30
0.0
 40
112.7356517684746
100
AcDbArc
 50
264.9378959411
 51
275.0734209774
  0
POLYLINE
  5
1CD
330
1F
100
AcDbEntity
  8
0
  6
CONTINUOUS
 62
     7
100
AcDb2dPolyline
 66
     1
 10
0.0
 20
0.0
 30
0.0
 70
   128
  0
VERTEX
  5
76F
330
1CD
100
AcDbEntity
  8
0
  6
CONTINUOUS
 62
     7
100
AcDbVertex
100
AcDb2dVertex
 10
258.259771959
 20
1780.8275933249
 30
0.0
  0
VERTEX
  5
770
330
1CD
100
AcDbEntity
  8
0
  6
CONTINUOUS
 62
     7
100
AcDbVertex
100
AcDb2dVertex
 10
258.2465099255
 20
1780.6446070655
 30
0.0
  0
VERTEX
  5
771
330
1CD
100
AcDbEntity
  8
0
  6
CONTINUOUS
 62
     7
100
AcDbVertex
100
AcDb2dVertex
 10
258.4502535025
 20
1779.1241223796
 30
0.0
  0
VERTEX
  5
772
330
1CD
100
AcDbEntity
  8
0
  6
CONTINUOUS
 62
     7
100
AcDbVertex
100
AcDb2dVertex
 10
258.9327382008
 20
1777.7594442351
 30
0.0
  0
VERTEX
  5
773
330
1CD
100
AcDbEntity
  8
0
  6
CONTINUOUS
 62
     7
100
AcDbVertex
100
AcDb2dVertex
 10
259.6292929808
 20
1776.5731031878
 30
0.0
  0
VERTEX
  5
774
330
1CD
100
AcDbEntity
  8
0
  6
CONTINUOUS
 62
     7
100
AcDbVertex
100
AcDb2dVertex
 10
260.4924725453
 20
1775.5601818545
 30
0.0
  0
VERTEX
  5
775
330
1CD
100
AcDbEntity
  8
0
  6
CONTINUOUS
 62
     7
100
AcDbVertex
100
AcDb2dVertex
 10
261.4953653971
 20
1774.7043783648
 30
0.0
  0
VERTEX
  5
776
330
1CD
100
AcDbEntity
  8
0
  6
CONTINUOUS
 62
     7
100
AcDbVertex
100
AcDb2dVertex
 10
262.6384781758
 20
1773.979645489
 30
0.0
  0
VERTEX
  5
777
330
1CD
100
AcDbEntity
  8
0
  6
CONTINUOUS
 62
     7
100
AcDbVertex
100
AcDb2dVertex
 10
263.9789717356
 20
1773.3468825801
 30
0.0
  0
VERTEX
  5
778
330
1CD
100
AcDbEntity
  8
0
  6
CONTINUOUS
 62
     7
100
AcDbVertex
100
AcDb2dVertex
 10
265.726073281
 20
1772.7504487021
 30
0.0
  0
VERTEX
  5
779
330
1CD
100
AcDbEntity
  8
0
  6
CONTINUOUS
 62
     7
100
AcDbVertex
100
AcDb2dVertex
 10
267.9636167447
 20
1772.2295339091
 30
0.0
  0
VERTEX
  5
77A
330
1CD
100
AcDbEntity
  8
0
  6
CONTINUOUS
 62
     7
100
AcDbVertex
100
AcDb2dVertex
 10
270.1473521153
 20
1771.8900854571
 30
0.0
  0
VERTEX
  5
77B
330
1CD
100
AcDbEntity
  8
0
  6
CONTINUOUS
 62
     7
100
AcDbVertex
100
AcDb2dVertex
 10
272.6378725926
 20
1771.6412062629
 30
0.0
  0
VERTEX
  5
77C
330
1CD
100
AcDbEntity
  8
0
  6
CONTINUOUS
 62
     7
100
AcDbVertex
100
AcDb2dVertex
 10
275.1726197163
 20
1771.5013439639
 30
0.0
  0
VERTEX
  5
77D
330
1CD
100
AcDbEntity
  8
0
  6
CONTINUOUS
 62
     7
100
AcDbVertex
100
AcDb2dVertex
 10
277.8605209748
 20
1771.4489812835
 30
0.0
  0
VERTEX
  5
77E
330
1CD
100
AcDbEntity
  8
0
  6
CONTINUOUS
 62
     7
100
AcDbVertex
100
AcDb2dVertex
 10
280.6218402545
 20
1771.4802439196
 30
0.0
  0
VERTEX
  5
77F
330
1CD
100
AcDbEntity
  8
0
  6
CONTINUOUS
 62
     7
100
AcDbVertex
100
AcDb2dVertex
 10
283.4245698611
 20
1771.5895588382
 30
0.0
  0
VERTEX
  5
780
330
1CD
100
AcDbEntity
  8
0
  6
CONTINUOUS
 62
     7
100
AcDbVertex
100
AcDb2dVertex
 10
286.3047706048
 20
1771.7744524463
 30
0.0
  0
VERTEX
  5
781
330
1CD
100
AcDbEntity
  8
0
  6
CONTINUOUS
 62
     7
100
AcDbVertex
100
AcDb2dVertex
 10
288.8255553405
 20
1771.9976122363
 30
0.0
  0
SEQEND
  5
852
330
1CD
100
AcDbEntity
  8
0
  6
CONTINUOUS
 62
     7
  0
POLYLINE
  5
1CE
330
1F
100
AcDbEntity
  8
0
  6
CONTINUOUS
 62
     7
100
AcDb2dPolyline
 66
     1
 10
0.0
 20
0.0
 30
0.0
 70
   128
  0
VERTEX
  5
782
330
1CE
100
AcDbEntity
  8
0
  6
CONTINUOUS
 62
     7
100
AcDbVertex
100
AcDb2dVertex
 10
587.661682264
 20
1772.0022613986
 30
0.0
  0
VERTEX
  5
783
330
1CE
100
AcDbEntity
  8
0
  6
CONTINUOUS
 62
     7
100
AcDbVertex
100
AcDb2dVertex
 10
589.3280940215
 20
1771.8426997645
 30
0.0
  0
VERTEX
  5
784
330
1CE
100
AcDbEntity
  8
0
  6
CONTINUOUS
 62
     7
100
AcDbVertex
100
AcDb2dVertex
 10
592.1962993304
 20
1771.637331961
 30
0.0
  0
VERTEX
  5
785
330
1CE
100
AcDbEntity
  8
0
  6
CONTINUOUS
 62
     7
100
AcDbVertex
100
AcDb2dVertex
 10
595.0163738887
 20
1771.505695103
 30
0.0
  0
VERTEX
  5
786
330
1CE
100
AcDbEntity
  8
0
  6
CONTINUOUS
 62
     7
100
AcDbVertex
100
AcDb2dVertex
 10
597.7589624087
 20
1771.4503521903
 30
0.0
  0
VERTEX
  5
787
330
1CE
100
AcDbEntity
  8
0
  6
CONTINUOUS
 62
     7
100
AcDbVertex
100
AcDb2dVertex
 10
600.4197882573
 20
1771.4735085948
 30
0.0
  0
VERTEX
  5
788
330
1CE
100
AcDbEntity
  8
0
  6
CONTINUOUS
 62
     7
100
AcDbVertex
100
AcDb2dVertex
 10
602.9705690305
 20
1771.5815122111
 30
0.0
  0
VERTEX
  5
789
330
1CE
100
AcDbEntity
  8
0
  6
CONTINUOUS
 62
     7
100
AcDbVertex
100
AcDb2dVertex
 10
605.3712504069
 20
1771.7783565505
 30
0.0
  0
VERTEX
  5
78A
330
1CE
100
AcDbEntity
  8
0
  6
CONTINUOUS
 62
     7
100
AcDbVertex
100
AcDb2dVertex
 10
607.6524095694
 20
1772.0770056231
 30
0.0
  0
VERTEX
  5
78B
330
1CE
100
AcDbEntity
  8
0
  6
CONTINUOUS
 62
     7
100
AcDbVertex
100
AcDb2dVertex
 10
609.8487960259
 20
1772.5119109137
 30
0.0
  0
VERTEX
  5
78C
330
1CE
100
AcDbEntity
  8
0
  6
CONTINUOUS
 62
     7
100
AcDbVertex
100
AcDb2dVertex
 10
611.9524674575
 20
1773.1335277541
 30
0.0
  0
VERTEX
  5
78D
330
1CE
100
AcDbEntity
  8
0
  6
CONTINUOUS
 62
     7
100
AcDbVertex
100
AcDb2dVertex
 10
613.5642217557
 20
1773.8269681914
 30
0.0
  0
VERTEX
  5
78E
330
1CE
100
AcDbEntity
  8
0
  6
CONTINUOUS
 62
     7
100
AcDbVertex
100
AcDb2dVertex
 10
614.8567484776
 20
1774.6068055613
 30
0.0
  0
VERTEX
  5
78F
330
1CE
100
AcDbEntity
  8
0
  6
CONTINUOUS
 62
     7
100
AcDbVertex
100
AcDb2dVertex
 10
615.9373359839
 20
1775.5052859767
 30
0.0
  0
VERTEX
  5
790
330
1CE
100
AcDbEntity
  8
0
  6
CONTINUOUS
 62
     7
100
AcDbVertex
100
AcDb2dVertex
 10
616.8408529917
 20
1776.5514070971
 30
0.0
  0
VERTEX
  5
791
330
1CE
100
AcDbEntity
  8
0
  6
CONTINUOUS
 62
     7
100
AcDbVertex
100
AcDb2dVertex
 10
617.5493734042
 20
1777.7497882827
 30
0.0
  0
VERTEX
  5
792
330
1CE
100
AcDbEntity
  8
0
  6
CONTINUOUS
 62
     7
100
AcDbVertex
100
AcDb2dVertex
 10
618.0255549113
 20
1779.0769155009
 30
0.0
  0
VERTEX
  5
793
330
1CE
100
AcDbEntity
  8
0
  6
CONTINUOUS
 62
     7
100
AcDbVertex
100
AcDb2dVertex
 10
618.2410257022
 20
1780.6268746837
 30
0.0
  0
VERTEX
  5
794
330
1CE
100
AcDbEntity
  8
0
  6
CONTINUOUS
 62
     7
100
AcDbVertex
100
AcDb2dVertex
 10
618.2263182561
 20
1780.8270866855
 30
0.0
  0
SEQEND
  5
853
330
1CE
100
AcDbEntity
  8
0
  6
CONTINUOUS
 62
     7
  0
POLYLINE
  5
1CF
330
1F
100
AcDbEntity
  8
0
  6
CONTINUOUS
 62
     7
100
AcDb2dPolyline
 66
     1
 10
0.0
 20
0.0
 30
0.0
 70
   128
  0
VERTEX
  5
795
330
1CF
100
AcDbEntity
  8
0
  6
CONTINUOUS
 62
     7
100
AcDbVertex
100
AcDb2dVertex
 10
288.8264494101
 20
1771.9936783297
 30
0.0
  0
VERTEX
  5
796
330
1CF
100
AcDbEntity
  8
0
  6
CONTINUOUS
 62
     7
100
AcDbVertex
100
AcDb2dVertex
 10
300.2082245509
 20
1773.0611081107
 30
0.0
  0
VERTEX
  5
797
330
1CF
100
AcDbEntity
  8
0
  6
CONTINUOUS
 62
     7
100
AcDbVertex
100
AcDb2dVertex
 10
321.8959109942
 20
1774.8593206389
 30
0.0
  0
VERTEX
  5
798
330
1CF
100
AcDbEntity
  8
0
  6
CONTINUOUS
 62
     7
100
AcDbVertex
100
AcDb2dVertex
 10
343.6082216064
 20
1776.3507480605
 30
0.0
  0
VERTEX
  5
799
330
1CF
100
AcDbEntity
  8
0
  6
CONTINUOUS
 62
     7
100
AcDbVertex
100
AcDb2dVertex
 10
365.3404625217
 20
1777.5350625499
 30
0.0
  0
VERTEX
  5
79A
330
1CF
100
AcDbEntity
  8
0
  6
CONTINUOUS
 62
     7
100
AcDbVertex
100
AcDb2dVertex
 10
387.088051633
 20
1778.4120256884
 30
0.0
  0
VERTEX
  5
79B
330
1CF
100
AcDbEntity
  8
0
  6
CONTINUOUS
 62
     7
100
AcDbVertex
100
AcDb2dVertex
 10
408.8464068333
 20
1778.9814586623
 30
0.0
  0
VERTEX
  5
79C
330
1CF
100
AcDbEntity
  8
0
  6
CONTINUOUS
 62
     7
100
AcDbVertex
100
AcDb2dVertex
 10
430.6109520691
 20
1779.2432124598
 30
0.0
  0
VERTEX
  5
79D
330
1CF
100
AcDbEntity
  8
0
  6
CONTINUOUS
 62
     7
100
AcDbVertex
100
AcDb2dVertex
 10
452.3771019737
 20
1779.1972572787
 30
0.0
  0
VERTEX
  5
79E
330
1CF
100
AcDbEntity
  8
0
  6
CONTINUOUS
 62
     7
100
AcDbVertex
100
AcDb2dVertex
 10
474.1402739743
 20
1778.8436229213
 30
0.0
  0
VERTEX
  5
79F
330
1CF
100
AcDbEntity
  8
0
  6
CONTINUOUS
 62
     7
100
AcDbVertex
100
AcDb2dVertex
 10
495.895887361
 20
1778.1823391898
 30
0.0
  0
VERTEX
  5
7A0
330
1CF
100
AcDbEntity
  8
0
  6
CONTINUOUS
 62
     7
100
AcDbVertex
100
AcDb2dVertex
 10
517.6393600265
 20
1777.2135550959
 30
0.0
  0
VERTEX
  5
7A1
330
1CF
100
AcDbEntity
  8
0
  6
CONTINUOUS
 62
     7
100
AcDbVertex
100
AcDb2dVertex
 10
539.3661098639
 20
1775.937479256
 30
0.0
  0
VERTEX
  5
7A2
330
1CF
100
AcDbEntity
  8
0
  6
CONTINUOUS
 62
     7
100
AcDbVertex
100
AcDb2dVertex
 10
561.071565942
 20
1774.354409693
 30
0.0
  0
VERTEX
  5
7A3
330
1CF
100
AcDbEntity
  8
0
  6
CONTINUOUS
 62
     7
100
AcDbVertex
100
AcDb2dVertex
 10
581.610946552
 20
1772.5717539771
 30
0.0
  0
VERTEX
  5
7A4
330
1CF
100
AcDbEntity
  8
0
  6
CONTINUOUS
 62
     7
100
AcDbVertex
100
AcDb2dVertex
 10
587.6615779559
 20
1771.9936783297
 30
0.0
  0
SEQEND
  5
854
330
1CF
100
AcDbEntity
  8
0
  6
CONTINUOUS
 62
     7
  0
ARC
  5
1D0
330
1F
100
AcDbEntity
  8
0
  6
CONTINUOUS
 62
     7
100
AcDbCircle
 10
222.8586879067
 20
1408.1950756571
 30
0.0
 40
33.58368628764126
100
AcDbArc
 50
231.2586612752
 51
270.1684109837
  0
ARC
  5
1D1
330
1F
100
AcDbEntity
  8
0
  6
CONTINUOUS
 62
     7
100
AcDbCircle
 10
222.5550507037
 20
1408.5006150581
 30
0.0
 40
33.6038745605949
100
AcDbArc
 50
174.3739316863
 51
219.3452721369
  0
ARC
  5
1D2
330
1F
100
AcDbEntity
  8
0
  6
CONTINUOUS
 62
     7
100
AcDbCircle
 10
222.9256283709
 20
1408.5769006808
 30
0.0
 40
53.9653751421994
100
AcDbArc
 50
174.5420309928
 51
270.0337336213
  0
LINE
  5
1D3
330
1F
100
AcDbEntity
  8
0
  6
CONTINUOUS
 62
     7
100
AcDbLine
 10
222.9574011723
 20
1354.6115348919
 30
0.0
 11
653.5306261937
 21
1354.6115348919
 31
0.0
  0
LINE
  5
1D4
330
1F
100
AcDbEntity
  8
0
  6
CONTINUOUS
 62
     7
100
AcDbLine
 10
653.5306261937
 20
1374.6115344448
 30
0.0
 11
222.9574011723
 21
1374.6115344448
 31
0.0
  0
ARC
  5
1D5
330
1F
100
AcDbEntity
  8
0
  6
CONTINUOUS
 62
     7
100
AcDbCircle
 10
653.9875213239
 20
1408.4973698525
 30
0.0
 40
33.54991188847757
100
AcDbArc
 50
320.5986116477
 51
5.6407157443
  0
ARC
  5
1D6
330
1F
100
AcDbEntity
  8
0
  6
CONTINUOUS
 62
     7
100
AcDbCircle
 10
653.5963914276
 20
1408.3841411979
 30
0.0
 40
33.77267078520386
100
AcDbArc
 50
269.8884283465
 51
308.5833567379
  0
ARC
  5
1D7
330
1F
100
AcDbEntity
  8
0
  6
CONTINUOUS
 62
     7
100
AcDbCircle
 10
653.566752171
 20
1408.5729412781
 30
0.0
 40
53.9614184789837
100
AcDbArc
 50
269.9616417388
 51
5.4625936471
  0
LINE
  5
1D8
330
1F
100
AcDbEntity
  8
0
  6
CONTINUOUS
 62
     7
100
AcDbLine
 10
641.9164674441
 20
1884.4131941779
 30
0.0
 11
644.3611370484
 21
1858.9967007621
 31
0.0
  0
LINE
  5
1D9
330
1F
100
AcDbEntity
  8
0
  6
CONTINUOUS
 62
     7
100
AcDbLine
 10
647.0443146388
 20
1831.1005349143
 30
0.0
 11
687.3749779622
 21
1411.794994293
 31
0.0
  0
LINE
  5
1DA
330
1F
100
AcDbEntity
  8
0
  6
CONTINUOUS
 62
     7
100
AcDbLine
 10
707.2831081311
 20
1413.7098456605
 30
0.0
 11
665.0728570382
 21
1852.5566573127
 31
0.0
  0
LINE
  5
1DB
330
1F
100
AcDbEntity
  8
0
  6
CONTINUOUS
 62
     7
100
AcDbLine
 10
662.3896794478
 20
1880.4528231604
 30
0.0
 11
661.8245827119
 21
1886.3279933913
 31
0.0
  0
LINE
  5
1DC
330
1F
100
AcDbEntity
  8
0
  6
CONTINUOUS
 62
     7
100
AcDbLine
 10
214.6634446542
 20
1886.3279933913
 30
0.0
 11
214.0983479182
 21
1880.4528231604
 31
0.0
  0
LINE
  5
1DD
330
1F
100
AcDbEntity
  8
0
  6
CONTINUOUS
 62
     7
100
AcDbLine
 10
211.4151703278
 20
1852.5566573127
 30
0.0
 11
169.2049192349
 21
1413.7098456605
 31
0.0
  0
LINE
  5
1DE
330
1F
100
AcDbEntity
  8
0
  6
CONTINUOUS
 62
     7
100
AcDbLine
 10
189.1130494038
 20
1411.794994293
 30
0.0
 11
229.4437127272
 21
1831.1005349143
 31
0.0
  0
LINE
  5
1DF
330
1F
100
AcDbEntity
  8
0
  6
CONTINUOUS
 62
     7
100
AcDbLine
 10
232.1268903176
 20
1858.9967007621
 30
0.0
 11
234.5715599219
 21
1884.4131941779
 31
0.0
  0
LINE
  5
1E0
330
1F
100
AcDbEntity
  8
0
  6
CONTINUOUS
 62
     7
100
AcDbLine
 10
618.2440208356
 20
1612.8898973449
 30
0.0
 11
618.2440208356
 21
1396.7854793055
 31
0.0
  0
POLYLINE
  5
1E1
330
1F
100
AcDbEntity
  8
0
  6
CONTINUOUS
 62
     7
100
AcDb2dPolyline
 66
     1
 10
0.0
 20
0.0
 30
0.0
 70
   128
  0
VERTEX
  5
7A5
330
1E1
100
AcDbEntity
  8
0
  6
CONTINUOUS
 62
     7
100
AcDbVertex
100
AcDb2dVertex
 10
257.9788105647
 20
1395.8871330006
 30
0.0
  0
VERTEX
  5
7A6
330
1E1
100
AcDbEntity
  8
0
  6
CONTINUOUS
 62
     7
100
AcDbVertex
100
AcDb2dVertex
 10
258.189051048
 20
1396.3244969828
 30
0.0
  0
VERTEX
  5
7A7
330
1E1
100
AcDbEntity
  8
0
  6
CONTINUOUS
 62
     7
100
AcDbVertex
100
AcDb2dVertex
 10
258.2440065305
 20
1396.7854793055
 30
0.0
  0
SEQEND
  5
855
330
1E1
100
AcDbEntity
  8
0
  6
CONTINUOUS
 62
     7
  0
ARC
  5
1E2
330
1F
100
AcDbEntity
  8
0
  6
CONTINUOUS
 62
     7
100
AcDbCircle
 10
239.4759755484
 20
1407.8370921319
 30
0.0
 40
22.0262667485837
100
AcDbArc
 50
310.803405995
 51
327.1438158539
  0
POLYLINE
  5
1E3
330
1F
100
AcDbEntity
  8
0
  6
CONTINUOUS
 62
     7
100
AcDb2dPolyline
 66
     1
 10
0.0
 20
0.0
 30
0.0
 70
   128
  0
VERTEX
  5
7A8
330
1E3
100
AcDbEntity
  8
0
  6
CONTINUOUS
 62
     7
100
AcDbVertex
100
AcDb2dVertex
 10
618.2440208356
 20
1396.7854793055
 30
0.0
  0
VERTEX
  5
7A9
330
1E3
100
AcDbEntity
  8
0
  6
CONTINUOUS
 62
     7
100
AcDbVertex
100
AcDb2dVertex
 10
618.3064119975
 20
1396.2973768695
 30
0.0
  0
VERTEX
  5
7AA
330
1E3
100
AcDbEntity
  8
0
  6
CONTINUOUS
 62
     7
100
AcDbVertex
100
AcDb2dVertex
 10
618.5092168013
 20
1395.8871330006
 30
0.0
  0
SEQEND
  5
856
330
1E3
100
AcDbEntity
  8
0
  6
CONTINUOUS
 62
     7
  0
ARC
  5
1E4
330
1F
100
AcDbEntity
  8
0
  6
CONTINUOUS
 62
     7
100
AcDbCircle
 10
637.0120518176
 20
1407.8370921319
 30
0.0
 40
22.02626674858319
100
AcDbArc
 50
212.8561841461
 51
229.196594005
  0
LINE
  5
1E5
330
1F
100
AcDbEntity
  8
0
  6
CONTINUOUS
 62
     7
100
AcDbLine
 10
258.2440065305
 20
1396.7854793055
 30
0.0
 11
258.2440065305
 21
1612.8898973449
 31
0.0
  0
ARC
  5
1E6
330
1F
100
AcDbEntity
  8
0
  6
CONTINUOUS
 62
     7
100
AcDbCircle
 10
598.3167369311
 20
1422.843898577
 30
0.0
 40
39.92728045940961
100
AcDbArc
 50
307.492256814
 51
359.989064304
  0
ARC
  5
1E7
330
1F
100
AcDbEntity
  8
0
  6
CONTINUOUS
 62
     7
100
AcDbCircle
 10
278.1699706554
 20
1422.8432474663
 30
0.0
 40
39.92596056088637
100
AcDbArc
 50
180.0100016806
 51
232.5086772014
  0
ARC
  5
1E8
330
1F
100
AcDbEntity
  8
0
  6
CONTINUOUS
 62
     7
100
AcDbCircle
 10
468.3467570159
 20
1612.7870630039
 30
0.0
 40
149.8972990935186
100
AcDbArc
 50
0.0393067402
 51
90.0392722101
  0
LINE
  5
1E9
330
1F
100
AcDbEntity
  8
0
  6
CONTINUOUS
 62
     7
100
AcDbLine
 10
408.2440143536
 20
1762.6843268855
 30
0.0
 11
468.2440130125
 21
1762.6843268855
 31
0.0
  0
ARC
  5
1EA
330
1F
100
AcDbEntity
  8
0
  6
CONTINUOUS
 62
     7
100
AcDbCircle
 10
408.1412703501
 20
1612.7870630039
 30
0.0
 40
149.8972990935185
100
AcDbArc
 50
89.9607277899
 51
179.9606932598
  0
LINE
  5
1EB
330
1F
100
AcDbEntity
  8
0
  6
CONTINUOUS
 62
     7
100
AcDbLine
 10
638.2440166632
 20
1742.3977370246
 30
0.0
 11
638.2440166632
 21
1422.8362779005
 31
0.0
  0
LINE
  5
1EC
330
1F
100
AcDbEntity
  8
0
  6
CONTINUOUS
 62
     7
100
AcDbLine
 10
238.2440107028
 20
1422.8362779005
 30
0.0
 11
238.2440107028
 21
1742.3977370246
 31
0.0
  0
LINE
  5
1ED
330
1F
100
AcDbEntity
  8
0
  6
CONTINUOUS
 62
     7
100
AcDbLine
 10
638.2440166632
 20
1422.8362779005
 30
0.0
 11
638.2440166632
 21
1422.2082461102
 31
0.0
  0
ARC
  5
1EE
330
1F
100
AcDbEntity
  8
0
  6
CONTINUOUS
 62
     7
100
AcDbCircle
 10
598.271399359
 20
1422.2356857151
 30
0.0
 40
39.972626722321
100
AcDbArc
 50
269.9607409167
 51
359.9606687425
  0
ARC
  5
1EF
330
1F
100
AcDbEntity
  8
0
  6
CONTINUOUS
 62
     7
100
AcDbCircle
 10
278.216628007
 20
1422.2356857151
 30
0.0
 40
39.972626722321
100
AcDbArc
 50
180.0393312575
 51
270.0392590833
  0
LINE
  5
1F0
330
1F
100
AcDbEntity
  8
0
  6
CONTINUOUS
 62
     7
100
AcDbLine
 10
238.2440107028
 20
1422.2082461102
 30
0.0
 11
238.2440107028
 21
1422.8362779005
 31
0.0
  0
POLYLINE
  5
1F1
330
1F
100
AcDbEntity
  8
0
  6
CONTINUOUS
 62
     7
100
AcDb2dPolyline
 66
     1
 10
0.0
 20
0.0
 30
0.0
 70
   128
  0
VERTEX
  5
7AB
330
1F1
100
AcDbEntity
  8
0
  6
CONTINUOUS
 62
     7
100
AcDbVertex
100
AcDb2dVertex
 10
598.2440101067
 20
1382.6711702032
 30
0.0
  0
VERTEX
  5
7AC
330
1F1
100
AcDbEntity
  8
0
  6
CONTINUOUS
 62
     7
100
AcDbVertex
100
AcDb2dVertex
 10
592.4797343175
 20
1382.6246636792
 30
0.0
  0
VERTEX
  5
7AD
330
1F1
100
AcDbEntity
  8
0
  6
CONTINUOUS
 62
     7
100
AcDbVertex
100
AcDb2dVertex
 10
586.6985457103
 20
1382.5843225105
 30
0.0
  0
VERTEX
  5
7AE
330
1F1
100
AcDbEntity
  8
0
  6
CONTINUOUS
 62
     7
100
AcDbVertex
100
AcDb2dVertex
 10
580.9028284709
 20
1382.5501541479
 30
0.0
  0
VERTEX
  5
7AF
330
1F1
100
AcDbEntity
  8
0
  6
CONTINUOUS
 62
     7
100
AcDbVertex
100
AcDb2dVertex
 10
575.0950114886
 20
1382.5221846683
 30
0.0
  0
VERTEX
  5
7B0
330
1F1
100
AcDbEntity
  8
0
  6
CONTINUOUS
 62
     7
100
AcDbVertex
100
AcDb2dVertex
 10
569.2774938504
 20
1382.5004140718
 30
0.0
  0
VERTEX
  5
7B1
330
1F1
100
AcDbEntity
  8
0
  6
CONTINUOUS
 62
     7
100
AcDbVertex
100
AcDb2dVertex
 10
563.4527193467
 20
1382.4848609848
 30
0.0
  0
VERTEX
  5
7B2
330
1F1
100
AcDbEntity
  8
0
  6
CONTINUOUS
 62
     7
100
AcDbVertex
100
AcDb2dVertex
 10
557.6230796139
 20
1382.4755216821
 30
0.0
  0
VERTEX
  5
7B3
330
1F1
100
AcDbEntity
  8
0
  6
CONTINUOUS
 62
     7
100
AcDbVertex
100
AcDb2dVertex
 10
551.7910258929
 20
1382.4724110647
 30
0.0
  0
SEQEND
  5
857
330
1F1
100
AcDbEntity
  8
0
  6
CONTINUOUS
 62
     7
  0
POLYLINE
  5
1F2
330
1F
100
AcDbEntity
  8
0
  6
CONTINUOUS
 62
     7
100
AcDb2dPolyline
 66
     1
 10
0.0
 20
0.0
 30
0.0
 70
   128
  0
VERTEX
  5
7B4
330
1F2
100
AcDbEntity
  8
0
  6
CONTINUOUS
 62
     7
100
AcDbVertex
100
AcDb2dVertex
 10
324.7083859603
 20
1382.4724110647
 30
0.0
  0
VERTEX
  5
7B5
330
1F2
100
AcDbEntity
  8
0
  6
CONTINUOUS
 62
     7
100
AcDbVertex
100
AcDb2dVertex
 10
318.8749017278
 20
1382.4755142315
 30
0.0
  0
VERTEX
  5
7B6
330
1F2
100
AcDbEntity
  8
0
  6
CONTINUOUS
 62
     7
100
AcDbVertex
100
AcDb2dVertex
 10
313.0438463847
 20
1382.4848423584
 30
0.0
  0
VERTEX
  5
7B7
330
1F2
100
AcDbEntity
  8
0
  6
CONTINUOUS
 62
     7
100
AcDbVertex
100
AcDb2dVertex
 10
307.2176264683
 20
1382.5003917201
 30
0.0
  0
VERTEX
  5
7B8
330
1F2
100
AcDbEntity
  8
0
  6
CONTINUOUS
 62
     7
100
AcDbVertex
100
AcDb2dVertex
 10
301.3986932198
 20
1382.5221585913
 30
0.0
  0
VERTEX
  5
7B9
330
1F2
100
AcDbEntity
  8
0
  6
CONTINUOUS
 62
     7
100
AcDbVertex
100
AcDb2dVertex
 10
295.5894457261
 20
1382.5501317962
 30
0.0
  0
VERTEX
  5
7BA
330
1F2
100
AcDbEntity
  8
0
  6
CONTINUOUS
 62
     7
100
AcDbVertex
100
AcDb2dVertex
 10
289.7923128764
 20
1382.5843038841
 30
0.0
  0
VERTEX
  5
7BB
330
1F2
100
AcDbEntity
  8
0
  6
CONTINUOUS
 62
     7
100
AcDbVertex
100
AcDb2dVertex
 10
284.0096937577
 20
1382.6246525033
 30
0.0
  0
VERTEX
  5
7BC
330
1F2
100
AcDbEntity
  8
0
  6
CONTINUOUS
 62
     7
100
AcDbVertex
100
AcDb2dVertex
 10
278.2440172593
 20
1382.6711702032
 30
0.0
  0
SEQEND
  5
858
330
1F2
100
AcDbEntity
  8
0
  6
CONTINUOUS
 62
     7
  0
LINE
  5
1F3
330
1F
100
AcDbEntity
  8
0
  6
CONTINUOUS
 62
     7
100
AcDbLine
 10
278.2440172593
 20
1382.2630683763
 30
0.0
 11
278.2440172593
 21
1382.2548429354
 31
0.0
  0
LINE
  5
1F4
330
1F
100
AcDbEntity
  8
0
  6
CONTINUOUS
 62
     7
100
AcDbLine
 10
598.2440101067
 20
1382.2548429354
 30
0.0
 11
598.2440101067
 21
1382.2630683763
 31
0.0
  0
ARC
  5
1F5
330
1F
100
AcDbEntity
  8
0
  6
CONTINUOUS
 62
     7
100
AcDbCircle
 10
598.3082529704
 20
1742.3877601411
 30
0.0
 40
39.93576493911827
100
AcDbArc
 50
0.0143138193
 51
61.4773896393
  0
ARC
  5
1F6
330
1F
100
AcDbEntity
  8
0
  6
CONTINUOUS
 62
     7
100
AcDbCircle
 10
278.1838024688
 20
1742.3853658783
 30
0.0
 40
39.93979368197872
100
AcDbArc
 50
118.5394773158
 51
179.9822529258
  0
ARC
  5
1F7
330
1F
100
AcDbEntity
  8
0
  6
CONTINUOUS
 62
     7
100
AcDbCircle
 10
691.4003358863
 20
1899.4342602365
 30
0.0
 40
10.00011895031116
100
AcDbArc
 50
320.244078287
 51
139.6786282311
  0
ARC
  5
1F8
330
1F
100
AcDbEntity
  8
0
  6
CONTINUOUS
 62
     7
100
AcDbCircle
 10
691.7006621673
 20
1899.7916806857
 30
0.0
 40
10.00013241075085
100
AcDbArc
 50
320.2439114127
 51
139.6784787189
  0
ARC
  5
1F9
330
1F
100
AcDbEntity
  8
0
  6
CONTINUOUS
 62
     7
100
AcDbCircle
 10
185.0876914797
 20
1899.4342602365
 30
0.0
 40
10.0001189503113
100
AcDbArc
 50
40.3213717689
 51
219.755921713
  0
ARC
  5
1FA
330
1F
100
AcDbEntity
  8
0
  6
CONTINUOUS
 62
     7
100
AcDbCircle
 10
184.7873651988
 20
1899.7916806857
 30
0.0
 40
10.00013241075089
100
AcDbArc
 50
40.3215212811
 51
219.7560885873
  0
LINE
  5
1FB
330
1F
100
AcDbEntity
  8
0
  6
CONTINUOUS
 62
     7
100
AcDbLine
 10
187.826632158
 20
1366.14219871
 30
0.0
 11
189.3296079795
 21
1366.2534023507
 31
0.0
  0
ARC
  5
1FC
330
1F
100
AcDbEntity
  8
0
  6
CONTINUOUS
 62
     7
100
AcDbCircle
 10
187.8513653168
 20
1376.1625010839
 30
0.0
 40
10.020332898374
100
AcDbArc
 50
166.3694404048
 51
269.8585768491
  0
POLYLINE
  5
1FD
330
1F
100
AcDbEntity
  8
0
  6
CONTINUOUS
 62
     7
100
AcDb2dPolyline
 66
     1
 10
0.0
 20
0.0
 30
0.0
 70
   128
  0
VERTEX
  5
7BD
330
1FD
100
AcDbEntity
  8
0
  6
CONTINUOUS
 62
     7
100
AcDbVertex
100
AcDb2dVertex
 10
187.563269035
 20
1365.9215125127
 30
0.0
  0
VERTEX
  5
7BE
330
1FD
100
AcDbEntity
  8
0
  6
CONTINUOUS
 62
     7
100
AcDbVertex
100
AcDb2dVertex
 10
189.4513504664
 20
1366.0985047801
 30
0.0
  0
VERTEX
  5
7BF
330
1FD
100
AcDbEntity
  8
0
  6
CONTINUOUS
 62
     7
100
AcDbVertex
100
AcDb2dVertex
 10
189.5093010823
 20
1366.1097588821
 30
0.0
  0
SEQEND
  5
859
330
1FD
100
AcDbEntity
  8
0
  6
CONTINUOUS
 62
     7
  0
ARC
  5
1FE
330
1F
100
AcDbEntity
  8
0
  6
CONTINUOUS
 62
     7
100
AcDbCircle
 10
187.5875930175
 20
1375.9411699902
 30
0.0
 40
10.01968700217368
100
AcDbArc
 50
164.0286381076
 51
269.8609075409
  0
ARC
  5
1FF
330
1F
100
AcDbEntity
  8
0
  6
CONTINUOUS
 62
     7
100
AcDbCircle
 10
688.6388427101
 20
1376.1618838978
 30
0.0
 40
10.01841531365906
100
AcDbArc
 50
261.2769653589
 51
13.1226925588
  0
ARC
  5
200
330
1F
100
AcDbEntity
  8
0
  6
CONTINUOUS
 62
     7
100
AcDbCircle
 10
688.9005017125
 20
1375.9410664437
 30
0.0
 40
10.01958329269003
100
AcDbArc
 50
270.138708685
 51
16.2220917247
  0
POLYLINE
  5
201
330
1F
100
AcDbEntity
  8
0
  6
CONTINUOUS
 62
     7
100
AcDb2dPolyline
 66
     1
 10
0.0
 20
0.0
 30
0.0
 70
   128
  0
VERTEX
  5
7C0
330
201
100
AcDbEntity
  8
0
  6
CONTINUOUS
 62
     7
100
AcDbVertex
100
AcDb2dVertex
 10
686.9329648177
 20
1366.1188970192
 30
0.0
  0
VERTEX
  5
7C1
330
201
100
AcDbEntity
  8
0
  6
CONTINUOUS
 62
     7
100
AcDbVertex
100
AcDb2dVertex
 10
687.0366768996
 20
1366.0985047801
 30
0.0
  0
VERTEX
  5
7C2
330
201
100
AcDbEntity
  8
0
  6
CONTINUOUS
 62
     7
100
AcDbVertex
100
AcDb2dVertex
 10
688.924758331
 20
1365.9215125127
 30
0.0
  0
SEQEND
  5
85A
330
201
100
AcDbEntity
  8
0
  6
CONTINUOUS
 62
     7
  0
ARC
  5
202
330
1F
100
AcDbEntity
  8
0
  6
CONTINUOUS
 62
     7
100
AcDbCircle
 10
187.0183456881
 20
1375.4648892722
 30
0.0
 40
15.00000000000012
100
AcDbArc
 50
144.8472388687
 51
300.5583014279
  0
ARC
  5
203
330
1F
100
AcDbEntity
  8
0
  6
CONTINUOUS
 62
     7
100
AcDbCircle
 10
184.1549802014
 20
1900.5443022388
 30
0.0
 40
15.00000000000004
100
AcDbArc
 50
351.8490104852
 51
268.2283806936
  0
ARC
  5
204
330
1F
100
AcDbEntity
  8
0
  6
CONTINUOUS
 62
     7
100
AcDbCircle
 10
689.4696816779
 20
1375.4648892722
 30
0.0
 40
15.0
100
AcDbArc
 50
270.0
 51
35.3730619528
  0
ARC
  5
205
330
1F
100
AcDbEntity
  8
0
  6
CONTINUOUS
 62
     7
100
AcDbCircle
 10
689.4696816779
 20
1375.4648892722
 30
0.0
 40
15.0
100
AcDbArc
 50
239.2260945257
 51
270.0
  0
ARC
  5
206
330
1F
100
AcDbEntity
  8
0
  6
CONTINUOUS
 62
     7
100
AcDbCircle
 10
692.3330471646
 20
1900.5443022388
 30
0.0
 40
15.00000000000009
100
AcDbArc
 50
271.7716193064
 51
188.1509895148
  0
ARC
  5
207
330
1F
100
AcDbEntity
  8
0
  6
CONTINUOUS
 62
     7
100
AcDbCircle
 10
688.6391572552
 20
1376.1615502775
 30
0.0
 40
10.01820827018891
100
AcDbArc
 50
261.6214954045
 51
12.9897429109
  0
ARC
  5
208
330
1F
100
AcDbEntity
  8
0
  6
CONTINUOUS
 62
     7
100
AcDbCircle
 10
187.8488235806
 20
1376.1615010588
 30
0.0
 40
10.01814794985935
100
AcDbArc
 50
166.8860348402
 51
278.4584279211
  0
ARC
  5
209
330
1F
100
AcDbEntity
  8
0
  6
CONTINUOUS
 62
     7
100
AcDbCircle
 10
438.2090326831
 20
1922.6646454078
 30
0.0
 40
82.18216934302153
100
AcDbArc
 50
269.3094262089
 51
270.7626638652
  0
LINE
  5
20A
330
1F
100
AcDbEntity
  8
0
  6
CONTINUOUS
 62
     7
100
AcDbLine
 10
618.2440208356
 20
1815.3256888373
 30
0.0
 11
618.2440208356
 21
1805.5785114749
 31
0.0
  0
LINE
  5
20B
330
1F
100
AcDbEntity
  8
0
  6
CONTINUOUS
 62
     7
100
AcDbLine
 10
258.2440065305
 20
1805.5785114749
 30
0.0
 11
258.2440065305
 21
1815.3256888373
 31
0.0
  0
LINE
  5
20C
330
1F
100
AcDbEntity
  8
0
  6
CONTINUOUS
 62
     7
100
AcDbLine
 10
258.2440065305
 20
1780.833881615
 30
0.0
 11
258.2440065305
 21
1805.5785114749
 31
0.0
  0
LINE
  5
20D
330
1F
100
AcDbEntity
  8
0
  6
CONTINUOUS
 62
     7
100
AcDbLine
 10
618.2440208356
 20
1805.5785114749
 30
0.0
 11
618.2440208356
 21
1780.833881615
 31
0.0
  0
POLYLINE
  5
20E
330
1F
100
AcDbEntity
  8
0
  6
CONTINUOUS
 62
     7
100
AcDb2dPolyline
 66
     1
 10
0.0
 20
0.0
 30
0.0
 70
   128
  0
VERTEX
  5
7C3
330
20E
100
AcDbEntity
  8
0
  6
CONTINUOUS
 62
     7
100
AcDbVertex
100
AcDb2dVertex
 10
641.9164674441
 20
1884.4131941779
 30
0.0
  0
VERTEX
  5
7C4
330
20E
100
AcDbEntity
  8
0
  6
CONTINUOUS
 62
     7
100
AcDbVertex
100
AcDb2dVertex
 10
642.0869069258
 20
1884.5285887702
 30
0.0
  0
VERTEX
  5
7C5
330
20E
100
AcDbEntity
  8
0
  6
CONTINUOUS
 62
     7
100
AcDbVertex
100
AcDb2dVertex
 10
642.6109509627
 20
1884.6745009406
 30
0.0
  0
VERTEX
  5
7C6
330
20E
100
AcDbEntity
  8
0
  6
CONTINUOUS
 62
     7
100
AcDbVertex
100
AcDb2dVertex
 10
643.4696601788
 20
1884.8455066665
 30
0.0
  0
VERTEX
  5
7C7
330
20E
100
AcDbEntity
  8
0
  6
CONTINUOUS
 62
     7
100
AcDbVertex
100
AcDb2dVertex
 10
644.6320103566
 20
1885.035526274
 30
0.0
  0
VERTEX
  5
7C8
330
20E
100
AcDbEntity
  8
0
  6
CONTINUOUS
 62
     7
100
AcDbVertex
100
AcDb2dVertex
 10
646.0559653203
 20
1885.2376456244
 30
0.0
  0
VERTEX
  5
7C9
330
20E
100
AcDbEntity
  8
0
  6
CONTINUOUS
 62
     7
100
AcDbVertex
100
AcDb2dVertex
 10
647.6900862614
 20
1885.4445929511
 30
0.0
  0
VERTEX
  5
7CA
330
20E
100
AcDbEntity
  8
0
  6
CONTINUOUS
 62
     7
100
AcDbVertex
100
AcDb2dVertex
 10
649.4752900759
 20
1885.6487984641
 30
0.0
  0
VERTEX
  5
7CB
330
20E
100
AcDbEntity
  8
0
  6
CONTINUOUS
 62
     7
100
AcDbVertex
100
AcDb2dVertex
 10
651.347069637
 20
1885.8429903968
 30
0.0
  0
VERTEX
  5
7CC
330
20E
100
AcDbEntity
  8
0
  6
CONTINUOUS
 62
     7
100
AcDbVertex
100
AcDb2dVertex
 10
653.2377587716
 20
1886.020135401
 30
0.0
  0
VERTEX
  5
7CD
330
20E
100
AcDbEntity
  8
0
  6
CONTINUOUS
 62
     7
100
AcDbVertex
100
AcDb2dVertex
 10
655.0790356557
 20
1886.1737961753
 30
0.0
  0
VERTEX
  5
7CE
330
20E
100
AcDbEntity
  8
0
  6
CONTINUOUS
 62
     7
100
AcDbVertex
100
AcDb2dVertex
 10
656.8043517033
 20
1886.2983698829
 30
0.0
  0
VERTEX
  5
7CF
330
20E
100
AcDbEntity
  8
0
  6
CONTINUOUS
 62
     7
100
AcDbVertex
100
AcDb2dVertex
 10
658.351345555
 20
1886.3895053847
 30
0.0
  0
VERTEX
  5
7D0
330
20E
100
AcDbEntity
  8
0
  6
CONTINUOUS
 62
     7
100
AcDbVertex
100
AcDb2dVertex
 10
659.6641080539
 20
1886.4437456115
 30
0.0
  0
VERTEX
  5
7D1
330
20E
100
AcDbEntity
  8
0
  6
CONTINUOUS
 62
     7
100
AcDbVertex
100
AcDb2dVertex
 10
660.6951939027
 20
1886.4591832145
 30
0.0
  0
VERTEX
  5
7D2
330
20E
100
AcDbEntity
  8
0
  6
CONTINUOUS
 62
     7
100
AcDbVertex
100
AcDb2dVertex
 10
661.4073203961
 20
1886.4353413566
 30
0.0
  0
VERTEX
  5
7D3
330
20E
100
AcDbEntity
  8
0
  6
CONTINUOUS
 62
     7
100
AcDbVertex
100
AcDb2dVertex
 10
661.77476813
 20
1886.3729948981
 30
0.0
  0
VERTEX
  5
7D4
330
20E
100
AcDbEntity
  8
0
  6
CONTINUOUS
 62
     7
100
AcDbVertex
100
AcDb2dVertex
 10
661.8245827119
 20
1886.3279933913
 30
0.0
  0
SEQEND
  5
85B
330
20E
100
AcDbEntity
  8
0
  6
CONTINUOUS
 62
     7
  0
POLYLINE
  5
20F
330
1F
100
AcDbEntity
  8
0
  6
CONTINUOUS
 62
     7
100
AcDb2dPolyline
 66
     1
 10
0.0
 20
0.0
 30
0.0
 70
   128
  0
VERTEX
  5
7D5
330
20F
100
AcDbEntity
  8
0
  6
CONTINUOUS
 62
     7
100
AcDbVertex
100
AcDb2dVertex
 10
234.5715599219
 20
1884.4131941779
 30
0.0
  0
VERTEX
  5
7D6
330
20F
100
AcDbEntity
  8
0
  6
CONTINUOUS
 62
     7
100
AcDbVertex
100
AcDb2dVertex
 10
234.4011204402
 20
1884.5285887702
 30
0.0
  0
VERTEX
  5
7D7
330
20F
100
AcDbEntity
  8
0
  6
CONTINUOUS
 62
     7
100
AcDbVertex
100
AcDb2dVertex
 10
233.8770764033
 20
1884.6745009406
 30
0.0
  0
VERTEX
  5
7D8
330
20F
100
AcDbEntity
  8
0
  6
CONTINUOUS
 62
     7
100
AcDbVertex
100
AcDb2dVertex
 10
233.0183671872
 20
1884.8455066665
 30
0.0
  0
VERTEX
  5
7D9
330
20F
100
AcDbEntity
  8
0
  6
CONTINUOUS
 62
     7
100
AcDbVertex
100
AcDb2dVertex
 10
231.8560170094
 20
1885.035526274
 30
0.0
  0
VERTEX
  5
7DA
330
20F
100
AcDbEntity
  8
0
  6
CONTINUOUS
 62
     7
100
AcDbVertex
100
AcDb2dVertex
 10
230.4320620457
 20
1885.2376456244
 30
0.0
  0
VERTEX
  5
7DB
330
20F
100
AcDbEntity
  8
0
  6
CONTINUOUS
 62
     7
100
AcDbVertex
100
AcDb2dVertex
 10
228.7979411046
 20
1885.4445929511
 30
0.0
  0
VERTEX
  5
7DC
330
20F
100
AcDbEntity
  8
0
  6
CONTINUOUS
 62
     7
100
AcDbVertex
100
AcDb2dVertex
 10
227.0127372901
 20
1885.6487984641
 30
0.0
  0
VERTEX
  5
7DD
330
20F
100
AcDbEntity
  8
0
  6
CONTINUOUS
 62
     7
100
AcDbVertex
100
AcDb2dVertex
 10
225.140957729
 20
1885.8429903968
 30
0.0
  0
VERTEX
  5
7DE
330
20F
100
AcDbEntity
  8
0
  6
CONTINUOUS
 62
     7
100
AcDbVertex
100
AcDb2dVertex
 10
223.2502685944
 20
1886.020135401
 30
0.0
  0
VERTEX
  5
7DF
330
20F
100
AcDbEntity
  8
0
  6
CONTINUOUS
 62
     7
100
AcDbVertex
100
AcDb2dVertex
 10
221.4089917104
 20
1886.1737961753
 30
0.0
  0
VERTEX
  5
7E0
330
20F
100
AcDbEntity
  8
0
  6
CONTINUOUS
 62
     7
100
AcDbVertex
100
AcDb2dVertex
 10
219.6836756627
 20
1886.2983698829
 30
0.0
  0
VERTEX
  5
7E1
330
20F
100
AcDbEntity
  8
0
  6
CONTINUOUS
 62
     7
100
AcDbVertex
100
AcDb2dVertex
 10
218.136681811
 20
1886.3895053847
 30
0.0
  0
VERTEX
  5
7E2
330
20F
100
AcDbEntity
  8
0
  6
CONTINUOUS
 62
     7
100
AcDbVertex
100
AcDb2dVertex
 10
216.8239193122
 20
1886.4437456115
 30
0.0
  0
VERTEX
  5
7E3
330
20F
100
AcDbEntity
  8
0
  6
CONTINUOUS
 62
     7
100
AcDbVertex
100
AcDb2dVertex
 10
215.7928334634
 20
1886.4591832145
 30
0.0
  0
VERTEX
  5
7E4
330
20F
100
AcDbEntity
  8
0
  6
CONTINUOUS
 62
     7
100
AcDbVertex
100
AcDb2dVertex
 10
215.0807069699
 20
1886.4353413566
 30
0.0
  0
VERTEX
  5
7E5
330
20F
100
AcDbEntity
  8
0
  6
CONTINUOUS
 62
     7
100
AcDbVertex
100
AcDb2dVertex
 10
214.713259236
 20
1886.3729948981
 30
0.0
  0
VERTEX
  5
7E6
330
20F
100
AcDbEntity
  8
0
  6
CONTINUOUS
 62
     7
100
AcDbVertex
100
AcDb2dVertex
 10
214.6634446542
 20
1886.3279933913
 30
0.0
  0
SEQEND
  5
85C
330
20F
100
AcDbEntity
  8
0
  6
CONTINUOUS
 62
     7
  0
ENDSEC
  0
SECTION
  2
OBJECTS
  0
DICTIONARY
  5
C
330
0
100
AcDbDictionary
  3
ACAD_GROUP
350
D
  3
ACAD_MLINESTYLE
350
17
  3
ACAD_SCALELIST
350
47
1001
ACAD
1000
TREAT_AS_HARD
1070
     0
  0
DICTIONARY
  5
D
102
{ACAD_REACTORS
330
C
102
}
330
C
100
AcDbDictionary
1001
ACAD
1000
TREAT_AS_HARD
1070
     0
  0
DICTIONARY
  5
17
102
{ACAD_REACTORS
330
C
102
}
330
C
100
AcDbDictionary
  3
STANDARD
350
18
1001
ACAD
1000
TREAT_AS_HARD
1070
     0
  0
DICTIONARY
  5
47
102
{ACAD_REACTORS
330
C
102
}
330
C
100
AcDbDictionary
1001
ACAD
1000
TREAT_AS_HARD
1070
     0
  0
MLINESTYLE
  5
18
102
{ACAD_REACTORS
330
17
102
}
330
17
100
AcDbMlineStyle
  2
Standard
 70
     0
  3

 62
   256
 51
90.0
 52
90.0
 71
     2
 49
0.5
 62
   256
  6
BYLAYER
 49
-0.5
 62
   256
  6
BYLAYER
  0
ENDSEC
  0
EOF
