  0
SECTION
  2
HEADER
  9
$ACADVER
  1
AC1024
  9
$ACADMAINTVER
 70
     6
  9
$DWGCODEPAGE
  3
ANSI_1252
  9
$INSBASE
 10
0.0
 20
0.0
 30
0.0
  9
$EXTMIN
 10
0.0
 20
0.0
 30
0.0
  9
$EXTMAX
 10
3000.0
 20
3000.0
 30
0.0
  9
$LIMMIN
 10
0.0
 20
0.0
  9
$LIMMAX
 10
3000.0
 20
3000.0
  9
$ORTHOMODE
 70
     0
  9
$REGENMODE
 70
     1
  9
$FILLMODE
 70
     1
  9
$QTEXTMODE
 70
     0
  9
$MIRRTEXT
 70
     1
  9
$LTSCALE
 40
1.0
  9
$ATTMODE
 70
     1
  9
$TEXTSIZE
 40
3.5
  9
$TRACEWID
 40
1.0
  9
$TEXTSTYLE
  7
Standard
  9
$CLAYER
  8
0
  9
$CELTYPE
  6
ByLayer
  9
$CECOLOR
 62
   256
  9
$CELTSCALE
 40
1.0
  9
$DISPSILH
 70
     0
  9
$DIMSCALE
 40
1.0
  9
$DIMASZ
 40
3.556
  9
$DIMEXO
 40
1.0
  9
$DIMDLI
 40
3.75
  9
$DIMRND
 40
0.0
  9
$DIMDLE
 40
0.0
  9
$DIMEXE
 40
1.0
  9
$DIMTP
 40
0.0
  9
$DIMTM
 40
0.0
  9
$DIMTXT
 40
3.5
  9
$DIMCEN
 40
2.5
  9
$DIMTSZ
 40
0.0
  9
$DIMTOL
 70
     0
  9
$DIMLIM
 70
     0
  9
$DIMTIH
 70
     1
  9
$DIMTOH
 70
     1
  9
$DIMSE1
 70
     0
  9
$DIMSE2
 70
     0
  9
$DIMTAD
 70
     1
  9
$DIMZIN
 70
     0
  9
$DIMBLK
  1

  9
$DIMASO
 70
     1
  9
$DIMSHO
 70
     1
  9
$DIMPOST
  1

  9
$DIMAPOST
  1

  9
$DIMALT
 70
     0
  9
$DIMALTD
 70
     3
  9
$DIMALTF
 40
0.0393700787
  9
$DIMLFAC
 40
1.0
  9
$DIMTOFL
 70
     1
  9
$DIMTVP
 40
0.0
  9
$DIMTIX
 70
     0
  9
$DIMSOXD
 70
     0
  9
$DIMSAH
 70
     0
  9
$DIMBLK1
  1

  9
$DIMBLK2
  1

  9
$DIMSTYLE
  2
ISO-25
  9
$DIMCLRD
 70
     0
  9
$DIMCLRE
 70
     0
  9
$DIMCLRT
 70
     0
  9
$DIMTFAC
 40
1.0
  9
$DIMGAP
 40
1.524
  9
$DIMJUST
 70
     0
  9
$DIMSD1
 70
     0
  9
$DIMSD2
 70
     0
  9
$DIMTOLJ
 70
     0
  9
$DIMTZIN
 70
     0
  9
$DIMALTZ
 70
     0
  9
$DIMALTTZ
 70
     0
  9
$DIMUPT
 70
     0
  9
$DIMDEC
 70
     2
  9
$DIMTDEC
 70
     2
  9
$DIMALTU
 70
     2
  9
$DIMALTTD
 70
     3
  9
$DIMTXSTY
  7
Standard
  9
$DIMAUNIT
 70
     0
  9
$DIMADEC
 70
     2
  9
$DIMALTRND
 40
0.0
  9
$DIMAZIN
 70
     0
  9
$DIMDSEP
 70
    44
  9
$DIMATFIT
 70
     3
  9
$DIMFRAC
 70
     0
  9
$DIMLDRBLK
  1

  9
$DIMLUNIT
 70
     2
  9
$DIMLWD
 70
    -2
  9
$DIMLWE
 70
    -2
  9
$DIMTMOVE
 70
     0
  9
$DIMFXL
 40
1.0
  9
$DIMFXLON
 70
     0
  9
$DIMJOGANG
 40
0.7853981634
  9
$DIMTFILL
 70
     0
  9
$DIMTFILLCLR
 70
     0
  9
$DIMARCSYM
 70
     0
  9
$DIMLTYPE
  6

  9
$DIMLTEX1
  6

  9
$DIMLTEX2
  6

  9
$DIMTXTDIRECTION
 70
     0
  9
$LUNITS
 70
     2
  9
$LUPREC
 70
     2
  9
$SKETCHINC
 40
1.0
  9
$FILLETRAD
 40
10.0
  9
$AUNITS
 70
     0
  9
$AUPREC
 70
     2
  9
$MENU
  1
.
  9
$ELEVATION
 40
0.0
  9
$PELEVATION
 40
0.0
  9
$THICKNESS
 40
0.0
  9
$LIMCHECK
 70
     0
  9
$CHAMFERA
 40
0.0
  9
$CHAMFERB
 40
0.0
  9
$CHAMFERC
 40
0.0
  9
$CHAMFERD
 40
0.0
  9
$SKPOLY
 70
     0
  9
$TDCREATE
 40
2458775.389592616
  9
$TDUCREATE
 40
2458775.347925949
  9
$TDUPDATE
 40
2458775.389593472
  9
$TDUUPDATE
 40
2458775.347926806
  9
$TDINDWG
 40
0.0000000116
  9
$TDUSRTIMER
 40
0.0000000116
  9
$USRTIMER
 70
     1
  9
$ANGBASE
 50
0.0
  9
$ANGDIR
 70
     0
  9
$PDMODE
 70
     0
  9
$PDSIZE
 40
-1.0
  9
$PLINEWID
 40
0.0
  9
$SPLFRAME
 70
     0
  9
$SPLINETYPE
 70
     6
  9
$SPLINESEGS
 70
     8
  9
$HANDSEED
  5
243
  9
$SURFTAB1
 70
     6
  9
$SURFTAB2
 70
     6
  9
$SURFTYPE
 70
     6
  9
$SURFU
 70
     6
  9
$SURFV
 70
     6
  9
$UCSBASE
  2

  9
$UCSNAME
  2

  9
$UCSORG
 10
0.0
 20
0.0
 30
0.0
  9
$UCSXDIR
 10
1.0
 20
0.0
 30
0.0
  9
$UCSYDIR
 10
0.0
 20
1.0
 30
0.0
  9
$UCSORTHOREF
  2

  9
$UCSORTHOVIEW
 70
     0
  9
$UCSORGTOP
 10
0.0
 20
0.0
 30
0.0
  9
$UCSORGBOTTOM
 10
0.0
 20
0.0
 30
0.0
  9
$UCSORGLEFT
 10
0.0
 20
0.0
 30
0.0
  9
$UCSORGRIGHT
 10
0.0
 20
0.0
 30
0.0
  9
$UCSORGFRONT
 10
0.0
 20
0.0
 30
0.0
  9
$UCSORGBACK
 10
0.0
 20
0.0
 30
0.0
  9
$PUCSBASE
  2

  9
$PUCSNAME
  2

  9
$PUCSORG
 10
0.0
 20
0.0
 30
0.0
  9
$PUCSXDIR
 10
1.0
 20
0.0
 30
0.0
  9
$PUCSYDIR
 10
0.0
 20
1.0
 30
0.0
  9
$PUCSORTHOREF
  2

  9
$PUCSORTHOVIEW
 70
     0
  9
$PUCSORGTOP
 10
0.0
 20
0.0
 30
0.0
  9
$PUCSORGBOTTOM
 10
0.0
 20
0.0
 30
0.0
  9
$PUCSORGLEFT
 10
0.0
 20
0.0
 30
0.0
  9
$PUCSORGRIGHT
 10
0.0
 20
0.0
 30
0.0
  9
$PUCSORGFRONT
 10
0.0
 20
0.0
 30
0.0
  9
$PUCSORGBACK
 10
0.0
 20
0.0
 30
0.0
  9
$USERI1
 70
     0
  9
$USERI2
 70
     0
  9
$USERI3
 70
     0
  9
$USERI4
 70
     0
  9
$USERI5
 70
     0
  9
$USERR1
 40
0.0
  9
$USERR2
 40
0.0
  9
$USERR3
 40
0.0
  9
$USERR4
 40
0.0
  9
$USERR5
 40
0.0
  9
$WORLDVIEW
 70
     1
  9
$SHADEDGE
 70
     3
  9
$SHADEDIF
 70
    70
  9
$TILEMODE
 70
     1
  9
$MAXACTVP
 70
    64
  9
$PINSBASE
 10
0.0
 20
0.0
 30
0.0
  9
$PLIMCHECK
 70
     0
  9
$PEXTMIN
 10
1.0000000000E+20
 20
1.0000000000E+20
 30
1.0000000000E+20
  9
$PEXTMAX
 10
-1.0000000000E+20
 20
-1.0000000000E+20
 30
-1.0000000000E+20
  9
$PLIMMIN
 10
0.0
 20
0.0
  9
$PLIMMAX
 10
420.0
 20
297.0
  9
$UNITMODE
 70
     0
  9
$VISRETAIN
 70
     1
  9
$PLINEGEN
 70
     0
  9
$PSLTSCALE
 70
     1
  9
$TREEDEPTH
 70
  3020
  9
$CMLSTYLE
  2
Standard
  9
$CMLJUST
 70
     0
  9
$CMLSCALE
 40
20.0
  9
$PROXYGRAPHICS
 70
     1
  9
$MEASUREMENT
 70
     1
  9
$CELWEIGHT
370
    -1
  9
$ENDCAPS
280
     0
  9
$JOINSTYLE
280
     0
  9
$LWDISPLAY
290
     1
  9
$INSUNITS
 70
     4
  9
$HYPERLINKBASE
  1

  9
$STYLESHEET
  1

  9
$XEDIT
290
     1
  9
$CEPSNTYPE
380
     0
  9
$PSTYLEMODE
290
     1
  9
$FINGERPRINTGUID
  2
{1DCBF2A9-5221-4EB9-8081-2F1C6C9A7775}
  9
$VERSIONGUID
  2
{FAEB1C32-E019-11D5-929B-00C0DF256EC4}
  9
$EXTNAMES
290
     1
  9
$PSVPSCALE
 40
0.0
  9
$OLESTARTUP
290
     0
  9
$SORTENTS
280
   127
  9
$INDEXCTL
280
     0
  9
$HIDETEXT
280
     1
  9
$XCLIPFRAME
280
     2
  9
$HALOGAP
280
     0
  9
$OBSCOLOR
 70
   257
  9
$OBSLTYPE
280
     0
  9
$INTERSECTIONDISPLAY
280
     0
  9
$INTERSECTIONCOLOR
 70
   257
  9
$DIMASSOC
280
     2
  9
$PROJECTNAME
  1

  9
$CAMERADISPLAY
290
     0
  9
$LENSLENGTH
 40
50.0
  9
$CAMERAHEIGHT
 40
0.0
  9
$STEPSPERSEC
 40
2.0
  9
$STEPSIZE
 40
6.0
  9
$3DDWFPREC
 40
2.0
  9
$PSOLWIDTH
 40
5.0
  9
$PSOLHEIGHT
 40
80.0
  9
$LOFTANG1
 40
1.5707963268
  9
$LOFTANG2
 40
1.5707963268
  9
$LOFTMAG1
 40
0.0
  9
$LOFTMAG2
 40
0.0
  9
$LOFTPARAM
 70
     7
  9
$LOFTNORMALS
280
     1
  9
$LATITUDE
 40
37.795
  9
$LONGITUDE
 40
-122.394
  9
$NORTHDIRECTION
 40
0.0
  9
$TIMEZONE
 70
 -8000
  9
$LIGHTGLYPHDISPLAY
280
     1
  9
$TILEMODELIGHTSYNCH
280
     1
  9
$CMATERIAL
347
44
  9
$SOLIDHIST
280
     0
  9
$SHOWHIST
280
     1
  9
$DWFFRAME
280
     2
  9
$DGNFRAME
280
     2
  9
$REALWORLDSCALE
290
     1
  9
$INTERFERECOLOR
 62
   256
  9
$CSHADOW
280
     0
  9
$SHADOWPLANELOCATION
 40
0.0
  0
ENDSEC
  0
SECTION
  2
CLASSES
  0
CLASS
  1
ACDBDICTIONARYWDFLT
  2
AcDbDictionaryWithDefault
  3
ObjectDBX Classes
 90
        0
 91
        4
280
     0
281
     0
  0
CLASS
  1
VISUALSTYLE
  2
AcDbVisualStyle
  3
ObjectDBX Classes
 90
     4095
 91
        4
280
     0
281
     0
  0
CLASS
  1
MATERIAL
  2
AcDbMaterial
  3
ObjectDBX Classes
 90
     1153
 91
        4
280
     0
281
     0
  0
CLASS
  1
SCALE
  2
AcDbScale
  3
ObjectDBX Classes
 90
     1153
 91
        4
280
     0
281
     0
  0
CLASS
  1
TABLESTYLE
  2
AcDbTableStyle
  3
ObjectDBX Classes
 90
     4095
 91
        4
280
     0
281
     0
  0
CLASS
  1
MLEADERSTYLE
  2
AcDbMLeaderStyle
  3
ACDB_MLEADERSTYLE_CLASS
 90
     4095
 91
        4
280
     0
281
     0
  0
CLASS
  1
SUN
  2
AcDbSun
  3
SCENEOE
 90
     1153
 91
        4
280
     0
281
     0
  0
CLASS
  1
DICTIONARYVAR
  2
AcDbDictionaryVar
  3
ObjectDBX Classes
 90
        0
 91
        4
280
     0
281
     0
  0
CLASS
  1
CELLSTYLEMAP
  2
AcDbCellStyleMap
  3
ObjectDBX Classes
 90
     1152
 91
        4
280
     0
281
     0
  0
ENDSEC
  0
SECTION
  2
TABLES
  0
TABLE
  2
VPORT
  5
8
330
0
100
AcDbSymbolTable
 70
     1
  0
VPORT
  5
29
330
8
100
AcDbSymbolTableRecord
100
AcDbViewportTableRecord
  2
*Active
 70
     0
 10
0.0
 20
0.0
 11
1.0
 21
1.0
 12
1500.0
 22
1500.0
 13
0.0
 23
0.0
 14
10.0
 24
10.0
 15
10.0
 25
10.0
 16
0.0
 26
0.0
 36
1.0
 17
0.0
 27
0.0
 37
0.0
 40
3000.0
 41
1.0
 42
50.0
 43
0.0
 44
0.0
 50
0.0
 51
0.0
 71
     0
 72
  2000
 73
     1
 74
     3
 75
     0
 76
     0
 77
     0
 78
     0
281
     0
 65
     1
110
0.0
120
0.0
130
0.0
111
1.0
121
0.0
131
0.0
112
0.0
122
1.0
132
0.0
 79
     0
146
0.0
 60
     3
 61
     5
292
     1
282
     1
141
0.0
142
0.0
 63
   250
361
6D
  0
ENDTAB
  0
TABLE
  2
LTYPE
  5
5
330
0
100
AcDbSymbolTable
 70
     6
  0
LTYPE
  5
14
330
5
100
AcDbSymbolTableRecord
100
AcDbLinetypeTableRecord
  2
ByBlock
 70
     0
  3

 72
    65
 73
     0
 40
0.0
  0
LTYPE
  5
15
330
5
100
AcDbSymbolTableRecord
100
AcDbLinetypeTableRecord
  2
ByLayer
 70
     0
  3

 72
    65
 73
     0
 40
0.0
  0
LTYPE
  5
16
330
5
100
AcDbSymbolTableRecord
100
AcDbLinetypeTableRecord
  2
Continuous
 70
     0
  3
Solid line
 72
    65
 73
     0
 40
0.0
  0
LTYPE
  5
6E
330
5
100
AcDbSymbolTableRecord
100
AcDbLinetypeTableRecord
  2
HIDDEN
 70
     0
  3
Hidden __ __ __ __ __ __ __ __ __ __ __ __ __ __
 72
    65
 73
     2
 40
1.905
 49
1.27
 74
     0
 49
-0.635
 74
     0
  0
LTYPE
  5
6F
330
5
100
AcDbSymbolTableRecord
100
AcDbLinetypeTableRecord
  2
PHANTOM
 70
     0
  3
Phantom ______  __  __  ______  __  __  ______
 72
    65
 73
     6
 40
12.7
 49
6.35
 74
     0
 49
-1.27
 74
     0
 49
1.27
 74
     0
 49
-1.27
 74
     0
 49
1.27
 74
     0
 49
-1.27
 74
     0
  0
LTYPE
  5
70
330
5
100
AcDbSymbolTableRecord
100
AcDbLinetypeTableRecord
  2
CENTER
 70
     0
  3
Center ____ _ ____ _ ____ _ ____ _ ____ _ ____
 72
    65
 73
     4
 40
10.16
 49
6.35
 74
     0
 49
-1.27
 74
     0
 49
1.27
 74
     0
 49
-1.27
 74
     0
  0
LTYPE
  5
71
330
5
100
AcDbSymbolTableRecord
100
AcDbLinetypeTableRecord
  2
CENTERX2
 70
     0
  3
Center (2x) ________  __  ________  __  _____
 72
    65
 73
     4
 40
20.32
 49
12.7
 74
     0
 49
-2.54
 74
     0
 49
2.54
 74
     0
 49
-2.54
 74
     0
  0
LTYPE
  5
72
330
5
100
AcDbSymbolTableRecord
100
AcDbLinetypeTableRecord
  2
DOT2
 70
     0
  3
Dot (.5x) ........................................
 72
    65
 73
     2
 40
0.635
 49
0.0
 74
     0
 49
-0.635
 74
     0
  0
ENDTAB
  0
TABLE
  2
LAYER
  5
2
330
0
100
AcDbSymbolTable
 70
     1
  0
LAYER
  5
10
330
2
100
AcDbSymbolTableRecord
100
AcDbLayerTableRecord
  2
0
 70
     0
 62
     7
  6
Continuous
370
    -3
390
F
347
46
  0
ENDTAB
  0
TABLE
  2
STYLE
  5
3
330
0
100
AcDbSymbolTable
 70
     1
  0
STYLE
  5
11
330
3
100
AcDbSymbolTableRecord
100
AcDbTextStyleTableRecord
  2
Standard
 70
     0
 40
0.0
 41
1.0
 50
0.0
 71
     0
 42
3.5
  3
txt
  4

  0
ENDTAB
  0
TABLE
  2
VIEW
  5
6
330
0
100
AcDbSymbolTable
 70
     0
  0
ENDTAB
  0
TABLE
  2
UCS
  5
7
330
0
100
AcDbSymbolTable
 70
     0
  0
ENDTAB
  0
TABLE
  2
APPID
  5
9
330
0
100
AcDbSymbolTable
 70
     1
  0
APPID
  5
12
330
9
100
AcDbSymbolTableRecord
100
AcDbRegAppTableRecord
  2
ACAD
 70
     0
  0
ENDTAB
  0
TABLE
  2
DIMSTYLE
  5
A
330
0
100
AcDbSymbolTable
 70
     1
100
AcDbDimStyleTable
  0
DIMSTYLE
105
27
330
A
100
AcDbSymbolTableRecord
100
AcDbDimStyleTableRecord
  2
ISO-25
 70
     0
 41
2.5
 42
0.625
 43
3.75
 44
1.25
 73
     0
 74
     0
 77
     1
 78
     8
140
2.5
141
2.5
143
0.0393700787
147
0.625
171
     3
172
     1
178
     0
271
     2
272
     2
274
     3
278
    44
283
     0
284
     8
340
11
  0
ENDTAB
  0
TABLE
  2
BLOCK_RECORD
  5
1
330
0
100
AcDbSymbolTable
 70
     1
  0
BLOCK_RECORD
  5
1F
330
1
100
AcDbSymbolTableRecord
100
AcDbBlockTableRecord
  2
*Model_Space
340
22
 70
     0
280
     1
281
     0
  0
BLOCK_RECORD
  5
1B
330
1
100
AcDbSymbolTableRecord
100
AcDbBlockTableRecord
  2
*Paper_Space
340
1E
 70
     0
280
     1
281
     0
  0
BLOCK_RECORD
  5
23
330
1
100
AcDbSymbolTableRecord
100
AcDbBlockTableRecord
  2
*Paper_Space0
340
26
 70
     0
280
     1
281
     0
  0
ENDTAB
  0
ENDSEC
  0
SECTION
  2
BLOCKS
  0
BLOCK
  5
20
330
1F
100
AcDbEntity
  8
0
100
AcDbBlockBegin
  2
*Model_Space
 70
     0
 10
0.0
 20
0.0
 30
0.0
  3
*Model_Space
  1

  0
ENDBLK
  5
21
330
1F
100
AcDbEntity
  8
0
100
AcDbBlockEnd
  0
BLOCK
  5
1C
330
1B
100
AcDbEntity
 67
     1
  8
0
100
AcDbBlockBegin
  2
*Paper_Space
 70
     0
 10
0.0
 20
0.0
 30
0.0
  3
*Paper_Space
  1

  0
ENDBLK
  5
1D
330
1B
100
AcDbEntity
 67
     1
  8
0
100
AcDbBlockEnd
  0
BLOCK
  5
24
330
23
100
AcDbEntity
  8
0
100
AcDbBlockBegin
  2
*Paper_Space0
 70
     0
 10
0.0
 20
0.0
 30
0.0
  3
*Paper_Space0
  1

  0
ENDBLK
  5
25
330
23
100
AcDbEntity
  8
0
100
AcDbBlockEnd
  0
ENDSEC
  0
SECTION
  2
ENTITIES
  0
SPLINE
  5
73
330
1F
100
AcDbEntity
  8
0
  6
Continuous
 62
     7
370
    15
100
AcDbSpline
210
0.0
220
0.0
230
1.0
 70
     8
 71
     3
 72
    64
 73
    60
 74
     0
 42
0.000000001
 43
0.00000001
 40
0.0
 40
0.0
 40
0.0
 40
0.0
 40
0.0028145621723875
 40
0.0383458651180864
 40
0.0708309937726499
 40
0.1003893580236775
 40
0.1228671892444713
 40
0.1425356263898119
 40
0.1591176892999434
 40
0.1696836330457465
 40
0.1788321339031649
 40
0.1868322939471098
 40
0.194082619841259
 40
0.2019078653391913
 40
0.2123641948886493
 40
0.2257339306724724
 40
0.2382847595857871
 40
0.2526379403238928
 40
0.2669969657002643
 40
0.2829765811422699
 40
0.2952273410194096
 40
0.3038172627621437
 40
0.3122178781434397
 40
0.3273151155667222
 40
0.3460801230273203
 40
0.3680260753200723
 40
0.3911840217424327
 40
0.4153561513882384
 40
0.4476621657641356
 40
0.4816217102224422
 40
0.5172288932243885
 40
0.5511947717755172
 40
0.5806624587175924
 40
0.6056483650224069
 40
0.6261788696004198
 40
0.6386965445214631
 40
0.6519543158706056
 40
0.6661467328097875
 40
0.6831035073835378
 40
0.703300234829291
 40
0.7266769565277554
 40
0.7427765935993749
 40
0.7550616223669486
 40
0.7602771182068675
 40
0.764298950189517
 40
0.7683005213892682
 40
0.7702568969213538
 40
0.7725924066726476
 40
0.778836771947535
 40
0.7875384365681014
 40
0.7988629846040258
 40
0.8168843596668539
 40
0.8392180081438931
 40
0.8659015738793207
 40
0.896956794223558
 40
0.924432571351022
 40
0.9546186592105668
 40
0.9875182782192415
 40
1.0
 40
1.0
 40
1.0
 40
1.0
 10
839.7496948446948
 20
1055.529829765202
 30
0.0
 10
839.7550783805596
 20
1055.535071908722
 30
0.0
 10
839.8284241897785
 20
1055.606491375074
 30
0.0
 10
839.5323826659036
 20
1055.783578104233
 30
0.0
 10
838.7609653411788
 20
1056.00271646569
 30
0.0
 10
837.4951090350336
 20
1056.144142643236
 30
0.0
 10
835.8933437138995
 20
1056.196221143755
 30
0.0
 10
834.1657144562607
 20
1056.182878552135
 30
0.0
 10
832.3499440363656
 20
1056.121514232244
 30
0.0
 10
830.5250133329223
 20
1056.036137684597
 30
0.0
 10
828.7956333321541
 20
1055.946010073334
 30
0.0
 10
826.9283604285736
 20
1055.845182998567
 30
0.0
 10
824.8259454218625
 20
1055.732118111883
 30
0.0
 10
822.2875146639665
 20
1055.598751258856
 30
0.0
 10
819.1890464067793
 20
1055.441475987632
 30
0.0
 10
815.6105512320008
 20
1055.267884977543
 30
0.0
 10
811.6535497687925
 20
1055.085819774724
 30
0.0
 10
807.597352127495
 20
1054.909812954004
 30
0.0
 10
803.2018764710374
 20
1054.731594140514
 30
0.0
 10
799.0059706272114
 20
1054.574225998659
 30
0.0
 10
795.3705536821981
 20
1054.448302057632
 30
0.0
 10
792.4726787687736
 20
1054.354041009983
 30
0.0
 10
789.2751194066689
 20
1054.255020946085
 30
0.0
 10
785.0579074622362
 20
1054.13369662958
 30
0.0
 10
779.4889176936562
 20
1053.990783326403
 30
0.0
 10
773.1185297998131
 20
1053.8506389545
 30
0.0
 10
766.20490110452
 20
1053.729022126272
 30
0.0
 10
758.2562768979936
 20
1053.626143021824
 30
0.0
 10
749.2290784964282
 20
1053.559349431721
 30
0.0
 10
739.0617146012153
 20
1053.54813068159
 30
0.0
 10
728.7329996735109
 20
1053.603958031322
 30
0.0
 10
718.851532070814
 20
1053.720854953125
 30
0.0
 10
710.0262076919012
 20
1053.876638254456
 30
0.0
 10
702.5436978219465
 20
1054.046747156792
 30
0.0
 10
696.7571845678373
 20
1054.203414394295
 30
0.0
 10
692.1584812140069
 20
1054.342539775258
 30
0.0
 10
688.2074450115646
 20
1054.472230566129
 30
0.0
 10
683.8465910305505
 20
1054.627248124054
 30
0.0
 10
678.7944628866826
 20
1054.823060458235
 30
0.0
 10
672.8336093016904
 20
1055.07629421189
 30
0.0
 10
666.9541679201789
 20
1055.351012643291
 30
0.0
 10
661.8541339744496
 20
1055.608445288599
 30
0.0
 10
658.5502799306187
 20
1055.78405470172
 30
0.0
 10
656.4282358910442
 20
1055.900348337386
 30
0.0
 10
655.1387152707646
 20
1055.97213142856
 30
0.0
 10
654.1254579801952
 20
1056.029283251333
 30
0.0
 10
653.3968378842204
 20
1056.070915549015
 30
0.0
 10
652.6835894916956
 20
1056.111735600566
 30
0.0
 10
651.9032614979739
 20
1056.154771412755
 30
0.0
 10
651.1159650260041
 20
1056.19000967012
 30
0.0
 10
650.3164183959335
 20
1056.206170671955
 30
0.0
 10
649.5746204602191
 20
1056.179146957555
 30
0.0
 10
648.9154494329119
 20
1056.083074869518
 30
0.0
 10
648.3811384782424
 20
1055.909212236611
 30
0.0
 10
648.0080404489627
 20
1055.687478689644
 30
0.0
 10
647.75511429228
 20
1055.455769398089
 30
0.0
 10
647.6042651884677
 20
1055.260653952577
 30
0.0
 10
647.5361589108788
 20
1055.138876235399
 30
0.0
 10
647.5412540045817
 20
1055.090454074495
 30
0.0
 10
647.5426553633987
 20
1055.077136003016
 30
0.0
  0
SPLINE
  5
74
330
1F
100
AcDbEntity
  8
0
  6
Continuous
 62
     7
370
    15
100
AcDbSpline
210
0.0
220
0.0
230
1.0
 70
     8
 71
     3
 72
    35
 73
    31
 74
     0
 42
0.000000001
 43
0.00000001
 40
0.0
 40
0.0
 40
0.0
 40
0.0
 40
0.0727309229098036
 40
0.1388478100505221
 40
0.1980984978342218
 40
0.2505116723911513
 40
0.2961056164308393
 40
0.334896306790236
 40
0.3669002715063936
 40
0.3921368984392134
 40
0.4044854948205552
 40
0.4142121539868789
 40
0.4213384560385859
 40
0.4259220105999253
 40
0.4275509047947922
 40
0.4293198117059503
 40
0.4336342171985405
 40
0.4465872560392466
 40
0.4661962462616537
 40
0.4927776856010714
 40
0.5264491300645313
 40
0.5672643609592848
 40
0.6099259394470234
 40
0.6583561790894712
 40
0.7088699190040859
 40
0.7574182947120245
 40
0.8040411750946952
 40
0.8901929234005366
 40
0.9695397736515445
 40
1.0
 40
1.0
 40
1.0
 40
1.0
 10
942.1727725379523
 20
1066.918893865013
 30
0.0
 10
939.1071133900822
 20
1066.477488800083
 30
0.0
 10
933.2545813168816
 20
1065.634819352773
 30
0.0
 10
924.8758162428283
 20
1064.47954624106
 30
0.0
 10
917.3280938256813
 20
1063.476484631036
 30
0.0
 10
910.6193428682415
 20
1062.621411130212
 30
0.0
 10
904.7485145599439
 20
1061.904493217653
 30
0.0
 10
899.7165840715919
 20
1061.315693027747
 30
0.0
 10
895.5256737658952
 20
1060.844390232693
 30
0.0
 10
892.4509694174313
 20
1060.510177764443
 30
0.0
 10
890.3272392502472
 20
1060.28405098561
 30
0.0
 10
888.9945426417296
 20
1060.143589514407
 30
0.0
 10
887.9936894209098
 20
1060.038140560347
 30
0.0
 10
887.3460752803073
 20
1059.969683219925
 30
0.0
 10
886.9418648738655
 20
1059.925028452351
 30
0.0
 10
886.5697523356204
 20
1059.882162604171
 30
0.0
 10
885.7836012190282
 20
1059.78672100261
 30
0.0
 10
884.7095262865253
 20
1059.644400368308
 30
0.0
 10
883.346658055836
 20
1059.45423190765
 30
0.0
 10
881.7996562072627
 20
1059.23011807127
 30
0.0
 10
880.0630674707943
 20
1058.974783479316
 30
0.0
 10
878.2261561451891
 20
1058.704500920243
 30
0.0
 10
876.293097194752
 20
1058.422311312171
 30
0.0
 10
874.3128395482056
 20
1058.135613145365
 30
0.0
 10
872.3751373301756
 20
1057.856569743984
 30
0.0
 10
870.6708784385809
 20
1057.608038712666
 30
0.0
 10
868.8047972175445
 20
1057.329410373309
 30
0.0
 10
867.1598571388233
 20
1057.059285329568
 30
0.0
 10
866.2254385942007
 20
1056.858958322123
 30
0.0
 10
866.2660839148972
 20
1056.793464037549
 30
0.0
 10
866.2773588318403
 20
1056.775296076117
 30
0.0
  0
LWPOLYLINE
  5
75
330
1F
100
AcDbEntity
  8
0
  6
Continuous
 62
     7
370
    15
100
AcDbPolyline
 90
       27
 70
   128
 43
0.0
 10
616.3550822258
 20
1057.1374122311
 10
616.3661285431
 20
1057.1803727193
 10
616.2734345022
 20
1057.2874772848
 10
615.979250527
 20
1057.434300078
 10
615.4901679768
 20
1057.5906782461
 10
614.8062978323
 20
1057.7584644804
 10
613.9277958377
 20
1057.938548304
 10
612.8548630979
 20
1058.1311835446
 10
611.5877468467
 20
1058.3329871831
 10
610.5101519688
 20
1058.4874424841
 10
609.3236353057
 20
1058.6424658178
 10
608.0283542801
 20
1058.7967583683
 10
607.3399806553
 20
1058.8734582358
 10
606.6244821831
 20
1058.9499033375
 10
604.8828374653
 20
1059.1266919791
 10
602.1820517807
 20
1059.3964959144
 10
598.4904495419
 20
1059.7714612986
 10
593.8125131514
 20
1060.2635714835
 10
588.7870764622
 20
1060.8155963131
 10
582.9765033401
 20
1061.4840343725
 10
576.3830336859
 20
1062.2796960305
 10
569.0074253744
 20
1063.2125038938
 10
560.8480347865
 20
1064.2912226264
 10
552.0670310569
 20
1065.5005078302
 10
542.5177339811
 20
1066.8649596156
 10
542.1775550407
 20
1066.9150744139
 10
542.1775550407
 20
1066.9150744139
  0
SPLINE
  5
76
330
1F
100
AcDbEntity
  8
0
  6
Continuous
 62
     7
370
    15
100
AcDbSpline
210
0.0
220
0.0
230
1.0
 70
     8
 71
     3
 72
     9
 73
     5
 74
     0
 42
0.000000001
 43
0.00000001
 40
0.0
 40
0.0
 40
0.0
 40
0.0
 40
0.4996285454912464
 40
1.0
 40
1.0
 40
1.0
 40
1.0
 10
943.6635842603994
 20
1056.931237177286
 30
0.0
 10
943.4095434697633
 20
1058.608941705053
 30
0.0
 10
942.9010841494769
 20
1061.966845377503
 30
0.0
 10
942.4166847946708
 20
1065.27382144857
 30
0.0
 10
942.1743051849433
 20
1066.928537875276
 30
0.0
  0
SPLINE
  5
77
330
1F
100
AcDbEntity
  8
0
  6
Continuous
 62
     7
370
    15
100
AcDbSpline
210
0.0
220
0.0
230
1.0
 70
     8
 71
     3
 72
     9
 73
     5
 74
     0
 42
0.000000001
 43
0.00000001
 40
0.0
 40
0.0
 40
0.0
 40
0.0
 40
0.5003718776581935
 40
0.9999999999999999
 40
0.9999999999999999
 40
0.9999999999999999
 40
0.9999999999999999
 10
542.1743051849433
 20
1066.926206098879
 30
0.0
 10
541.9318253389426
 20
1065.271492250504
 30
0.0
 10
541.4472260702244
 20
1061.964524128874
 30
0.0
 10
540.9385389196452
 20
1058.606602628475
 30
0.0
 10
540.684384513742
 20
1056.928890614259
 30
0.0
  0
LINE
  5
78
330
1F
100
AcDbEntity
  8
0
  6
Continuous
 62
     7
370
    15
100
AcDbLine
 10
549.0029672829
 20
1397.721548197
 30
0.0
 11
545.7633702054
 21
1396.4058374016
 31
0.0
  0
LINE
  5
79
330
1F
100
AcDbEntity
  8
0
  6
Continuous
 62
     7
370
    15
100
AcDbLine
 10
938.5767857543
 20
1396.4104707275
 30
0.0
 11
935.3400825658
 21
1397.72420038
 31
0.0
  0
SPLINE
  5
7A
330
1F
100
AcDbEntity
  8
0
  6
Continuous
 62
     7
370
    15
100
AcDbSpline
210
0.0
220
0.0
230
1.0
 70
     8
 71
     3
 72
    23
 73
    19
 74
     0
 42
0.000000001
 43
0.00000001
 40
0.0
 40
0.0
 40
0.0
 40
0.0
 40
0.0376163691389921
 40
0.1090359885069255
 40
0.1805452681155498
 40
0.2523004574119223
 40
0.3246063962965506
 40
0.3978704816212217
 40
0.47271128242814
 40
0.5501704324390564
 40
0.6321318183616046
 40
0.7098281665139095
 40
0.7712340546572044
 40
0.8250736388067973
 40
0.8749821981383942
 40
0.9228355678417534
 40
0.9697208487608263
 40
1.0
 40
1.0
 40
1.0
 40
1.0
 10
967.5162783369892
 20
344.7426049062092
 30
0.0
 10
967.5339302125853
 20
344.2911867031876
 30
0.0
 10
967.5850964933477
 20
342.9826917281783
 30
0.0
 10
967.7374136756572
 20
340.8071458266102
 30
0.0
 10
967.9998043709713
 20
338.2546612385349
 30
0.0
 10
968.3473577767601
 20
335.7615604654341
 30
0.0
 10
968.7773472487946
 20
333.3551420795388
 30
0.0
 10
969.2915745238377
 20
331.0552682464539
 30
0.0
 10
969.896901962089
 20
328.8728937066
 30
0.0
 10
970.6133561276935
 20
326.8033048996428
 30
0.0
 10
971.4490271627757
 20
324.9134186528136
 30
0.0
 10
972.3800296183704
 20
323.3159531738767
 30
0.0
 10
973.386266656302
 20
322.0262526872719
 30
0.0
 10
974.4487340593874
 20
321.0140825069327
 30
0.0
 10
975.6254029907408
 20
320.2114328003134
 30
0.0
 10
976.9251906604632
 20
319.6357621084758
 30
0.0
 10
978.160729216457
 20
319.3370105164216
 30
0.0
 10
978.9491219377549
 20
319.3066072990548
 30
0.0
 10
979.2584854848757
 20
319.2946771443054
 30
0.0
  0
SPLINE
  5
7B
330
1F
100
AcDbEntity
  8
0
  6
Continuous
 62
     7
370
    15
100
AcDbSpline
210
0.0
220
0.0
230
1.0
 70
     8
 71
     3
 72
    19
 73
    15
 74
     0
 42
0.000000001
 43
0.00000001
 40
0.0
 40
0.0
 40
0.0
 40
0.0
 40
0.0570612287150956
 40
0.1261398889949572
 40
0.2019901330828219
 40
0.284799155540746
 40
0.3738125111288815
 40
0.4678097398978792
 40
0.5655183216719503
 40
0.6658393605982407
 40
0.7679055012293674
 40
0.8710492838897201
 40
0.9694847910573071
 40
1.0
 40
1.0
 40
1.0
 40
1.0
 10
982.3725181806541
 20
330.0326550905024
 30
0.0
 10
982.3628210937047
 20
330.0456759737654
 30
0.0
 10
982.3413846560588
 20
330.074460015161
 30
0.0
 10
982.1467034975353
 20
330.4169632396572
 30
0.0
 10
981.8728831831163
 20
331.0225509585993
 30
0.0
 10
981.5332659388841
 20
331.929385716851
 30
0.0
 10
981.1629735684173
 20
333.1290405384243
 30
0.0
 10
980.7871381092872
 20
334.605477410068
 30
0.0
 10
980.4302486370002
 20
336.322789975205
 30
0.0
 10
980.1117513138876
 20
338.2355560061854
 30
0.0
 10
979.8465161899877
 20
340.2925834765684
 30
0.0
 10
979.6497455406874
 20
342.4028510807622
 30
0.0
 10
979.5504213702936
 20
344.0342819554451
 30
0.0
 10
979.5173192602451
 20
344.9335082540129
 30
0.0
 10
979.5094858969646
 20
345.1463033374005
 30
0.0
  0
SPLINE
  5
7C
330
1F
100
AcDbEntity
  8
0
  6
Continuous
 62
     7
370
    15
100
AcDbSpline
210
0.0
220
0.0
230
1.0
 70
     8
 71
     3
 72
    23
 73
    19
 74
     0
 42
0.000000001
 43
0.00000001
 40
0.0
 40
0.0
 40
0.0
 40
0.0
 40
0.0471599749051731
 40
0.0940634810708931
 40
0.1406262815948518
 40
0.1884961906235228
 40
0.239783890098723
 40
0.2975503928902283
 40
0.3660066701158776
 40
0.4473935581705469
 40
0.5308964863493774
 40
0.6095130957655742
 40
0.6848467563723443
 40
0.7582937451844175
 40
0.8306506516469682
 40
0.902402930160288
 40
0.9738870478188634
 40
1.0
 40
1.0
 40
1.0
 40
1.0
 10
505.0901248850107
 20
319.2946771443054
 30
0.0
 10
505.5720855914481
 20
319.3229985715685
 30
0.0
 10
506.5333859712308
 20
319.3794874064888
 30
0.0
 10
507.8842402987852
 20
319.8112061644184
 30
0.0
 10
509.0993029444366
 20
320.4405383043429
 30
0.0
 10
510.1743102800534
 20
321.2527870339426
 30
0.0
 10
511.1391674337017
 20
322.2356422812022
 30
0.0
 10
512.0379550501066
 20
323.4347139102184
 30
0.0
 10
512.90855973712
 20
324.9402348575732
 30
0.0
 10
513.7342849507503
 20
326.7949324160616
 30
0.0
 10
514.4779939855367
 20
328.9478170435933
 30
0.0
 10
515.109047556455
 20
331.2595673917412
 30
0.0
 10
515.6304511272544
 20
333.6507988785965
 30
0.0
 10
516.0569462397178
 20
336.1166998739978
 30
0.0
 10
516.3951888154894
 20
338.6460093052173
 30
0.0
 10
516.6454621088808
 20
341.2170366805742
 30
0.0
 10
516.7766562861658
 20
343.2588725487964
 30
0.0
 10
516.8205798879352
 20
344.429415792944
 30
0.0
 10
516.8323320328973
 20
344.7426049062092
 30
0.0
  0
SPLINE
  5
7D
330
1F
100
AcDbEntity
  8
0
  6
Continuous
 62
     7
370
    15
100
AcDbSpline
210
0.0
220
0.0
230
1.0
 70
     8
 71
     3
 72
    19
 73
    15
 74
     0
 42
0.000000001
 43
0.00000001
 40
0.0
 40
0.0
 40
0.0
 40
0.0
 40
0.0543681490629268
 40
0.1581086606053562
 40
0.2618483050114468
 40
0.3650654092884221
 40
0.4672712951427833
 40
0.5678612322406066
 40
0.6660469333620972
 40
0.7608001484015116
 40
0.8409209978630282
 40
0.9146995304948733
 40
0.9823061737416814
 40
1.0
 40
1.0
 40
1.0
 40
1.0
 10
504.8391244729218
 20
345.1463033374005
 30
0.0
 10
504.8242809631525
 20
344.7666989138672
 30
0.0
 10
504.7811143759366
 20
343.6627667771444
 30
0.0
 10
504.6521518260547
 20
341.8227810257904
 30
0.0
 10
504.4310423343496
 20
339.6782358282691
 30
0.0
 10
504.1437631830406
 20
337.624886204259
 30
0.0
 10
503.8019210382103
 20
335.7176049524876
 30
0.0
 10
503.4198293783409
 20
334.0087427097071
 30
0.0
 10
503.0170707242256
 20
332.5482368433874
 30
0.0
 10
502.6370251547397
 20
331.4263863242937
 30
0.0
 10
502.3089385091329
 20
330.641794793631
 30
0.0
 10
502.0851588185652
 20
330.1953286617402
 30
0.0
 10
501.9568182216473
 20
330.0071892523486
 30
0.0
 10
501.9812628242298
 20
330.0375369487145
 30
0.0
 10
501.9863333537773
 20
330.0438319535363
 30
0.0
  0
LINE
  5
7E
330
1F
100
AcDbEntity
  8
0
  6
Continuous
 62
     7
370
    15
100
AcDbLine
 10
979.509485897
 20
345.1463033374
 30
0.0
 11
970.7773158572
 21
604.5645216019
 31
0.0
  0
LINE
  5
7F
330
1F
100
AcDbEntity
  8
0
  6
Continuous
 62
     7
370
    15
100
AcDbLine
 10
970.3718297212
 20
616.6108388934
 30
0.0
 11
956.7532421794
 21
1021.196377114
 31
0.0
  0
LINE
  5
80
330
1F
100
AcDbEntity
  8
0
  6
Continuous
 62
     7
370
    15
100
AcDbLine
 10
944.7600346194
 20
1020.7926786828
 30
0.0
 11
958.3561496838
 21
616.8747603125
 31
0.0
  0
LINE
  5
81
330
1F
100
AcDbEntity
  8
0
  6
Continuous
 62
     7
370
    15
100
AcDbLine
 10
958.7600767525
 20
604.8747603125
 30
0.0
 11
967.516278337
 21
344.7426049062
 31
0.0
  0
LINE
  5
82
330
1F
100
AcDbEntity
  8
0
  6
Continuous
 62
     7
370
    15
100
AcDbLine
 10
516.8323320329
 20
344.7426049062
 30
0.0
 11
525.5885336174
 21
604.8747603125
 31
0.0
  0
LINE
  5
83
330
1F
100
AcDbEntity
  8
0
  6
Continuous
 62
     7
370
    15
100
AcDbLine
 10
525.9924606861
 20
616.8747603125
 30
0.0
 11
539.5885757505
 21
1020.7926786828
 31
0.0
  0
LINE
  5
84
330
1F
100
AcDbEntity
  8
0
  6
Continuous
 62
     7
370
    15
100
AcDbLine
 10
527.5953681905
 20
1021.196377114
 30
0.0
 11
513.9768352514
 21
616.6124610493
 31
0.0
  0
LINE
  5
85
330
1F
100
AcDbEntity
  8
0
  6
Continuous
 62
     7
370
    15
100
AcDbLine
 10
513.5713002493
 20
604.5646920278
 30
0.0
 11
504.8391244729
 21
345.1463033374
 31
0.0
  0
LINE
  5
86
330
1F
100
AcDbEntity
  8
0
  6
Continuous
 62
     7
370
    15
100
AcDbLine
 10
501.1313342385
 20
319.2946771443
 30
0.0
 11
505.090124885
 21
319.2946771443
 31
0.0
  0
LINE
  5
87
330
1F
100
AcDbEntity
  8
0
  6
Continuous
 62
     7
370
    15
100
AcDbLine
 10
502.5707817563
 20
331.2946771443
 30
0.0
 11
492.8072702638
 21
331.2946771443
 31
0.0
  0
LINE
  5
88
330
1F
100
AcDbEntity
  8
0
  6
Continuous
 62
     7
370
    15
100
AcDbLine
 10
991.5413401061
 20
331.2946771443
 30
0.0
 11
981.7807227062
 21
331.2946771443
 31
0.0
  0
LINE
  5
89
330
1F
100
AcDbEntity
  8
0
  6
Continuous
 62
     7
370
    15
100
AcDbLine
 10
979.2584854849
 20
319.2946771443
 30
0.0
 11
983.2172761313
 21
319.2946771443
 31
0.0
  0
ARC
  5
8A
330
1F
100
AcDbEntity
  8
0
  6
Continuous
 62
     7
370
    15
100
AcDbCircle
 10
992.1466188801
 20
325.2946771443
 30
0.0
 40
6.000000000000057
100
AcDbArc
 50
329.5200852559
 51
90.0
  0
LINE
  5
8B
330
1F
100
AcDbEntity
  8
0
  6
Continuous
 62
     7
370
    15
100
AcDbLine
 10
992.1466188801
 20
331.2946771443
 30
0.0
 11
991.5413401061
 21
331.2946771443
 31
0.0
  0
ARC
  5
8C
330
1F
100
AcDbEntity
  8
0
  6
Continuous
 62
     7
370
    15
100
AcDbCircle
 10
492.2019914898
 20
325.2946771443
 30
0.0
 40
6.000000000000057
100
AcDbArc
 50
90.0
 51
210.4799147441
  0
LINE
  5
8D
330
1F
100
AcDbEntity
  8
0
  6
Continuous
 62
     7
370
    15
100
AcDbLine
 10
492.8072702638
 20
331.2946771443
 30
0.0
 11
492.2019914898
 21
331.2946771443
 31
0.0
  0
SPLINE
  5
8E
330
1F
100
AcDbEntity
  8
0
  6
Continuous
 62
     7
370
    15
100
AcDbSpline
210
0.0
220
0.0
230
1.0
 70
     8
 71
     3
 72
    18
 73
    14
 74
     0
 42
0.000000001
 43
0.00000001
 40
0.0
 40
0.0
 40
0.0
 40
0.0
 40
0.0453100275385827
 40
0.1504182894396612
 40
0.2556235361304214
 40
0.3608628145498495
 40
0.4661656463529172
 40
0.5715561626167457
 40
0.6770503126361822
 40
0.7826537302434994
 40
0.8883604536148713
 40
0.9886659775538972
 40
1.0
 40
1.0
 40
1.0
 40
1.0
 10
932.766713045098
 20
1032.294677144305
 30
0.0
 10
933.0456608033646
 20
1032.288787945442
 30
0.0
 10
933.9716996279002
 20
1032.269237235203
 30
0.0
 10
935.534907318055
 20
1032.025066929941
 30
0.0
 10
937.3904705579889
 20
1031.433012443839
 30
0.0
 10
939.1254532332165
 20
1030.548060867696
 30
0.0
 10
940.6937609816737
 20
1029.39822857891
 30
0.0
 10
942.0546499330034
 20
1028.012168014744
 30
0.0
 10
943.1723884083838
 20
1026.426235198142
 30
0.0
 10
944.0179980980181
 20
1024.68145706378
 30
0.0
 10
944.5578865440987
 20
1022.85579792398
 30
0.0
 10
944.7306603606116
 20
1021.539558299665
 30
0.0
 10
944.7573273017939
 20
1020.861515835547
 30
0.0
 10
944.7600346194042
 20
1020.792678682795
 30
0.0
  0
SPLINE
  5
8F
330
1F
100
AcDbEntity
  8
0
  6
Continuous
 62
     7
370
    15
100
AcDbSpline
210
0.0
220
0.0
230
1.0
 70
     8
 71
     3
 72
    21
 73
    17
 74
     0
 42
0.000000001
 43
0.00000001
 40
0.0
 40
0.0
 40
0.0
 40
0.0
 40
0.0464345198964507
 40
0.1229054426753773
 40
0.1994014131212503
 40
0.2758998989464869
 40
0.3524041895792476
 40
0.4289172676320117
 40
0.5054416232502718
 40
0.5819791277209483
 40
0.6585309451299849
 40
0.7350974846176854
 40
0.8116783929693261
 40
0.8882725850284461
 40
0.9648783078967463
 40
1.0
 40
1.0
 40
1.0
 40
1.0
 10
956.7532421793796
 20
1021.196377113986
 30
0.0
 10
956.7229839102527
 20
1021.750491142325
 30
0.0
 10
956.6428946583355
 20
1023.217150646879
 30
0.0
 10
956.247732230745
 20
1025.57378541501
 30
0.0
 10
955.5015219014518
 20
1028.217538803268
 30
0.0
 10
954.4514622367524
 20
1030.758538894655
 30
0.0
 10
953.1173743859931
 20
1033.163145761135
 30
0.0
 10
951.5152027463533
 20
1035.399772164664
 30
0.0
 10
949.6664047924572
 20
1037.439059313332
 30
0.0
 10
947.5951241567329
 20
1039.254116879465
 30
0.0
 10
945.328581961651
 20
1040.821355462389
 30
0.0
 10
942.8964862626443
 20
1042.119001108026
 30
0.0
 10
940.3309251388541
 20
1043.134083318335
 30
0.0
 10
937.6651016640155
 20
1043.837605960885
 30
0.0
 10
935.4287711343013
 20
1044.198718850062
 30
0.0
 10
934.0898612609221
 20
1044.240850256717
 30
0.0
 10
933.6689727946598
 20
1044.254094331977
 30
0.0
  0
SPLINE
  5
90
330
1F
100
AcDbEntity
  8
0
  6
Continuous
 62
     7
370
    15
100
AcDbSpline
210
0.0
220
0.0
230
1.0
 70
     8
 71
     3
 72
    17
 73
    13
 74
     0
 42
0.000000001
 43
0.00000001
 40
0.0
 40
0.0
 40
0.0
 40
0.0
 40
0.0452494722955824
 40
0.1510285804267375
 40
0.2568816630863521
 40
0.3626783553302856
 40
0.468391019221109
 40
0.5740021328632748
 40
0.679505473803953
 40
0.7849060770788505
 40
0.8902190438667087
 40
1.0
 40
1.0
 40
1.0
 40
1.0
 10
539.5885757504822
 20
1020.792678682795
 30
0.0
 10
539.6037008803357
 20
1021.067375509451
 30
0.0
 10
539.6541838312886
 20
1021.984227567008
 30
0.0
 10
539.952272240903
 20
1023.526553532775
 30
0.0
 10
540.6128227011529
 20
1025.350161765632
 30
0.0
 10
541.5661932573122
 20
1027.044040270544
 30
0.0
 10
542.7821825240541
 20
1028.562765733705
 30
0.0
 10
544.2297733888976
 20
1029.865762386339
 30
0.0
 10
545.8702174970605
 20
1030.92088705761
 30
0.0
 10
547.6602194502118
 20
1031.692818055111
 30
0.0
 10
549.5795762919442
 20
1032.19775868377
 30
0.0
 10
550.9052777039941
 20
1032.261926685743
 30
0.0
 10
551.5818973247885
 20
1032.294677144305
 30
0.0
  0
SPLINE
  5
91
330
1F
100
AcDbEntity
  8
0
  6
Continuous
 62
     7
370
    15
100
AcDbSpline
210
0.0
220
0.0
230
1.0
 70
     8
 71
     3
 72
    21
 73
    17
 74
     0
 42
0.000000001
 43
0.00000001
 40
0.0
 40
0.0
 40
0.0
 40
0.0
 40
0.0208151215550179
 40
0.097444005488554
 40
0.1741006440691417
 40
0.2507550828506433
 40
0.3274041365826457
 40
0.4040449044685398
 40
0.4806748901800827
 40
0.5572921371275721
 40
0.6338953409028356
 40
0.7104839309530275
 40
0.7870581144605332
 40
0.8636188772246851
 40
0.9401679390423514
 40
1.0
 40
1.0
 40
1.0
 40
1.0
 10
550.6639329129417
 20
1044.262920372345
 30
0.0
 10
550.4146244400612
 20
1044.256310058555
 30
0.0
 10
549.2475106119965
 20
1044.225364505269
 30
0.0
 10
547.1746986363411
 20
1043.933871442175
 30
0.0
 10
544.4939611281773
 20
1043.285850639516
 30
0.0
 10
541.9064917181333
 20
1042.323470474407
 30
0.0
 10
539.4464046102175
 20
1041.07546921082
 30
0.0
 10
537.1462737292268
 20
1039.554026895997
 30
0.0
 10
535.0364191710261
 20
1037.780381870378
 30
0.0
 10
533.1447098674811
 20
1035.777656979176
 30
0.0
 10
531.4959391270792
 20
1033.572395565429
 30
0.0
 10
530.1122942354431
 20
1031.1936924552
 30
0.0
 10
529.0101252587292
 20
1028.672988995913
 30
0.0
 10
528.2106954427339
 20
1026.043404589395
 30
0.0
 10
527.736242258414
 20
1023.536759135653
 30
0.0
 10
527.6383254763426
 20
1021.910039045975
 30
0.0
 10
527.5953681905067
 20
1021.196377113986
 30
0.0
  0
LINE
  5
92
330
1F
100
AcDbEntity
  8
0
  6
Continuous
 62
     7
370
    15
100
AcDbLine
 10
551.5818973248
 20
1032.2946771443
 30
0.0
 11
574.2894406675
 21
1032.2946771443
 31
0.0
  0
LINE
  5
93
330
1F
100
AcDbEntity
  8
0
  6
Continuous
 62
     7
370
    15
100
AcDbLine
 10
910.0620129262
 20
1032.2946771443
 30
0.0
 11
932.7667130451
 21
1032.2946771443
 31
0.0
  0
LINE
  5
94
330
1F
100
AcDbEntity
  8
0
  6
Continuous
 62
     7
370
    15
100
AcDbLine
 10
941.7605970048
 20
1044.2946771443
 30
0.0
 11
933.731746636
 21
1044.2946771443
 31
0.0
  0
LINE
  5
95
330
1F
100
AcDbEntity
  8
0
  6
Continuous
 62
     7
370
    15
100
AcDbLine
 10
550.6148166073
 20
1044.2946771443
 30
0.0
 11
542.5880133651
 21
1044.2946771443
 31
0.0
  0
SPLINE
  5
96
330
1F
100
AcDbEntity
  8
0
  6
Continuous
 62
     7
370
    15
100
AcDbSpline
210
0.0
220
0.0
230
1.0
 70
     8
 71
     3
 72
    20
 73
    16
 74
     0
 42
0.000000001
 43
0.00000001
 40
0.0
 40
0.0
 40
0.0
 40
0.0
 40
0.0466586687821543
 40
0.1311400135014816
 40
0.2160264020653469
 40
0.301266253572285
 40
0.3867163875045329
 40
0.4720043763174463
 40
0.5566224252328371
 40
0.6399891605024013
 40
0.7216364441871618
 40
0.8013786179973327
 40
0.879361283869764
 40
0.9559956671831471
 40
1.0
 40
1.0
 40
1.0
 40
1.0
 10
958.9050124184655
 20
1023.556303398896
 30
0.0
 10
958.8726608228726
 20
1024.063167463978
 30
0.0
 10
958.7817326246709
 20
1025.487772196028
 30
0.0
 10
958.4403160413932
 20
1027.790485258716
 30
0.0
 10
957.8082318927462
 20
1030.410731958176
 30
0.0
 10
956.9288476471903
 20
1032.911648430767
 30
0.0
 10
955.8101566586595
 20
1035.255514741607
 30
0.0
 10
954.4601185448778
 20
1037.401864691823
 30
0.0
 10
952.8963146931038
 20
1039.309795157762
 30
0.0
 10
951.1450875124236
 20
1040.942171273898
 30
0.0
 10
949.2411612165854
 20
1042.269253952117
 30
0.0
 10
947.2238337561608
 20
1043.274577594583
 30
0.0
 10
945.1326173959964
 20
1043.945221611177
 30
0.0
 10
943.2973237805819
 20
1044.255142637758
 30
0.0
 10
942.1713196980863
 20
1044.284110712288
 30
0.0
 10
941.760597004836
 20
1044.294677144305
 30
0.0
  0
SPLINE
  5
97
330
1F
100
AcDbEntity
  8
0
  6
Continuous
 62
     7
370
    15
100
AcDbSpline
210
0.0
220
0.0
230
1.0
 70
     8
 71
     3
 72
    20
 73
    16
 74
     0
 42
0.000000001
 43
0.00000001
 40
0.0
 40
0.0
 40
0.0
 40
0.0
 40
0.0522785930408181
 40
0.1281999676921293
 40
0.2038094160362275
 40
0.2795327342237138
 40
0.3559823268859957
 40
0.4336503310981615
 40
0.5128338706782886
 40
0.5935785337299228
 40
0.6756795240109241
 40
0.7587647097158333
 40
0.8424284641855385
 40
0.9263235578087234
 40
1.0
 40
1.0
 40
1.0
 40
1.0
 10
542.5880133650504
 20
1044.294677144305
 30
0.0
 10
542.100018044806
 20
1044.279934396659
 30
0.0
 10
540.9033335005146
 20
1044.243781553555
 30
0.0
 10
539.0251142074181
 20
1043.895272536137
 30
0.0
 10
537.0053368363625
 20
1043.22038034381
 30
0.0
 10
535.0914391348978
 20
1042.252450207569
 30
0.0
 10
533.3011113130276
 20
1041.011546819771
 30
0.0
 10
531.6492543303311
 20
1039.507023396472
 30
0.0
 10
530.1521624578354
 20
1037.750735687567
 30
0.0
 10
528.8280225153728
 20
1035.757678978206
 30
0.0
 10
527.6964701998759
 20
1033.549579164761
 30
0.0
 10
526.7739634818454
 20
1031.155961317315
 30
0.0
 10
526.0801964266484
 20
1028.61142692979
 30
0.0
 10
525.623475845917
 20
1026.065879365679
 30
0.0
 10
525.5009076992061
 20
1024.355863378775
 30
0.0
 10
525.4435979514209
 20
1023.556303398896
 30
0.0
  0
LINE
  5
98
330
1F
100
AcDbEntity
  8
0
  6
Continuous
 62
     7
370
    15
100
AcDbLine
 10
978.0190621535
 20
389.4243087154
 30
0.0
 11
980.14424397
 21
346.1313191404
 31
0.0
  0
LINE
  5
99
330
1F
100
AcDbEntity
  8
0
  6
Continuous
 62
     7
370
    15
100
AcDbLine
 10
992.1298120449
 20
346.7196710094
 30
0.0
 11
979.8424461831
 21
597.0308669935
 31
0.0
  0
LINE
  5
9A
330
1F
100
AcDbEntity
  8
0
  6
Continuous
 62
     7
370
    15
100
AcDbLine
 10
978.9317001836
 20
615.5840640701
 30
0.0
 11
958.9050124185
 21
1023.5563033989
 31
0.0
  0
LINE
  5
9B
330
1F
100
AcDbEntity
  8
0
  6
Continuous
 62
     7
370
    15
100
AcDbLine
 10
525.4435979514
 20
1023.5563033989
 30
0.0
 11
505.4160654659
 21
615.5668559078
 31
0.0
  0
LINE
  5
9C
330
1F
100
AcDbEntity
  8
0
  6
Continuous
 62
     7
370
    15
100
AcDbLine
 10
504.5061641868
 20
597.0308669935
 30
0.0
 11
492.218798325
 21
346.7196710094
 31
0.0
  0
LINE
  5
9D
330
1F
100
AcDbEntity
  8
0
  6
Continuous
 62
     7
370
    15
100
AcDbLine
 10
504.2043663999
 20
346.1313191404
 30
0.0
 11
506.3295482164
 21
389.4243087154
 31
0.0
  0
SPLINE
  5
9E
330
1F
100
AcDbEntity
  8
0
  6
Continuous
 62
     7
370
    15
100
AcDbSpline
210
0.0
220
0.0
230
1.0
 70
     8
 71
     3
 72
    15
 73
    11
 74
     0
 42
0.000000001
 43
0.00000001
 40
0.0
 40
0.0
 40
0.0
 40
0.0
 40
0.0733542148347766
 40
0.2130114634266533
 40
0.3527525046921199
 40
0.4924762597180892
 40
0.6321468638166424
 40
0.7717214118221354
 40
0.911135386727335
 40
1.0
 40
1.0
 40
1.0
 40
1.0
 10
492.2187983250082
 20
346.7196710094017
 30
0.0
 10
492.1985617592258
 20
346.3095438397005
 30
0.0
 10
492.1397973037442
 20
345.1185858449095
 30
0.0
 10
492.0381374448052
 20
343.1161894053627
 30
0.0
 10
491.9144176833578
 20
340.7485343984306
 30
0.0
 10
491.7895234954768
 20
338.4305505346954
 30
0.0
 10
491.665723649495
 20
336.2023639716092
 30
0.0
 10
491.5456848005298
 20
334.1153943594657
 30
0.0
 10
491.4438451344661
 20
332.3993919641115
 30
0.0
 10
491.3862678111085
 20
331.4817190790832
 30
0.0
 10
491.3638540288335
 20
331.124486074053
 30
0.0
  0
SPLINE
  5
9F
330
1F
100
AcDbEntity
  8
0
  6
Continuous
 62
     7
370
    15
100
AcDbSpline
210
0.0
220
0.0
230
1.0
 70
     8
 71
     3
 72
    13
 73
     9
 74
     0
 42
0.000000001
 43
0.00000001
 40
0.0
 40
0.0
 40
0.0
 40
0.0
 40
0.0616679976445924
 40
0.2694596528998018
 40
0.4770929783103545
 40
0.6846426201244233
 40
0.8921614384166385
 40
0.9999999999999999
 40
0.9999999999999999
 40
0.9999999999999999
 40
0.9999999999999999
 10
503.6114596940656
 20
334.9262533522044
 30
0.0
 10
503.6234474133313
 20
335.1341677031955
 30
0.0
 10
503.6758280126014
 20
336.0426539682085
 30
0.0
 10
503.7722413631798
 20
337.7896613336805
 30
0.0
 10
503.8980628813529
 20
340.1212464763196
 30
0.0
 10
504.0228732236687
 20
342.511117291942
 30
0.0
 10
504.1251165345791
 20
344.5250898145937
 30
0.0
 10
504.1841719919669
 20
345.7220206497736
 30
0.0
 10
504.2043663999141
 20
346.131319140367
 30
0.0
  0
SPLINE
  5
A0
330
1F
100
AcDbEntity
  8
0
  6
Continuous
 62
     7
370
    15
100
AcDbSpline
210
0.0
220
0.0
230
1.0
 70
     8
 71
     3
 72
    15
 73
    11
 74
     0
 42
0.000000001
 43
0.00000001
 40
0.0
 40
0.0
 40
0.0
 40
0.0
 40
0.0281984669715533
 40
0.1672086174593737
 40
0.3067516274195635
 40
0.4465843659047956
 40
0.586581959527557
 40
0.7266730488817353
 40
0.8668117720526664
 40
1.0
 40
1.0
 40
1.0
 40
1.0
 10
992.9828197617871
 20
331.1524694158764
 30
0.0
 10
992.9759306005835
 20
331.2605294436296
 30
0.0
 10
992.9350799003851
 20
331.9012936334507
 30
0.0
 10
992.8516093156459
 20
333.2917372633539
 30
0.0
 10
992.7343850436237
 20
335.2966931232151
 30
0.0
 10
992.6118779425321
 20
337.4721274209487
 30
0.0
 10
992.4873396113574
 20
339.7533021224243
 30
0.0
 10
992.3629334040628
 20
342.1040853497684
 30
0.0
 10
992.2424283616829
 20
344.4459312172979
 30
0.0
 10
992.1667089885733
 20
345.9747163574752
 30
0.0
 10
992.1298120448782
 20
346.7196710094017
 30
0.0
  0
SPLINE
  5
A1
330
1F
100
AcDbEntity
  8
0
  6
Continuous
 62
     7
370
    15
100
AcDbSpline
210
0.0
220
0.0
230
1.0
 70
     8
 71
     3
 72
    13
 73
     9
 74
     0
 42
0.000000001
 43
0.00000001
 40
0.0
 40
0.0
 40
0.0
 40
0.0
 40
0.1086271502612693
 40
0.3154604864702537
 40
0.5223926634594134
 40
0.7293452166398964
 40
0.9363599307750188
 40
1.0
 40
1.0
 40
1.0
 40
1.0
 10
980.1442439699723
 20
346.131319140367
 30
0.0
 10
980.1646454872417
 20
345.7178430025857
 30
0.0
 10
980.2238928535494
 20
344.5170807322453
 30
0.0
 10
980.3263447561396
 20
342.4993222122376
 30
0.0
 10
980.4511193106189
 20
340.1104925875063
 30
0.0
 10
980.5768810352407
 20
337.7802522001607
 30
0.0
 10
980.6736540117245
 20
336.0271712516685
 30
0.0
 10
980.726407299276
 20
335.1123809008589
 30
0.0
 10
980.7388113766398
 20
334.8972828319124
 30
0.0
  0
SPLINE
  5
A2
330
1F
100
AcDbEntity
  8
0
  6
Continuous
 62
     7
370
    15
100
AcDbSpline
210
0.0
220
0.0
230
1.0
 70
     8
 71
     3
 72
    19
 73
    15
 74
     0
 42
0.000000001
 43
0.00000001
 40
0.0
 40
0.0
 40
0.0
 40
0.0
 40
0.0253936451074193
 40
0.0854537280196984
 40
0.1567558492639102
 40
0.2387678884937066
 40
0.329309000548668
 40
0.4257377128600802
 40
0.5258899640946131
 40
0.6283135154465034
 40
0.7321135449124858
 40
0.8367445370176706
 40
0.9418606963116463
 40
1.0
 40
1.0
 40
1.0
 40
1.0
 10
508.5184304807008
 20
604.0014560733193
 30
0.0
 10
508.5138999349287
 20
604.0001536512385
 30
0.0
 10
508.4986539147315
 20
603.9957707900231
 30
0.0
 10
508.7319657126242
 20
604.0517474219221
 30
0.0
 10
509.2206433539665
 20
604.1381661123982
 30
0.0
 10
510.0328609939002
 20
604.2534496156964
 30
0.0
 10
511.1577861888955
 20
604.3782475159136
 30
0.0
 10
512.5864893185073
 20
604.5029898926393
 30
0.0
 10
514.2804907991309
 20
604.6177707314832
 30
0.0
 10
516.1952068770246
 20
604.716125647045
 30
0.0
 10
518.2828041248343
 20
604.793650289442
 30
0.0
 10
520.495134883225
 20
604.8469645367404
 30
0.0
 10
522.4420623765766
 20
604.8716577156639
 30
0.0
 10
523.6370086480765
 20
604.8739455559949
 30
0.0
 10
524.0625585371943
 20
604.8747603124591
 30
0.0
  0
SPLINE
  5
A3
330
1F
100
AcDbEntity
  8
0
  6
Continuous
 62
     7
370
    15
100
AcDbSpline
210
0.0
220
0.0
230
1.0
 70
     8
 71
     3
 72
    26
 73
    22
 74
     0
 42
0.000000001
 43
0.00000001
 40
0.0
 40
0.0
 40
0.0
 40
0.0
 40
0.034901115811207
 40
0.1013655077839772
 40
0.1679366471873817
 40
0.2346937145720367
 40
0.3017888738362819
 40
0.3694583634081642
 40
0.4381215879193615
 40
0.5086412712071451
 40
0.5832040177055587
 40
0.6700524010531658
 40
0.7168043040171577
 40
0.7500148214629248
 40
0.7834803886323058
 40
0.8177951430838395
 40
0.8533418420030978
 40
0.8897011955359846
 40
0.9265000572614613
 40
0.9660906504105485
 40
1.0
 40
1.0
 40
1.0
 40
1.0
 10
524.0625585371943
 20
616.8747603124591
 30
0.0
 10
523.6331525691523
 20
616.8739749070756
 30
0.0
 10
522.3860017837305
 20
616.8716938047767
 30
0.0
 10
520.3318366255403
 20
616.8462897881959
 30
0.0
 10
517.9504747657097
 20
616.7895293316703
 30
0.0
 10
515.6622216037401
 20
616.7049133114682
 30
0.0
 10
513.4991953973262
 20
616.5934997047768
 30
0.0
 10
511.4873128193981
 20
616.4554209080718
 30
0.0
 10
509.6425497897404
 20
616.2893036413155
 30
0.0
 10
507.9612893303621
 20
616.0904890943697
 30
0.0
 10
506.3718612936206
 20
615.8321159661937
 30
0.0
 10
505.1011655529693
 20
615.5371507636787
 30
0.0
 10
503.9328713337864
 20
615.1020168396593
 30
0.0
 10
503.0192662063788
 20
614.6157676336697
 30
0.0
 10
502.1690895817912
 20
613.9918303955893
 30
0.0
 10
501.3619291177764
 20
613.1510578325367
 30
0.0
 10
500.6885932259196
 20
612.1056061909928
 30
0.0
 10
500.2232860054943
 20
610.8958586785745
 30
0.0
 10
500.0194859148037
 20
609.5603355523717
 30
0.0
 10
500.0974797858881
 20
608.2291855017619
 30
0.0
 10
500.3756284581112
 20
607.4014972692562
 30
0.0
 10
500.503952919503
 20
607.0196416026885
 30
0.0
  0
SPLINE
  5
A4
330
1F
100
AcDbEntity
  8
0
  6
Continuous
 62
     7
370
    15
100
AcDbSpline
210
0.0
220
0.0
230
1.0
 70
     8
 71
     3
 72
    19
 73
    15
 74
     0
 42
0.000000001
 43
0.00000001
 40
0.0
 40
0.0
 40
0.0
 40
0.0
 40
0.0553595273096983
 40
0.1607370376651454
 40
0.2660065931863638
 40
0.3709128021685254
 40
0.4751974497230733
 40
0.5784751987820173
 40
0.6801233781414181
 40
0.7790804694482317
 40
0.8619572066110569
 40
0.9349405047049336
 40
0.9961416362018509
 40
1.0
 40
1.0
 40
1.0
 40
1.0
 10
960.2860518326921
 20
604.8747603124591
 30
0.0
 10
960.6911881137509
 20
604.8740194098392
 30
0.0
 10
961.8675060635728
 20
604.8718681903813
 30
0.0
 10
963.801503015869
 20
604.8479429811058
 30
0.0
 10
966.029591943179
 20
604.7948259262263
 30
0.0
 10
968.1429132159889
 20
604.716726389044
 30
0.0
 10
970.0955328724375
 20
604.6163826122453
 30
0.0
 10
971.8422663943462
 20
604.4972580274799
 30
0.0
 10
973.3394457630375
 20
604.3641193806355
 30
0.0
 10
974.4887545627636
 20
604.2322351889294
 30
0.0
 10
975.2897438973379
 20
604.1111287235168
 30
0.0
 10
975.7102188389338
 20
604.0338248559342
 30
0.0
 10
975.8926079226982
 20
603.9820924600712
 30
0.0
 10
975.8497699538864
 20
603.9961002195855
 30
0.0
 10
975.8472294412786
 20
603.996930952009
 30
0.0
  0
SPLINE
  5
A5
330
1F
100
AcDbEntity
  8
0
  6
Continuous
 62
     7
370
    15
100
AcDbSpline
210
0.0
220
0.0
230
1.0
 70
     8
 71
     3
 72
    27
 73
    23
 74
     0
 42
0.000000001
 43
0.00000001
 40
0.0
 40
0.0
 40
0.0
 40
0.0
 40
0.0368208290036926
 40
0.0737202117527431
 40
0.1118888259490943
 40
0.1470474251101869
 40
0.1800045499611684
 40
0.2113183711346302
 40
0.2415376136193374
 40
0.2717784805042029
 40
0.3039673304264803
 40
0.3416356293869571
 40
0.391899046246
 40
0.4743014167220536
 40
0.544464038816453
 40
0.611222698095572
 40
0.6814306169046671
 40
0.74981053896799
 40
0.8172472222262425
 40
0.8841711794867834
 40
0.9508141012714549
 40
0.9999999999999999
 40
0.9999999999999999
 40
0.9999999999999999
 40
0.9999999999999999
 10
983.8446574503835
 20
607.0196416026885
 30
0.0
 10
983.9823106031664
 20
607.435302075291
 30
0.0
 10
984.2579105786743
 20
608.2675097926792
 30
0.0
 10
984.3246025122393
 20
609.6166100527103
 30
0.0
 10
984.1185290234953
 20
610.9221727949008
 30
0.0
 10
983.6571020356253
 20
612.1013025183669
 30
0.0
 10
983.0324342807122
 20
613.0827072500143
 30
0.0
 10
982.3076174764169
 20
613.8695020068978
 30
0.0
 10
981.541250413931
 20
614.4735343090821
 30
0.0
 10
980.7787328404597
 20
614.9205790449411
 30
0.0
 10
980.0270612396395
 20
615.2534914065764
 30
0.0
 10
979.2213536551895
 20
615.5247436071146
 30
0.0
 10
978.1532394033363
 20
615.7937158816376
 30
0.0
 10
976.8197647447348
 20
616.0289080678982
 30
0.0
 10
975.14957765369
 20
616.2417869330706
 30
0.0
 10
973.3598336989648
 20
616.4148090627241
 30
0.0
 10
971.3794197570634
 20
616.5610511199903
 30
0.0
 10
969.2067570505194
 20
616.68128094995
 30
0.0
 10
966.9201818857417
 20
616.773042716203
 30
0.0
 10
964.5430793263127
 20
616.8361826243463
 30
0.0
 10
962.316869380606
 20
616.8696401429443
 30
0.0
 10
960.8913771437118
 20
616.8732341447308
 30
0.0
 10
960.2860518326921
 20
616.8747603124591
 30
0.0
  0
LINE
  5
A6
330
1F
100
AcDbEntity
  8
0
  6
Continuous
 62
     7
370
    15
100
AcDbLine
 10
524.0625585372
 20
604.8747603125
 30
0.0
 11
960.2860518327
 21
604.8747603125
 31
0.0
  0
LINE
  5
A7
330
1F
100
AcDbEntity
  8
0
  6
Continuous
 62
     7
370
    15
100
AcDbLine
 10
960.2860518327
 20
616.8747603125
 30
0.0
 11
524.0625585372
 21
616.8747603125
 31
0.0
  0
LINE
  5
A8
330
1F
100
AcDbEntity
  8
0
  6
Continuous
 62
     7
370
    15
100
AcDbLine
 10
525.2776101139
 20
577.4535571718
 30
0.0
 11
524.7129566265
 21
578.8628272082
 31
0.0
  0
LINE
  5
A9
330
1F
100
AcDbEntity
  8
0
  6
Continuous
 62
     7
370
    15
100
AcDbLine
 10
500.5039529195
 20
607.0196416027
 30
0.0
 11
514.1384686512
 21
572.9904273872
 31
0.0
  0
LINE
  5
AA
330
1F
100
AcDbEntity
  8
0
  6
Continuous
 62
     7
370
    15
100
AcDbLine
 10
970.2101417187
 20
572.9904273872
 30
0.0
 11
983.8446574504
 21
607.0196416027
 31
0.0
  0
LINE
  5
AB
330
1F
100
AcDbEntity
  8
0
  6
Continuous
 62
     7
370
    15
100
AcDbLine
 10
959.6356537434
 20
578.8628272082
 30
0.0
 11
959.071000256
 21
577.4535571718
 31
0.0
  0
SPLINE
  5
AC
330
1F
100
AcDbEntity
  8
0
  6
Continuous
 62
     7
370
    15
100
AcDbSpline
210
0.0
220
0.0
230
1.0
 70
     8
 71
     3
 72
    12
 73
     8
 74
     0
 42
0.000000001
 43
0.00000001
 40
0.0
 40
0.0
 40
0.0
 40
0.0
 40
0.2065179696155085
 40
0.4134765257260933
 40
0.6275538542424179
 40
0.8247488308287518
 40
1.0
 40
1.0
 40
1.0
 40
1.0
 10
959.0710002559643
 20
577.4535571718276
 30
0.0
 10
958.933398792691
 20
577.0379511736298
 30
0.0
 10
958.6579023064771
 20
576.2058525212674
 30
0.0
 10
958.5904240134242
 20
574.8559235347614
 30
0.0
 10
958.7995044218155
 20
573.5535297171625
 30
0.0
 10
959.2434191960408
 20
572.3827541614423
 30
0.0
 10
959.6798108212023
 20
571.7489238954205
 30
0.0
 10
959.8851509580174
 20
571.4506807898287
 30
0.0
  0
SPLINE
  5
AD
330
1F
100
AcDbEntity
  8
0
  6
Continuous
 62
     7
370
    15
100
AcDbSpline
210
0.0
220
0.0
230
1.0
 70
     8
 71
     3
 72
    13
 73
     9
 74
     0
 42
0.000000001
 43
0.00000001
 40
0.0
 40
0.0
 40
0.0
 40
0.0
 40
0.1189896182346082
 40
0.3229357883951616
 40
0.5298159280045018
 40
0.7581986412791226
 40
0.9682728006492421
 40
1.0
 40
1.0
 40
1.0
 40
1.0
 10
524.4648246551994
 20
571.4912398937676
 30
0.0
 10
524.6123794952044
 20
571.6835654419525
 30
0.0
 10
525.0128408068342
 20
572.2055336897132
 30
0.0
 10
525.4517415459478
 20
573.2436754099958
 30
0.0
 10
525.7438915583493
 20
574.5666725522633
 30
0.0
 10
525.7215603655026
 20
575.9467539206923
 30
0.0
 10
525.4853387988213
 20
576.9192110861793
 30
0.0
 10
525.3017050363798
 20
577.3915771544532
 30
0.0
 10
525.277610113922
 20
577.4535571718276
 30
0.0
  0
SPLINE
  5
AE
330
1F
100
AcDbEntity
  8
0
  6
Continuous
 62
     7
370
    15
100
AcDbSpline
210
0.0
220
0.0
230
1.0
 70
    11
 71
     3
 72
    39
 73
    35
 74
     0
 42
0.000000001
 43
0.00000001
 40
0.0
 40
0.0
 40
0.0
 40
0.0
 40
0.0312177227449954
 40
0.0625287405307386
 40
0.0936997401827649
 40
0.1250352072377635
 40
0.1562162086399576
 40
0.1875016966571134
 40
0.218720319043222
 40
0.2499289820204254
 40
0.2811981095720199
 40
0.3123388045552406
 40
0.3436547850314264
 40
0.37478542847977
 40
0.4061037178313873
 40
0.437345787809685
 40
0.4685683034515246
 40
0.4999061760153625
 40
0.5310894440767371
 40
0.5624033508158136
 40
0.5936765665876703
 40
0.6248840973694785
 40
0.6562146563958837
 40
0.6873642000890552
 40
0.7186974066377433
 40
0.7498448474957039
 40
0.78114386627771
 40
0.8123373356387922
 40
0.8435661994108772
 40
0.8748505990838524
 40
0.9059999103842429
 40
0.9373336444315034
 40
0.9685250294869209
 40
1.0
 40
1.0
 40
1.0
 40
1.0
 10
575.7089663488357
 20
1335.311196304207
 30
0.0
 10
575.7849940473232
 20
1336.630531127318
 30
0.0
 10
575.9372766552093
 20
1339.273143642695
 30
0.0
 10
577.1324560852046
 20
1343.034825144731
 30
0.0
 10
578.9627156952344
 20
1346.476567278582
 30
0.0
 10
581.4129458253136
 20
1349.473027448759
 30
0.0
 10
584.3755476539394
 20
1351.938724319662
 30
0.0
 10
587.7462426172395
 20
1353.791573764466
 30
0.0
 10
591.4181689955266
 20
1354.972057793432
 30
0.0
 10
595.269913613045
 20
1355.43203796945
 30
0.0
 10
599.167134111928
 20
1355.139516098157
 30
0.0
 10
602.9725545797914
 20
1354.085228248663
 30
0.0
 10
606.5232463943487
 20
1352.292269190197
 30
0.0
 10
609.6764138921877
 20
1349.812011380441
 30
0.0
 10
612.2823685167724
 20
1346.744926176904
 30
0.0
 10
614.2273207241448
 20
1343.213867280194
 30
0.0
 10
615.428341651892
 20
1339.374166294581
 30
0.0
 10
615.8408131327285
 20
1335.392524041836
 30
0.0
 10
615.4610789246431
 20
1331.427628381468
 30
0.0
 10
614.3192598089524
 20
1327.640889825491
 30
0.0
 10
612.4715688632155
 20
1324.17057527205
 30
0.0
 10
609.9998000156075
 20
1321.139691468166
 30
0.0
 10
607.0056981316912
 20
1318.655835661378
 30
0.0
 10
603.5937687180724
 20
1316.795396938504
 30
0.0
 10
599.8958345475631
 20
1315.626582759207
 30
0.0
 10
596.0284665260714
 20
1315.188109230333
 30
0.0
 10
592.137391430463
 20
1315.503416584618
 30
0.0
 10
588.3539654049026
 20
1316.574358946666
 30
0.0
 10
584.8252580486024
 20
1318.375682298004
 30
0.0
 10
581.6987223117873
 20
1320.853716034303
 30
0.0
 10
579.1021145796592
 20
1323.923568033739
 30
0.0
 10
577.1795009334899
 20
1327.455292075879
 30
0.0
 10
575.9401019385235
 20
1331.31375228945
 30
0.0
 10
575.786243631542
 20
1333.974701082299
 30
0.0
 10
575.7089663488357
 20
1335.311196304207
 30
0.0
  0
SPLINE
  5
AF
330
1F
100
AcDbEntity
  8
0
  6
Continuous
 62
     7
370
    15
100
AcDbSpline
210
0.0
220
0.0
230
1.0
 70
     8
 71
     3
 72
    12
 73
     8
 74
     0
 42
0.000000001
 43
0.00000001
 40
0.0
 40
0.0
 40
0.0
 40
0.0
 40
0.2499714980307364
 40
0.4999482582008883
 40
0.6666092642532219
 40
0.8332776003114327
 40
1.0
 40
1.0
 40
1.0
 40
1.0
 10
668.5958174705993
 20
1226.716379948335
 30
0.0
 10
668.2085126932951
 20
1219.996634112396
 30
0.0
 10
667.4338949855503
 20
1206.557000983432
 30
0.0
 10
666.4013414974485
 20
1188.583809051279
 30
0.0
 10
665.4980799557956
 20
1172.855126141427
 30
0.0
 10
664.7237882742145
 20
1159.370053735935
 30
0.0
 10
664.2079217261436
 20
1150.417402503199
 30
0.0
 10
663.9499466248836
 20
1145.940350992594
 30
0.0
  0
SPLINE
  5
B0
330
1F
100
AcDbEntity
  8
0
  6
Continuous
 62
     7
370
    15
100
AcDbSpline
210
0.0
220
0.0
230
1.0
 70
     8
 71
     3
 72
    15
 73
    11
 74
     0
 42
0.000000001
 43
0.00000001
 40
0.0
 40
0.0
 40
0.0
 40
0.0
 40
0.1248383576862522
 40
0.2499675273632797
 40
0.3745099936088619
 40
0.49976773118349
 40
0.6242819799856886
 40
0.7495257693801981
 40
0.874195081183746
 40
1.0
 40
1.0
 40
1.0
 40
1.0
 10
642.9717353905868
 20
1258.125392677343
 30
0.0
 10
644.7807004693207
 20
1257.762725788898
 30
0.0
 10
648.4028446259595
 20
1257.036547176479
 30
0.0
 10
653.4883065789445
 20
1254.695273667671
 30
0.0
 10
658.0903755069365
 20
1251.514805543264
 30
0.0
 10
662.0155175908585
 20
1247.522572131323
 30
0.0
 10
665.1446765207717
 20
1242.873511538453
 30
0.0
 10
667.3347132482262
 20
1237.744413520162
 30
0.0
 10
668.6167679168711
 20
1232.286007088004
 30
0.0
 10
668.6028220287747
 20
1228.578525356054
 30
0.0
 10
668.5958174705993
 20
1226.716379948335
 30
0.0
  0
SPLINE
  5
B1
330
1F
100
AcDbEntity
  8
0
  6
Continuous
 62
     7
370
    15
100
AcDbSpline
210
0.0
220
0.0
230
1.0
 70
    24
 71
     3
 72
    11
 73
     7
 74
     0
 42
0.000000001
 43
0.00000001
 40
0.0
 40
0.0
 40
0.0
 40
0.0
 40
0.2501190051004888
 40
0.4999790664244022
 40
0.7498137513210438
 40
0.9999999999999999
 40
0.9999999999999999
 40
0.9999999999999999
 40
0.9999999999999999
 10
559.2436275127282
 20
1270.327715464109
 30
0.0
 10
566.1332561775561
 20
1269.323638398713
 30
0.0
 10
579.905380796665
 20
1267.316523771125
 30
0.0
 10
600.7518752669581
 20
1264.278408364646
 30
0.0
 10
621.7652890628624
 20
1261.215966557606
 30
0.0
 10
635.8996073437712
 20
1259.156066741332
 30
0.0
 10
642.9717353905868
 20
1258.125392677343
 30
0.0
  0
SPLINE
  5
B2
330
1F
100
AcDbEntity
  8
0
  6
Continuous
 62
     7
370
    15
100
AcDbSpline
210
0.0
220
0.0
230
1.0
 70
     8
 71
     3
 72
    15
 73
    11
 74
     0
 42
0.000000001
 43
0.00000001
 40
0.0
 40
0.0
 40
0.0
 40
0.0
 40
0.1249376330514466
 40
0.2494577901783601
 40
0.3748042887320506
 40
0.4992574701957341
 40
0.6246306289961482
 40
0.7492103853683245
 40
0.874232655540852
 40
0.9999999999999999
 40
0.9999999999999999
 40
0.9999999999999999
 40
0.9999999999999999
 10
531.1419593903191
 20
1293.730935693523
 30
0.0
 10
531.7265093228302
 20
1292.208106172672
 30
0.0
 10
532.893655929114
 20
1289.167535627099
 30
0.0
 10
535.4305149118466
 20
1284.977120895596
 30
0.0
 10
538.4591256407022
 20
1281.177175662033
 30
0.0
 10
541.982986148372
 20
1277.850520070795
 30
0.0
 10
545.8922979185019
 20
1275.057601672125
 30
0.0
 10
550.1252431693315
 20
1272.846785308383
 30
0.0
 10
554.5916391703838
 20
1271.193662736728
 30
0.0
 10
557.6898965136141
 20
1270.616935690398
 30
0.0
 10
559.2436275127282
 20
1270.327715464109
 30
0.0
  0
SPLINE
  5
B3
330
1F
100
AcDbEntity
  8
0
  6
Continuous
 62
     7
370
    15
100
AcDbSpline
210
0.0
220
0.0
230
1.0
 70
     8
 71
     3
 72
    15
 73
    11
 74
     0
 42
0.000000001
 43
0.00000001
 40
0.0
 40
0.0
 40
0.0
 40
0.0
 40
0.1253126906535317
 40
0.2498044998513742
 40
0.3741496877463588
 40
0.4990482899911519
 40
0.6247253390302275
 40
0.7497145168393012
 40
0.8745422653156568
 40
1.0
 40
1.0
 40
1.0
 40
1.0
 10
528.3195425477804
 20
1374.174713562101
 30
0.0
 10
527.5322628093372
 20
1370.898170513691
 30
0.0
 10
525.9628605382721
 20
1364.366547952713
 30
0.0
 10
524.5083491777751
 20
1354.353367235295
 30
0.0
 10
523.7243163576518
 20
1344.251421179882
 30
0.0
 10
523.6909746393587
 20
1334.0475140041
 30
0.0
 10
524.3979505860684
 20
1323.816756555893
 30
0.0
 10
525.8727259275187
 20
1313.643185936779
 30
0.0
 10
528.0392674142585
 20
1303.571497566665
 30
0.0
 10
530.1059946988676
 20
1297.016622678656
 30
0.0
 10
531.1419593903191
 20
1293.730935693523
 30
0.0
  0
SPLINE
  5
B4
330
1F
100
AcDbEntity
  8
0
  6
Continuous
 62
     7
370
    15
100
AcDbSpline
210
0.0
220
0.0
230
1.0
 70
     8
 71
     3
 72
    15
 73
    11
 74
     0
 42
0.000000001
 43
0.00000001
 40
0.0
 40
0.0
 40
0.0
 40
0.0
 40
0.1249430022509197
 40
0.2496352022177445
 40
0.3748520349016851
 40
0.4993969411251412
 40
0.6247263663172361
 40
0.7490552207327998
 40
0.8745414775023592
 40
1.0
 40
1.0
 40
1.0
 40
1.0
 10
562.1743051849433
 20
1400.294677144306
 30
0.0
 10
560.2581138817925
 20
1400.204940057778
 30
0.0
 10
556.4295777106408
 20
1400.02564601699
 30
0.0
 10
550.8856652873218
 20
1398.574300989913
 30
0.0
 10
545.6555730180097
 20
1396.329467599764
 30
0.0
 10
540.8513311873895
 20
1393.24258249888
 30
0.0
 10
536.595827342746
 20
1389.417914880841
 30
0.0
 10
533.0023333392568
 20
1384.899930234363
 30
0.0
 10
530.1010938427022
 20
1379.820447099676
 30
0.0
 10
528.9133492231382
 20
1376.056486077694
 30
0.0
 10
528.3195425477803
 20
1374.174713562101
 30
0.0
  0
SPLINE
  5
B5
330
1F
100
AcDbEntity
  8
0
  6
Continuous
 62
     7
370
    15
100
AcDbSpline
210
0.0
220
0.0
230
1.0
 70
    24
 71
     3
 72
    22
 73
    18
 74
     0
 42
0.000000001
 43
0.00000001
 40
0.0
 40
0.0
 40
0.0
 40
0.0
 40
0.0718174611236709
 40
0.143283210380014
 40
0.2145315867288984
 40
0.2857413045503002
 40
0.3570579160394201
 40
0.4285906846491315
 40
0.5004007253996249
 40
0.5630750217338286
 40
0.6255221667201988
 40
0.6878146664845617
 40
0.7500233746647631
 40
0.8122349233248974
 40
0.8745615692943245
 40
0.9371279549050329
 40
1.0
 40
1.0
 40
1.0
 40
1.0
 10
922.1743051849433
 20
1400.294677144306
 30
0.0
 10
913.8008826511905
 20
1400.294677144306
 30
0.0
 10
897.0950447709234
 20
1400.294677144306
 30
0.0
 10
871.6907237060226
 20
1400.294677144306
 30
0.0
 10
846.0908502643374
 20
1400.294677144306
 30
0.0
 10
820.2975855918571
 20
1400.294677144306
 30
0.0
 10
794.3410622522523
 20
1400.294677144306
 30
0.0
 10
768.2329938679684
 20
1400.294677144306
 30
0.0
 10
743.1388791495266
 20
1400.294677144306
 30
0.0
 10
719.1519152852251
 20
1400.294677144306
 30
0.0
 10
696.3505560165274
 20
1400.294677144306
 30
0.0
 10
673.6579143155165
 20
1400.294677144306
 30
0.0
 10
651.0772317202883
 20
1400.294677144306
 30
0.0
 10
628.618623643633
 20
1400.294677144306
 30
0.0
 10
606.298685249191
 20
1400.294677144306
 30
0.0
 10
584.1238624423873
 20
1400.294677144306
 30
0.0
 10
569.5027002083064
 20
1400.294677144306
 30
0.0
 10
562.1743051849433
 20
1400.294677144306
 30
0.0
  0
SPLINE
  5
B6
330
1F
100
AcDbEntity
  8
0
  6
Continuous
 62
     7
370
    15
100
AcDbSpline
210
0.0
220
0.0
230
1.0
 70
     8
 71
     3
 72
    15
 73
    11
 74
     0
 42
0.000000001
 43
0.00000001
 40
0.0
 40
0.0
 40
0.0
 40
0.0
 40
0.1248989672041086
 40
0.2497209348632229
 40
0.3747959911725162
 40
0.4996340419898636
 40
0.6247435487825099
 40
0.7493677115542018
 40
0.8747833569161491
 40
1.0
 40
1.0
 40
1.0
 40
1.0
 10
956.0290678221061
 20
1374.174713562101
 30
0.0
 10
955.4399734845537
 20
1376.049013512411
 30
0.0
 10
954.262147982956
 20
1379.796457917142
 30
0.0
 10
951.3647862884849
 20
1384.869987891763
 30
0.0
 10
947.7809351314256
 20
1389.389077623065
 30
0.0
 10
943.5188745536946
 20
1393.226236435667
 30
0.0
 10
938.7235104532972
 20
1396.312817861899
 30
0.0
 10
933.4867124980263
 20
1398.567818601267
 30
0.0
 10
927.9369777684336
 20
1400.01910105717
 30
0.0
 10
924.0941789841297
 20
1400.202867085395
 30
0.0
 10
922.1743051849431
 20
1400.294677144306
 30
0.0
  0
SPLINE
  5
B7
330
1F
100
AcDbEntity
  8
0
  6
Continuous
 62
     7
370
    15
100
AcDbSpline
210
0.0
220
0.0
230
1.0
 70
     8
 71
     3
 72
    15
 73
    11
 74
     0
 42
0.000000001
 43
0.00000001
 40
0.0
 40
0.0
 40
0.0
 40
0.0
 40
0.1253286913905742
 40
0.2497155426471104
 40
0.3739506633389578
 40
0.498798051735244
 40
0.6244876636984417
 40
0.7495670942348442
 40
0.8745111366372395
 40
1.0
 40
1.0
 40
1.0
 40
1.0
 10
953.2066509795673
 20
1293.730935693523
 30
0.0
 10
954.2416545825231
 20
1297.013192946735
 30
0.0
 10
956.3038837774995
 20
1303.55304142037
 30
0.0
 10
958.4646153988424
 20
1313.588657298496
 30
0.0
 10
959.9380725474668
 20
1323.706429899145
 30
0.0
 10
960.653216340977
 20
1333.915268723646
 30
0.0
 10
960.6294146956213
 20
1344.138635294141
 30
0.0
 10
959.8481648081121
 20
1354.295007301305
 30
0.0
 10
958.3904738671308
 20
1364.345194066565
 30
0.0
 10
956.8173439605579
 20
1370.893458444158
 30
0.0
 10
956.0290678221062
 20
1374.174713562101
 30
0.0
  0
SPLINE
  5
B8
330
1F
100
AcDbEntity
  8
0
  6
Continuous
 62
     7
370
    15
100
AcDbSpline
210
0.0
220
0.0
230
1.0
 70
     8
 71
     3
 72
    15
 73
    11
 74
     0
 42
0.000000001
 43
0.00000001
 40
0.0
 40
0.0
 40
0.0
 40
0.0
 40
0.1250954691891243
 40
0.2496344123619166
 40
0.3751411620401947
 40
0.4995703591419636
 40
0.6245499351979202
 40
0.749646950036774
 40
0.8741733403233933
 40
1.0
 40
1.0
 40
1.0
 40
1.0
 10
925.1049828571582
 20
1270.327715464109
 30
0.0
 10
926.6505807008858
 20
1270.61376686083
 30
0.0
 10
929.7349003166779
 20
1271.18459706586
 30
0.0
 10
934.198297695469
 20
1272.836506929211
 30
0.0
 10
938.427750312245
 20
1275.039771893844
 30
0.0
 10
942.3442178233752
 20
1277.833455680831
 30
0.0
 10
945.8652910702612
 20
1281.150689342192
 30
0.0
 10
948.9000114925454
 20
1284.950572061356
 30
0.0
 10
951.443632852681
 20
1289.146852119211
 30
0.0
 10
952.6169469732886
 20
1292.197626189971
 30
0.0
 10
953.2066509795674
 20
1293.730935693523
 30
0.0
  0
SPLINE
  5
B9
330
1F
100
AcDbEntity
  8
0
  6
Continuous
 62
     7
370
    15
100
AcDbSpline
210
0.0
220
0.0
230
1.0
 70
    24
 71
     3
 72
    11
 73
     7
 74
     0
 42
0.000000001
 43
0.00000001
 40
0.0
 40
0.0
 40
0.0
 40
0.0
 40
0.2501844504654327
 40
0.5000199957653734
 40
0.7498787045002163
 40
1.0
 40
1.0
 40
1.0
 40
1.0
 10
841.3768749792997
 20
1258.125392677343
 30
0.0
 10
848.4488805644309
 20
1259.156048894076
 30
0.0
 10
862.5830291741928
 20
1261.215923982906
 30
0.0
 10
883.5967562973319
 20
1264.278411453465
 30
0.0
 10
904.4446268650441
 20
1267.316727408903
 30
0.0
 10
918.2157866805032
 20
1269.323701428446
 30
0.0
 10
925.1049828571582
 20
1270.327715464109
 30
0.0
  0
SPLINE
  5
BA
330
1F
100
AcDbEntity
  8
0
  6
Continuous
 62
     7
370
    15
100
AcDbSpline
210
0.0
220
0.0
230
1.0
 70
     8
 71
     3
 72
    15
 73
    11
 74
     0
 42
0.000000001
 43
0.00000001
 40
0.0
 40
0.0
 40
0.0
 40
0.0
 40
0.1248588076731485
 40
0.2499761431157676
 40
0.3745532304217309
 40
0.4998005208732759
 40
0.6242770335286003
 40
0.7495619611205688
 40
0.8741539404848943
 40
1.0
 40
1.0
 40
1.0
 40
1.0
 10
815.7527928992871
 20
1226.716379948335
 30
0.0
 10
815.7451567631189
 20
1228.564414471896
 30
0.0
 10
815.7298686796971
 20
1232.264309987108
 30
0.0
 10
817.0021422248627
 20
1237.707366079439
 30
0.0
 10
819.1887030924048
 20
1242.845709565182
 30
0.0
 10
822.3066488287726
 20
1247.490032262194
 30
0.0
 10
826.2337332147898
 20
1251.494062123575
 30
0.0
 10
830.8252517557204
 20
1254.675658350065
 30
0.0
 10
835.9243867782935
 20
1257.030035299822
 30
0.0
 10
839.5533215589536
 20
1257.759056681988
 30
0.0
 10
841.3768749792997
 20
1258.125392677343
 30
0.0
  0
SPLINE
  5
BB
330
1F
100
AcDbEntity
  8
0
  6
Continuous
 62
     7
370
    15
100
AcDbSpline
210
0.0
220
0.0
230
1.0
 70
     8
 71
     3
 72
    12
 73
     8
 74
     0
 42
0.000000001
 43
0.00000001
 40
0.0
 40
0.0
 40
0.0
 40
0.0
 40
0.1667223754313849
 40
0.3333906914289282
 40
0.5000516854694865
 40
0.7500284522049658
 40
0.9999999999999999
 40
0.9999999999999999
 40
0.9999999999999999
 40
0.9999999999999999
 10
820.3986797379024
 20
1145.940072929997
 30
0.0
 10
820.1407010443264
 20
1150.417139602846
 30
0.0
 10
819.6248273063075
 20
1159.369821267636
 30
0.0
 10
818.8505293442468
 20
1172.854938466274
 30
0.0
 10
817.9472637713055
 20
1188.583674449493
 30
0.0
 10
816.9147099893607
 20
1206.556928824527
 30
0.0
 10
816.1400959005899
 20
1219.996609672496
 30
0.0
 10
815.7527928992871
 20
1226.716379948335
 30
0.0
  0
SPLINE
  5
BC
330
1F
100
AcDbEntity
  8
0
  6
Continuous
 62
     7
370
    15
100
AcDbSpline
210
0.0
220
0.0
230
1.0
 70
     8
 71
     3
 72
    12
 73
     8
 74
     0
 42
0.000000001
 43
0.00000001
 40
0.0
 40
0.0
 40
0.0
 40
0.0
 40
0.2010946504065013
 40
0.4020259239636514
 40
0.6017330856143639
 40
0.8008024099074527
 40
1.0
 40
1.0
 40
1.0
 40
1.0
 10
823.2564951882292
 20
1102.972946182733
 30
0.0
 10
823.0443116805368
 20
1105.655094592409
 30
0.0
 10
822.6201170510058
 20
1111.017212333621
 30
0.0
 10
822.0239029302029
 20
1119.556248533794
 30
0.0
 10
821.4564445489269
 20
1128.246124707042
 30
0.0
 10
820.9150284596038
 20
1137.051803039352
 30
0.0
 10
820.5709415119691
 20
1142.974687667466
 30
0.0
 10
820.3988426298491
 20
1145.937083743315
 30
0.0
  0
SPLINE
  5
BD
330
1F
100
AcDbEntity
  8
0
  6
Continuous
 62
     7
370
    15
100
AcDbSpline
210
0.0
220
0.0
230
1.0
 70
     8
 71
     3
 72
    10
 73
     6
 74
     0
 42
0.000000001
 43
0.00000001
 40
0.0
 40
0.0
 40
0.0
 40
0.0
 40
0.3330768012687974
 40
0.6654158796728645
 40
1.0
 40
1.0
 40
1.0
 40
1.0
 10
824.7145794915409
 20
1087.327012616226
 30
0.0
 10
824.5496340964246
 20
1088.909795757325
 30
0.0
 10
824.2201086393192
 20
1092.071856375638
 30
0.0
 10
823.7312583490831
 20
1097.31520205145
 30
0.0
 10
823.4151043281877
 20
1101.082803887037
 30
0.0
 10
823.2564951882292
 20
1102.972946182733
 30
0.0
  0
SPLINE
  5
BE
330
1F
100
AcDbEntity
  8
0
  6
Continuous
 62
     7
370
    15
100
AcDbSpline
210
0.0
220
0.0
230
1.0
 70
     8
 71
     3
 72
    15
 73
    11
 74
     0
 42
0.000000001
 43
0.00000001
 40
0.0
 40
0.0
 40
0.0
 40
0.0
 40
0.1249075696527679
 40
0.2500099103251108
 40
0.3747959867367061
 40
0.5000718115166186
 40
0.6246669043886223
 40
0.7499715715637858
 40
0.8743952744043055
 40
1.0
 40
1.0
 40
1.0
 40
1.0
 10
852.1737010718824
 20
1071.333288276023
 30
0.0
 10
850.4154511838893
 20
1071.450683693051
 30
0.0
 10
846.8962097316036
 20
1071.685657584267
 30
0.0
 10
841.8980194388856
 20
1072.580846286486
 30
0.0
 10
837.2990536236912
 20
1073.886222810815
 30
0.0
 10
833.2510491730887
 20
1075.64972997695
 30
0.0
 10
829.8496571050318
 20
1077.874533563445
 30
0.0
 10
827.2319140171477
 20
1080.567379356287
 30
0.0
 10
825.3881395608942
 20
1083.696653832334
 30
0.0
 10
824.9398054248092
 20
1086.113088302117
 30
0.0
 10
824.7145794915408
 20
1087.327012616226
 30
0.0
  0
LINE
  5
BF
330
1F
100
AcDbEntity
  8
0
  6
Continuous
 62
     7
370
    15
100
AcDbLine
 10
905.0085214664
 20
1069.4058976032
 30
0.0
 11
852.1737010719
 21
1071.333288276
 31
0.0
  0
LINE
  5
C0
330
1F
100
AcDbEntity
  8
0
  6
Continuous
 62
     7
370
    15
100
AcDbLine
 10
909.9479684861
 20
1069.1678621307
 30
0.0
 11
905.0085214664
 21
1069.4058976032
 31
0.0
  0
SPLINE
  5
C1
330
1F
100
AcDbEntity
  8
0
  6
Continuous
 62
     7
370
    15
100
AcDbSpline
210
0.0
220
0.0
230
1.0
 70
     8
 71
     3
 72
    12
 73
     8
 74
     0
 42
0.000000001
 43
0.00000001
 40
0.0
 40
0.0
 40
0.0
 40
0.0
 40
0.0594986346823277
 40
0.2942917384378716
 40
0.5298459087806615
 40
0.7644326099984597
 40
1.0
 40
1.0
 40
1.0
 40
1.0
 10
934.027636663811
 20
1065.754830565349
 30
0.0
 10
933.7060112485171
 20
1065.810784808115
 30
0.0
 10
932.1151898271858
 20
1066.087545299588
 30
0.0
 10
928.332476911231
 20
1066.770120006012
 30
0.0
 10
922.8193526474008
 20
1067.695006074747
 30
0.0
 10
916.6370653037243
 20
1068.595229104635
 30
0.0
 10
912.1807658725085
 20
1068.976719206823
 30
0.0
 10
909.947968486115
 20
1069.167862130733
 30
0.0
  0
SPLINE
  5
C2
330
1F
100
AcDbEntity
  8
0
  6
Continuous
 62
     7
370
    15
100
AcDbSpline
210
0.0
220
0.0
230
1.0
 70
     8
 71
     3
 72
    13
 73
     9
 74
     0
 42
0.000000001
 43
0.00000001
 40
0.0
 40
0.0
 40
0.0
 40
0.0
 40
0.1586638689440784
 40
0.3173451775938753
 40
0.4760403948298479
 40
0.6347443566536508
 40
0.7934449063305076
 40
0.9999999999999999
 40
0.9999999999999999
 40
0.9999999999999999
 40
0.9999999999999999
 10
942.1743118700401
 20
1062.660977938667
 30
0.0
 10
942.1743116204574
 20
1063.387034512681
 30
0.0
 10
942.1743111212646
 20
1064.839227465979
 30
0.0
 10
942.1743103725497
 20
1065.888160847764
 30
0.0
 10
942.1743096238283
 20
1066.477040818028
 30
0.0
 10
942.174308875136
 20
1066.773466526614
 30
0.0
 10
942.1743080511332
 20
1066.929953936146
 30
0.0
 10
942.1743074767335
 20
1066.913508360068
 30
0.0
 10
942.1743071519057
 20
1066.904208250489
 30
0.0
  0
SPLINE
  5
C3
330
1F
100
AcDbEntity
  8
0
  6
Continuous
 62
     7
370
    15
100
AcDbSpline
210
0.0
220
0.0
230
1.0
 70
     8
 71
     3
 72
    20
 73
    16
 74
     0
 42
0.000000001
 43
0.00000001
 40
0.0
 40
0.0
 40
0.0
 40
0.0
 40
0.0626364884971816
 40
0.1247397382324264
 40
0.1872131023981178
 40
0.2500143218218205
 40
0.333279945711147
 40
0.4169341654700874
 40
0.5001350814568848
 40
0.5832027959985108
 40
0.6668265766459367
 40
0.7496640754664592
 40
0.8324243388566409
 40
0.916153135446807
 40
1.0
 40
1.0
 40
1.0
 40
1.0
 10
887.2962564044548
 20
1034.009459300553
 30
0.0
 10
889.2340726113756
 20
1034.230620714689
 30
0.0
 10
893.0932079523477
 20
1034.671060745225
 30
0.0
 10
898.668130280548
 20
1035.973218389178
 30
0.0
 10
904.01063085699
 20
1037.620369120458
 30
0.0
 10
909.6457168020365
 20
1039.782188230325
 30
0.0
 10
915.4416375861861
 20
1042.432752842084
 30
0.0
 10
921.2083906731469
 20
1045.482562151388
 30
0.0
 10
926.4005669032375
 20
1048.560340353732
 30
0.0
 10
930.9785676831895
 20
1051.566641789575
 30
0.0
 10
934.8765792473048
 20
1054.401262017953
 30
0.0
 10
938.0359599426807
 20
1056.979959667018
 30
0.0
 10
940.3672869384767
 20
1059.242136963401
 30
0.0
 10
941.8841186340642
 20
1061.191776812471
 30
0.0
 10
942.0775309108033
 20
1062.171013911256
 30
0.0
 10
942.1743051849431
 20
1062.660977428792
 30
0.0
  0
SPLINE
  5
C4
330
1F
100
AcDbEntity
  8
0
  6
Continuous
 62
     7
370
    15
100
AcDbSpline
210
0.0
220
0.0
230
1.0
 70
     8
 71
     3
 72
    16
 73
    12
 74
     0
 42
0.000000001
 43
0.00000001
 40
0.0
 40
0.0
 40
0.0
 40
0.0
 40
0.1120327533868409
 40
0.2239667787226176
 40
0.335862665475669
 40
0.447807893447628
 40
0.5598943495341676
 40
0.6699569533385886
 40
0.7799385002248768
 40
0.8899328481650125
 40
1.0
 40
1.0
 40
1.0
 40
1.0
 10
597.0523539654315
 20
1034.01033478915
 30
0.0
 10
607.8500200578429
 20
1033.123218661091
 30
0.0
 10
629.4358368777648
 20
1031.349768169625
 30
0.0
 10
661.9021529027116
 20
1029.225081633518
 30
0.0
 10
694.4183326741514
 20
1027.674546827235
 30
0.0
 10
726.9961626744832
 20
1026.872391996272
 30
0.0
 10
759.411465707165
 20
1026.905863925149
 30
0.0
 10
791.6188307445424
 20
1027.74586409788
 30
0.0
 10
823.5773007837313
 20
1029.291476927899
 30
0.0
 10
855.4789113983772
 20
1031.395459071724
 30
0.0
 10
876.6881358227063
 20
1033.137933734142
 30
0.0
 10
887.2962564044549
 20
1034.009459300553
 30
0.0
  0
SPLINE
  5
C5
330
1F
100
AcDbEntity
  8
0
  6
Continuous
 62
     7
370
    15
100
AcDbSpline
210
0.0
220
0.0
230
1.0
 70
     8
 71
     3
 72
    20
 73
    16
 74
     0
 42
0.000000001
 43
0.00000001
 40
0.0
 40
0.0
 40
0.0
 40
0.0
 40
0.0833308546512803
 40
0.166214991381031
 40
0.2498230163154906
 40
0.3329310723557968
 40
0.4161653192719567
 40
0.4996939864731084
 40
0.5826798997358726
 40
0.6660730570957991
 40
0.7494529990035697
 40
0.8117033275710662
 40
0.8743381284304494
 40
0.9371733381828651
 40
1.0
 40
1.0
 40
1.0
 40
1.0
 10
542.1743051849433
 20
1062.658764902652
 30
0.0
 10
542.2695950235225
 20
1062.172140491516
 30
0.0
 10
542.4596638733428
 20
1061.201500352984
 30
0.0
 10
543.9638259186167
 20
1059.259831647294
 30
0.0
 10
546.2871377316662
 20
1056.998966853692
 30
0.0
 10
549.4517410946424
 20
1054.414403025736
 30
0.0
 10
553.353516798838
 20
1051.576825436934
 30
0.0
 10
557.9241771916213
 20
1048.574114182115
 30
0.0
 10
563.113368963826
 20
1045.496697140713
 30
0.0
 10
568.8705527697304
 20
1042.453301501014
 30
0.0
 10
574.6448368146762
 20
1039.8093591421
 30
0.0
 10
580.2670534211775
 20
1037.646054860295
 30
0.0
 10
585.6161539521972
 20
1035.992110949092
 30
0.0
 10
591.2214621747514
 20
1034.678093506374
 30
0.0
 10
595.1088115119821
 20
1034.232910933962
 30
0.0
 10
597.0523539654309
 20
1034.01033478915
 30
0.0
  0
SPLINE
  5
C6
330
1F
100
AcDbEntity
  8
0
  6
Continuous
 62
     7
370
    15
100
AcDbSpline
210
0.0
220
0.0
230
1.0
 70
     8
 71
     3
 72
    12
 73
     8
 74
     0
 42
0.000000001
 43
0.00000001
 40
0.0
 40
0.0
 40
0.0
 40
0.0
 40
0.3762912957841644
 40
0.5322364972609649
 40
0.6881710974213826
 40
0.8440942756800872
 40
1.0
 40
1.0
 40
1.0
 40
1.0
 10
542.1742973708466
 20
1066.913555478739
 30
0.0
 10
542.1742950236837
 20
1066.909909416805
 30
0.0
 10
542.1742917037939
 20
1066.904752329053
 30
0.0
 10
542.1742874115539
 20
1066.45019883473
 30
0.0
 10
542.1742844934913
 20
1065.854754938866
 30
0.0
 10
542.1742815755423
 20
1064.803851262215
 30
0.0
 10
542.1742796300219
 20
1063.373768356941
 30
0.0
 10
542.1742786573162
 20
1062.658766927181
 30
0.0
  0
SPLINE
  5
C7
330
1F
100
AcDbEntity
  8
0
  6
Continuous
 62
     7
370
    15
100
AcDbSpline
210
0.0
220
0.0
230
1.0
 70
     8
 71
     3
 72
    12
 73
     8
 74
     0
 42
0.000000001
 43
0.00000001
 40
0.0
 40
0.0
 40
0.0
 40
0.0
 40
0.2343296663840437
 40
0.4698595015644735
 40
0.704535539128014
 40
0.9397926295111521
 40
1.0
 40
1.0
 40
1.0
 40
1.0
 10
574.3846738497859
 20
1069.169479082776
 30
0.0
 10
572.1650939615986
 20
1068.978669482554
 30
0.0
 10
567.7145661388129
 20
1068.596073010507
 30
0.0
 10
561.5398481291892
 20
1067.696305608734
 30
0.0
 10
556.0237430787672
 20
1066.769225429845
 30
0.0
 10
552.2394944283872
 20
1066.085600171647
 30
0.0
 10
550.6415025939385
 20
1065.807409140637
 30
0.0
 10
550.3158766755763
 20
1065.7507216107
 30
0.0
  0
LINE
  5
C8
330
1F
100
AcDbEntity
  8
0
  6
Continuous
 62
     7
370
    15
100
AcDbLine
 10
579.3400889034
 20
1069.4092038815
 30
0.0
 11
574.3846738498
 21
1069.1694790828
 31
0.0
  0
LINE
  5
C9
330
1F
100
AcDbEntity
  8
0
  6
Continuous
 62
     7
370
    15
100
AcDbLine
 10
632.174909298
 20
1071.3336248486
 30
0.0
 11
579.3400889034
 21
1069.4092038815
 31
0.0
  0
SPLINE
  5
CA
330
1F
100
AcDbEntity
  8
0
  6
Continuous
 62
     7
370
    15
100
AcDbSpline
210
0.0
220
0.0
230
1.0
 70
     8
 71
     3
 72
    15
 73
    11
 74
     0
 42
0.000000001
 43
0.00000001
 40
0.0
 40
0.0
 40
0.0
 40
0.0
 40
0.1249074390094517
 40
0.2500098619615485
 40
0.3747958436944946
 40
0.5000719097253559
 40
0.624666727450523
 40
0.7499715038175803
 40
0.874394895100755
 40
1.0
 40
1.0
 40
1.0
 40
1.0
 10
632.1749092980041
 20
1071.333624848561
 30
0.0
 10
633.9331665087782
 20
1071.451199182733
 30
0.0
 10
637.4524256181196
 20
1071.686531387841
 30
0.0
 10
642.4506319264685
 20
1072.581814919117
 30
0.0
 10
647.0495900659076
 20
1073.887129077272
 30
0.0
 10
651.097573628418
 20
1075.650483155191
 30
0.0
 10
654.498952871331
 20
1077.875134657331
 30
0.0
 10
657.1166898352893
 20
1080.567864800313
 30
0.0
 10
658.960468349632
 20
1083.697076475142
 30
0.0
 10
659.4088037106171
 20
1086.113501727207
 30
0.0
 10
659.6340308783456
 20
1087.327424747587
 30
0.0
  0
SPLINE
  5
CB
330
1F
100
AcDbEntity
  8
0
  6
Continuous
 62
     7
370
    15
100
AcDbSpline
210
0.0
220
0.0
230
1.0
 70
     8
 71
     3
 72
    10
 73
     6
 74
     0
 42
0.000000001
 43
0.00000001
 40
0.0
 40
0.0
 40
0.0
 40
0.0
 40
0.333077074692651
 40
0.6654162208656147
 40
1.0
 40
1.0
 40
1.0
 40
1.0
 10
659.6340308783455
 20
1087.327424747587
 30
0.0
 10
659.7989706676568
 20
1088.910148639429
 30
0.0
 10
660.1284848240276
 20
1092.072089916098
 30
0.0
 10
660.6173185774824
 20
1097.315221542983
 30
0.0
 10
660.933462466027
 20
1101.082664617376
 30
0.0
 10
661.0920664260435
 20
1102.972726112748
 30
0.0
  0
SPLINE
  5
CC
330
1F
100
AcDbEntity
  8
0
  6
Continuous
 62
     7
370
    15
100
AcDbSpline
210
0.0
220
0.0
230
1.0
 70
     8
 71
     3
 72
    12
 73
     8
 74
     0
 42
0.000000001
 43
0.00000001
 40
0.0
 40
0.0
 40
0.0
 40
0.0
 40
0.2010946341189831
 40
0.4020258790357041
 40
0.601732955057195
 40
0.8008022906970038
 40
0.9999999999999999
 40
0.9999999999999999
 40
0.9999999999999999
 40
0.9999999999999999
 10
661.0920664260435
 20
1102.972726112748
 30
0.0
 10
661.3042677319687
 20
1105.655078959443
 30
0.0
 10
661.7284979304566
 20
1111.01760524365
 30
0.0
 10
662.3247591832193
 20
1119.557339778289
 30
0.0
 10
662.8922605476384
 20
1128.247931470792
 30
0.0
 10
663.4337162778621
 20
1137.054338452898
 30
0.0
 10
663.777828208822
 20
1142.977710704963
 30
0.0
 10
663.9499396332079
 20
1145.940351473118
 30
0.0
  0
SPLINE
  5
CD
330
1F
100
AcDbEntity
  8
0
  6
Continuous
 62
     7
370
    15
100
AcDbSpline
210
0.0
220
0.0
230
1.0
 70
     8
 71
     3
 72
    15
 73
    11
 74
     0
 42
0.000000001
 43
0.00000001
 40
0.0
 40
0.0
 40
0.0
 40
0.0
 40
0.1249321707585292
 40
0.2498212265598402
 40
0.3747468490326304
 40
0.4998341501962247
 40
0.6250385506447564
 40
0.7500710696614009
 40
0.8750341202674163
 40
1.0
 40
1.0
 40
1.0
 40
1.0
 10
597.0586290346155
 20
1026.975070579458
 30
0.0
 10
609.1108118784063
 20
1026.123485101753
 30
0.0
 10
633.2110182742332
 20
1024.420608034388
 30
0.0
 10
669.4561029168424
 20
1022.510043458195
 30
0.0
 10
705.7641846418348
 20
1021.230891716426
 30
0.0
 10
742.1367754157941
 20
1020.79431459762
 30
0.0
 10
778.5195982974188
 20
1021.235618208061
 30
0.0
 10
814.8568677086347
 20
1022.506434523021
 30
0.0
 10
851.122708764895
 20
1024.419526359195
 30
0.0
 10
875.2333239168466
 20
1026.122662596474
 30
0.0
 10
887.2887679555796
 20
1026.97424035463
 30
0.0
  0
SPLINE
  5
CE
330
1F
100
AcDbEntity
  8
0
  6
Continuous
 62
     7
370
    15
100
AcDbSpline
210
0.0
220
0.0
230
1.0
 70
     8
 71
     3
 72
    21
 73
    17
 74
     0
 42
0.000000001
 43
0.00000001
 40
0.0
 40
0.0
 40
0.0
 40
0.0
 40
0.0654416661861111
 40
0.1298641123915757
 40
0.1941048209408085
 40
0.2580853886433779
 40
0.3420481914052742
 40
0.4256162837794485
 40
0.5081686801710619
 40
0.5901129732712188
 40
0.6721710145541497
 40
0.7532535761449239
 40
0.8140924864900686
 40
0.8756122978180902
 40
0.937694980819938
 40
0.9999999999999999
 40
0.9999999999999999
 40
0.9999999999999999
 40
0.9999999999999999
 10
887.2887679555795
 20
1026.97424035463
 30
0.0
 10
889.2249896110316
 20
1027.166877194285
 30
0.0
 10
893.0672772747278
 20
1027.549150654813
 30
0.0
 10
898.6418452866687
 20
1028.689816724916
 30
0.0
 10
903.985494034661
 20
1030.13714251062
 30
0.0
 10
909.6188595289748
 20
1032.037948922317
 30
0.0
 10
915.427892563938
 20
1034.372620645808
 30
0.0
 10
921.2325943857038
 20
1037.080998466323
 30
0.0
 10
926.4738627985114
 20
1039.838912389402
 30
0.0
 10
931.1145802934132
 20
1042.554388782065
 30
0.0
 10
935.0984103658819
 20
1045.135283139773
 30
0.0
 10
938.0882068230479
 20
1047.305936496194
 30
0.0
 10
940.2195430363524
 20
1049.086374874774
 30
0.0
 10
941.6490743229517
 20
1050.527939463267
 30
0.0
 10
942.6036987852327
 20
1051.80733982674
 30
0.0
 10
942.7695530322651
 20
1052.490516342982
 30
0.0
 10
942.8526283834549
 20
1052.832715171332
 30
0.0
  0
SPLINE
  5
CF
330
1F
100
AcDbEntity
  8
0
  6
Continuous
 62
     7
370
    15
100
AcDbSpline
210
0.0
220
0.0
230
1.0
 70
     8
 71
     3
 72
    21
 73
    17
 74
     0
 42
0.000000001
 43
0.00000001
 40
0.0
 40
0.0
 40
0.0
 40
0.0
 40
0.0620114980778388
 40
0.1233461918411086
 40
0.1846385829315222
 40
0.2462503306770945
 40
0.3276023712014989
 40
0.4092809037691307
 40
0.4916803335025943
 40
0.5740180683084856
 40
0.6573189753769385
 40
0.7413900396139024
 40
0.8047968457901368
 40
0.8691902873688208
 40
0.9343637614422933
 40
1.0
 40
1.0
 40
1.0
 40
1.0
 10
541.4954192819954
 20
1052.830547948479
 30
0.0
 10
541.5775792951816
 20
1052.490156933421
 30
0.0
 10
541.7410026128289
 20
1051.813089990261
 30
0.0
 10
542.6836924014435
 20
1050.544383464457
 30
0.0
 10
544.1034672493137
 20
1049.107668621483
 30
0.0
 10
546.234805475371
 20
1047.322783437726
 30
0.0
 10
549.2304036030066
 20
1045.147101445972
 30
0.0
 10
553.2185392095253
 20
1042.563553311926
 30
0.0
 10
557.8523341131412
 20
1039.851240095127
 30
0.0
 10
563.090260974146
 20
1037.093609554423
 30
0.0
 10
568.8857455170138
 20
1034.391553629431
 30
0.0
 10
574.6719031149456
 20
1032.062088644316
 30
0.0
 10
580.2923541455011
 20
1030.159900232934
 30
0.0
 10
585.64240605526
 20
1028.706482562819
 30
0.0
 10
591.2468884181475
 20
1027.555390745981
 30
0.0
 10
595.1168186219828
 20
1027.168966318511
 30
0.0
 10
597.0586290346147
 20
1026.975070579458
 30
0.0
  0
SPLINE
  5
D0
330
1F
100
AcDbEntity
  8
0
  6
Continuous
 62
     7
370
    15
100
AcDbSpline
210
0.0
220
0.0
230
1.0
 70
     8
 71
     3
 72
    22
 73
    18
 74
     0
 42
0.000000001
 43
0.00000001
 40
0.0
 40
0.0
 40
0.0
 40
0.0
 40
0.058864315027033
 40
0.1270310833105988
 40
0.1954337878950175
 40
0.2635251970222172
 40
0.3318541640588652
 40
0.3995592220385884
 40
0.467410922327654
 40
0.5348422709575213
 40
0.602026737976088
 40
0.669338738335726
 40
0.73630200370149
 40
0.8036327773964612
 40
0.8710491893801467
 40
0.9385571146737723
 40
1.0
 40
1.0
 40
1.0
 40
1.0
 10
585.7127630169311
 20
1352.533871839053
 30
0.0
 10
586.7707860894126
 20
1352.911390355021
 30
0.0
 10
589.0540338771971
 20
1353.726087443253
 30
0.0
 10
592.8144669232347
 20
1354.109868791522
 30
0.0
 10
596.7731766243407
 20
1353.827897898584
 30
0.0
 10
600.6479480250017
 20
1352.767446263131
 30
0.0
 10
604.2629606272274
 20
1350.974004702144
 30
0.0
 10
607.4750274970946
 20
1348.492427210111
 30
0.0
 10
610.1308395908729
 20
1345.424286432466
 30
0.0
 10
612.1138698130935
 20
1341.89150495225
 30
0.0
 10
613.3385810043575
 20
1338.050029507263
 30
0.0
 10
613.7591084265518
 20
1334.066875150251
 30
0.0
 10
613.3706152803225
 20
1330.102982428025
 30
0.0
 10
612.2076939147665
 20
1326.315231005685
 30
0.0
 10
610.3152978238469
 20
1322.860678786879
 30
0.0
 10
607.907171762738
 20
1319.890549858182
 30
0.0
 10
605.9219406326038
 20
1318.400079780393
 30
0.0
 10
604.9760114981642
 20
1317.689895938729
 30
0.0
  0
SPLINE
  5
D1
330
1F
100
AcDbEntity
  8
0
  6
Continuous
 62
     7
370
    15
100
AcDbSpline
210
0.0
220
0.0
230
1.0
 70
     8
 71
     3
 72
    10
 73
     6
 74
     0
 42
0.000000001
 43
0.00000001
 40
0.0
 40
0.0
 40
0.0
 40
0.0
 40
0.3228032242123378
 40
0.6638497587916152
 40
1.0
 40
1.0
 40
1.0
 40
1.0
 10
822.1929181177413
 20
1117.253273395531
 30
0.0
 10
822.0435184110038
 20
1120.144211456973
 30
0.0
 10
821.7362756332303
 20
1126.089469715941
 30
0.0
 10
821.3030701755871
 20
1135.24059585912
 30
0.0
 10
821.0229163112241
 20
1141.489533299841
 30
0.0
 10
820.8838521684991
 20
1144.591411369995
 30
0.0
  0
SPLINE
  5
D2
330
1F
100
AcDbEntity
  8
0
  6
Continuous
 62
     7
370
    15
100
AcDbSpline
210
0.0
220
0.0
230
1.0
 70
     8
 71
     3
 72
    12
 73
     8
 74
     0
 42
0.000000001
 43
0.00000001
 40
0.0
 40
0.0
 40
0.0
 40
0.0
 40
0.2049283124859686
 40
0.4060936429683146
 40
0.60505038375449
 40
0.8028164325219233
 40
1.0
 40
1.0
 40
1.0
 40
1.0
 10
820.8837234516635
 20
1144.594518253377
 30
0.0
 10
820.637361134801
 20
1150.114908530456
 30
0.0
 10
820.1491603121273
 20
1161.054321298906
 30
0.0
 10
819.3819384946131
 20
1177.420767523694
 30
0.0
 10
818.5789673388903
 20
1193.582281244721
 30
0.0
 10
817.7426978936477
 20
1209.624399152427
 30
0.0
 10
817.1559308585712
 20
1220.263086733632
 30
0.0
 10
816.8629800301723
 20
1225.574585426778
 30
0.0
  0
SPLINE
  5
D3
330
1F
100
AcDbEntity
  8
0
  6
Continuous
 62
     7
370
    15
100
AcDbSpline
210
0.0
220
0.0
230
1.0
 70
     8
 71
     3
 72
    15
 73
    11
 74
     0
 42
0.000000001
 43
0.00000001
 40
0.0
 40
0.0
 40
0.0
 40
0.0
 40
0.1230320301350527
 40
0.2468105540894964
 40
0.3706370061619403
 40
0.4957541896417053
 40
0.6206468036880207
 40
0.7468111306952236
 40
0.8726486391968161
 40
1.0
 40
1.0
 40
1.0
 40
1.0
 10
816.8629800301723
 20
1225.574585426778
 30
0.0
 10
816.8606633157915
 20
1227.404732172699
 30
0.0
 10
816.8560158304225
 20
1231.076130034946
 30
0.0
 10
818.1619943908084
 20
1236.481130644308
 30
0.0
 10
820.394732980691
 20
1241.593836960276
 30
0.0
 10
823.5714550888998
 20
1246.223387221408
 30
0.0
 10
827.568955973277
 20
1250.22020015463
 30
0.0
 10
832.2409546351669
 20
1253.398623748968
 30
0.0
 10
837.4278014674398
 20
1255.752796056216
 30
0.0
 10
841.1156020600927
 20
1256.484638347609
 30
0.0
 10
842.9705272988472
 20
1256.85274738794
 30
0.0
  0
SPLINE
  5
D4
330
1F
100
AcDbEntity
  8
0
  6
Continuous
 62
     7
370
    15
100
AcDbSpline
210
0.0
220
0.0
230
1.0
 70
     8
 71
     3
 72
    11
 73
     7
 74
     0
 42
0.000000001
 43
0.00000001
 40
0.0
 40
0.0
 40
0.0
 40
0.0
 40
0.2507196054121988
 40
0.5010685723801175
 40
0.75090789041506
 40
0.9999999999999999
 40
0.9999999999999999
 40
0.9999999999999999
 40
0.9999999999999999
 10
842.9705272988473
 20
1256.85274738794
 30
0.0
 10
850.1692009918863
 20
1257.893177279439
 30
0.0
 10
864.5559065886474
 20
1259.972498996374
 30
0.0
 10
885.9284591070985
 20
1263.070314486582
 30
0.0
 10
907.0869933988937
 20
1266.149282624772
 30
0.0
 10
921.0405648293773
 20
1268.21190085389
 30
0.0
 10
928.0069019880606
 20
1269.241665461845
 30
0.0
  0
SPLINE
  5
D5
330
1F
100
AcDbEntity
  8
0
  6
Continuous
 62
     7
370
    15
100
AcDbSpline
210
0.0
220
0.0
230
1.0
 70
     8
 71
     3
 72
    15
 73
    11
 74
     0
 42
0.000000001
 43
0.00000001
 40
0.0
 40
0.0
 40
0.0
 40
0.0
 40
0.1257415030306432
 40
0.2508215945005605
 40
0.3767228249192363
 40
0.5013396269494456
 40
0.6262584537873027
 40
0.7510292537878174
 40
0.8749910249224085
 40
0.9999999999999999
 40
0.9999999999999999
 40
0.9999999999999999
 40
0.9999999999999999
 10
928.0069019880605
 20
1269.241665461845
 30
0.0
 10
929.5658034846945
 20
1269.533509948589
 30
0.0
 10
932.6754065165569
 20
1270.115663793956
 30
0.0
 10
937.1749081833277
 20
1271.777228734758
 30
0.0
 10
941.4381412970579
 20
1273.983270304322
 30
0.0
 10
945.3868959519527
 20
1276.771483934001
 30
0.0
 10
948.9391051582952
 20
1280.075801828571
 30
0.0
 10
952.003831847209
 20
1283.857249962613
 30
0.0
 10
954.5754881796781
 20
1288.030918387936
 30
0.0
 10
955.7668482313296
 20
1291.068428544308
 30
0.0
 10
956.3650337662615
 20
1292.593571707562
 30
0.0
  0
SPLINE
  5
D6
330
1F
100
AcDbEntity
  8
0
  6
Continuous
 62
     7
370
    15
100
AcDbSpline
210
0.0
220
0.0
230
1.0
 70
     8
 71
     3
 72
    15
 73
    11
 74
     0
 42
0.000000001
 43
0.00000001
 40
0.0
 40
0.0
 40
0.0
 40
0.0
 40
0.1249037694717052
 40
0.2488877559298681
 40
0.3728280735369134
 40
0.4975607728503813
 40
0.6233623369656758
 40
0.7487506004082428
 40
0.8741787844425116
 40
1.0
 40
1.0
 40
1.0
 40
1.0
 10
956.3650337662615
 20
1292.593571707562
 30
0.0
 10
957.4156076700677
 20
1295.857008319164
 30
0.0
 10
959.5090191216417
 20
1302.359849813191
 30
0.0
 10
961.7054059784679
 20
1312.352442246692
 30
0.0
 10
963.2048326626108
 20
1322.440015213853
 30
0.0
 10
963.9340374707797
 20
1332.635638589404
 30
0.0
 10
963.9117582867331
 20
1342.862631842096
 30
0.0
 10
963.1218232074715
 20
1353.037564373283
 30
0.0
 10
961.652456658166
 20
1363.111211485425
 30
0.0
 10
960.0697996265005
 20
1369.675959247548
 30
0.0
 10
959.277233228896
 20
1372.963467773343
 30
0.0
  0
SPLINE
  5
D7
330
1F
100
AcDbEntity
  8
0
  6
Continuous
 62
     7
370
    15
100
AcDbSpline
210
0.0
220
0.0
230
1.0
 70
     8
 71
     3
 72
    13
 73
     9
 74
     0
 42
0.000000001
 43
0.00000001
 40
0.0
 40
0.0
 40
0.0
 40
0.0
 40
0.1775676872780886
 40
0.3549213812072617
 40
0.5327634365886349
 40
0.7106456241635727
 40
0.889364663643672
 40
1.0
 40
1.0
 40
1.0
 40
1.0
 10
959.277233228896
 20
1372.963467773343
 30
0.0
 10
958.6857728924291
 20
1374.837420415239
 30
0.0
 10
957.5035650100943
 20
1378.583067329799
 30
0.0
 10
954.589995394112
 20
1383.645640308647
 30
0.0
 10
950.9868962081857
 20
1388.158266959339
 30
0.0
 10
946.684173106159
 20
1391.956793566756
 30
0.0
 10
942.5025150402593
 20
1394.733508843618
 30
0.0
 10
939.6310807032863
 20
1395.87467769537
 30
0.0
 10
938.5331809297724
 20
1396.311006330069
 30
0.0
  0
SPLINE
  5
D8
330
1F
100
AcDbEntity
  8
0
  6
Continuous
 62
     7
370
    15
100
AcDbSpline
210
0.0
220
0.0
230
1.0
 70
     8
 71
     3
 72
    13
 73
     9
 74
     0
 42
0.000000001
 43
0.00000001
 40
0.0
 40
0.0
 40
0.0
 40
0.0
 40
0.1097980586118711
 40
0.2878082944373032
 40
0.4664825961942255
 40
0.643307865775124
 40
0.8216218064389065
 40
1.0
 40
1.0
 40
1.0
 40
1.0
 10
545.8075240733046
 20
1396.305006626428
 30
0.0
 10
544.7175698301004
 20
1395.873073340238
 30
0.0
 10
541.8605259468362
 20
1394.740867689419
 30
0.0
 10
537.6841003514583
 20
1391.972785221424
 30
0.0
 10
533.3849791262742
 20
1388.187870722794
 30
0.0
 10
529.7711365931083
 20
1383.676098430041
 30
0.0
 10
526.8541049032806
 20
1378.607278997489
 30
0.0
 10
525.6625879902884
 20
1374.845110153922
 30
0.0
 10
525.0667222165761
 20
1372.963686882154
 30
0.0
  0
SPLINE
  5
D9
330
1F
100
AcDbEntity
  8
0
  6
Continuous
 62
     7
370
    15
100
AcDbSpline
210
0.0
220
0.0
230
1.0
 70
     8
 71
     3
 72
    15
 73
    11
 74
     0
 42
0.000000001
 43
0.00000001
 40
0.0
 40
0.0
 40
0.0
 40
0.0
 40
0.125641889821648
 40
0.2506159471501181
 40
0.3752760459207752
 40
0.5002869960045662
 40
0.6258535215687776
 40
0.7505470062939724
 40
0.8749687789874986
 40
1.0
 40
1.0
 40
1.0
 40
1.0
 10
525.0667222165763
 20
1372.963686882154
 30
0.0
 10
524.2757403203414
 20
1369.68087392255
 30
0.0
 10
522.6979808852925
 20
1363.132697352175
 30
0.0
 10
521.2336016237289
 20
1353.095876093631
 30
0.0
 10
520.4419888873699
 20
1342.975328831634
 30
0.0
 10
520.4100382505927
 20
1332.767767655191
 30
0.0
 10
521.1298982593152
 20
1322.550326765586
 30
0.0
 10
522.6291414583966
 20
1312.407017315765
 30
0.0
 10
524.8296385884985
 20
1302.378386202344
 30
0.0
 10
526.9269639308441
 20
1295.860627785465
 30
0.0
 10
527.9781886306083
 20
1292.593786682379
 30
0.0
  0
SPLINE
  5
DA
330
1F
100
AcDbEntity
  8
0
  6
Continuous
 62
     7
370
    15
100
AcDbSpline
210
0.0
220
0.0
230
1.0
 70
     8
 71
     3
 72
    15
 73
    11
 74
     0
 42
0.000000001
 43
0.00000001
 40
0.0
 40
0.0
 40
0.0
 40
0.0
 40
0.1241003625109531
 40
0.2480381592864783
 40
0.3730599079529291
 40
0.49747028827539
 40
0.623050102338229
 40
0.7480327836806522
 40
0.873598518218064
 40
1.0
 40
1.0
 40
1.0
 40
1.0
 10
527.9781886306083
 20
1292.593786682379
 30
0.0
 10
528.5710709101055
 20
1291.079051904092
 30
0.0
 10
529.7560588207336
 20
1288.051566580023
 30
0.0
 10
532.3213793074242
 20
1283.883471287652
 30
0.0
 10
535.3815250090653
 20
1280.10199654409
 30
0.0
 10
538.9386123086442
 20
1276.788469600767
 30
0.0
 10
542.8819314179669
 20
1274.001034649476
 30
0.0
 10
547.1501065491782
 20
1271.787487815842
 30
0.0
 10
551.6535135761735
 20
1270.124683192383
 30
0.0
 10
554.7775693272692
 20
1269.536562040156
 30
0.0
 10
556.3447782756247
 20
1269.241526097803
 30
0.0
  0
SPLINE
  5
DB
330
1F
100
AcDbEntity
  8
0
  6
Continuous
 62
     7
370
    15
100
AcDbSpline
210
0.0
220
0.0
230
1.0
 70
     8
 71
     3
 72
    11
 73
     7
 74
     0
 42
0.000000001
 43
0.00000001
 40
0.0
 40
0.0
 40
0.0
 40
0.0
 40
0.2490717281765412
 40
0.4988785853775558
 40
0.7492832600348628
 40
1.0
 40
1.0
 40
1.0
 40
1.0
 10
556.3447782756248
 20
1269.241526097803
 30
0.0
 10
563.310776436009
 20
1268.211775400329
 30
0.0
 10
577.2633327274717
 20
1266.149234721754
 30
0.0
 10
598.4197407676342
 20
1263.069846153627
 30
0.0
 10
619.7917928277275
 20
1259.972511047196
 30
0.0
 10
634.1796013071779
 20
1257.893111202957
 30
0.0
 10
641.3779854351609
 20
1256.852763824419
 30
0.0
  0
SPLINE
  5
DC
330
1F
100
AcDbEntity
  8
0
  6
Continuous
 62
     7
370
    15
100
AcDbSpline
210
0.0
220
0.0
230
1.0
 70
     8
 71
     3
 72
    15
 73
    11
 74
     0
 42
0.000000001
 43
0.00000001
 40
0.0
 40
0.0
 40
0.0
 40
0.0
 40
0.1263237032064976
 40
0.2527041906196558
 40
0.3781271161312766
 40
0.5038112014144147
 40
0.6282014099847124
 40
0.7526948769527793
 40
0.8760336010113875
 40
1.0
 40
1.0
 40
1.0
 40
1.0
 10
641.3779854351609
 20
1256.852763824419
 30
0.0
 10
643.21794153059
 20
1256.488324084287
 30
0.0
 10
646.8986808065042
 20
1255.759280783451
 30
0.0
 10
652.0714589104092
 20
1253.418189529267
 30
0.0
 10
656.7542511614962
 20
1250.240900458375
 30
0.0
 10
660.7500233055354
 20
1246.255927512193
 30
0.0
 10
663.938199320292
 20
1241.621540844915
 30
0.0
 10
666.174424012768
 20
1236.517979925597
 30
0.0
 10
667.4902989110194
 20
1231.097689532237
 30
0.0
 10
667.4870444144988
 20
1227.418735041813
 30
0.0
 10
667.4854130361867
 20
1225.574589095295
 30
0.0
  0
SPLINE
  5
DD
330
1F
100
AcDbEntity
  8
0
  6
Continuous
 62
     7
370
    15
100
AcDbSpline
210
0.0
220
0.0
230
1.0
 70
     8
 71
     3
 72
    12
 73
     8
 74
     0
 42
0.000000001
 43
0.00000001
 40
0.0
 40
0.0
 40
0.0
 40
0.0
 40
0.1970347436073678
 40
0.3948416540259497
 40
0.5939528957087977
 40
0.7952461749891802
 40
1.0
 40
1.0
 40
1.0
 40
1.0
 10
667.4854130361867
 20
1225.574589095295
 30
0.0
 10
667.1926957676187
 20
1220.267118470631
 30
0.0
 10
666.6061140898531
 20
1209.631377576569
 30
0.0
 10
665.7697759415789
 20
1193.588068041933
 30
0.0
 10
664.9663721364938
 20
1177.417865768252
 30
0.0
 10
664.1990276801757
 20
1161.048555693509
 30
0.0
 10
663.7108685678699
 20
1150.110448245801
 30
0.0
 10
663.4647088381189
 20
1144.594784386537
 30
0.0
  0
SPLINE
  5
DE
330
1F
100
AcDbEntity
  8
0
  6
Continuous
 62
     7
370
    15
100
AcDbSpline
210
0.0
220
0.0
230
1.0
 70
     8
 71
     3
 72
    10
 73
     6
 74
     0
 42
0.000000001
 43
0.00000001
 40
0.0
 40
0.0
 40
0.0
 40
0.0
 40
0.3231630880643266
 40
0.6640284996047385
 40
1.0
 40
1.0
 40
1.0
 40
1.0
 10
662.1547416989704
 20
1117.240158539194
 30
0.0
 10
662.3044088814596
 20
1120.136078183194
 30
0.0
 10
662.6119417597458
 20
1126.086551016272
 30
0.0
 10
663.0454363376849
 20
1135.243230502997
 30
0.0
 10
663.3256219354727
 20
1141.492662295703
 30
0.0
 10
663.4647017847212
 20
1144.594784740544
 30
0.0
  0
SPLINE
  5
DF
330
1F
100
AcDbEntity
  8
0
  6
Continuous
 62
     7
370
    15
100
AcDbSpline
210
0.0
220
0.0
230
1.0
 70
     8
 71
     3
 72
    13
 73
     9
 74
     0
 42
0.000000001
 43
0.00000001
 40
0.0
 40
0.0
 40
0.0
 40
0.0
 40
0.0518664909559626
 40
0.4254503627296077
 40
0.5713064082155812
 40
0.7158471203452733
 40
0.858665280345084
 40
1.0
 40
1.0
 40
1.0
 40
1.0
 10
540.7272762914083
 20
1056.999153715014
 30
0.0
 10
540.7298938627769
 20
1057.009524447395
 30
0.0
 10
540.7513652726925
 20
1057.094593473111
 30
0.0
 10
540.8437681730962
 20
1056.993658488632
 30
0.0
 10
541.0065349324343
 20
1056.528300066574
 30
0.0
 10
541.1395345568332
 20
1055.929458374017
 30
0.0
 10
541.2967301843793
 20
1054.906901561554
 30
0.0
 10
541.4294204673859
 20
1053.52025303435
 30
0.0
 10
541.4954192493531
 20
1052.830548319442
 30
0.0
  0
SPLINE
  5
E0
330
1F
100
AcDbEntity
  8
0
  6
Continuous
 62
     7
370
    15
100
AcDbSpline
210
0.0
220
0.0
230
1.0
 70
     8
 71
     3
 72
    13
 73
     9
 74
     0
 42
0.000000001
 43
0.00000001
 40
0.0
 40
0.0
 40
0.0
 40
0.0
 40
0.1451768139262055
 40
0.2919126901464885
 40
0.4404526719783622
 40
0.5903134452360304
 40
0.7407771531078295
 40
1.0
 40
1.0
 40
1.0
 40
1.0
 10
942.8526283834551
 20
1052.832715171332
 30
0.0
 10
942.9197627279673
 20
1053.533074746422
 30
0.0
 10
943.0547523766429
 20
1054.941315099032
 30
0.0
 10
943.2140122911632
 20
1055.962911100134
 30
0.0
 10
943.348025021636
 20
1056.553097922998
 30
0.0
 10
943.4560662733229
 20
1056.858142963381
 30
0.0
 10
943.5614315178764
 20
1057.04218072183
 30
0.0
 10
943.5971495676351
 20
1057.024477710253
 30
0.0
 10
943.6197496125629
 20
1057.013276402799
 30
0.0
  0
SPLINE
  5
E1
330
1F
100
AcDbEntity
  8
0
  6
Continuous
 62
     7
370
    15
100
AcDbSpline
210
0.0
220
0.0
230
1.0
 70
     8
 71
     3
 72
    13
 73
     9
 74
     0
 42
0.000000001
 43
0.00000001
 40
0.0
 40
0.0
 40
0.0
 40
0.0
 40
0.1831060782147784
 40
0.3666207413865521
 40
0.5507668452189431
 40
0.735336695532097
 40
0.9201743032756216
 40
0.9999999999999999
 40
0.9999999999999999
 40
0.9999999999999999
 40
0.9999999999999999
 10
943.6738744149657
 20
1056.82292923032
 30
0.0
 10
943.6756281038346
 20
1056.70919730274
 30
0.0
 10
943.6791393947731
 20
1056.481479664882
 30
0.0
 10
943.6384698696056
 20
1055.859237934006
 30
0.0
 10
943.5683042861968
 20
1055.192946933658
 30
0.0
 10
943.4633632794818
 20
1054.665668349746
 30
0.0
 10
943.3318635707087
 20
1054.264768374041
 30
0.0
 10
943.1895888464684
 20
1054.295312752874
 30
0.0
 10
943.1466770457124
 20
1054.304525311926
 30
0.0
  0
LINE
  5
E2
330
1F
100
AcDbEntity
  8
0
  6
Continuous
 62
     7
370
    15
100
AcDbLine
 10
942.2710269443
 20
1063.080346804
 30
0.0
 11
942.1743051849
 21
1064.2737955494
 31
0.0
  0
LINE
  5
E3
330
1F
100
AcDbEntity
  8
0
  6
Continuous
 62
     7
370
    15
100
AcDbLine
 10
542.0308436899
 20
1062.5023800826
 30
0.0
 11
542.1743051849
 21
1064.27065517
 31
0.0
  0
LINE
  5
E4
330
1F
100
AcDbEntity
  8
0
  6
Continuous
 62
     7
370
    15
100
AcDbLine
 10
997.8516707236
 20
313.7946771444
 30
0.0
 11
997.8516707236
 21
315.2550076295
 31
0.0
  0
LINE
  5
E5
330
1F
100
AcDbEntity
  8
0
  6
Continuous
 62
     7
370
    15
100
AcDbLine
 10
987.5659564379
 20
313.7946771444
 30
0.0
 11
987.5659564379
 21
315.2550076295
 31
0.0
  0
ARC
  5
E6
330
1F
100
AcDbEntity
  8
0
  6
Continuous
 62
     7
370
    15
100
AcDbCircle
 10
996.8681914993
 20
313.7781465321
 30
0.0
 40
0.9836181402501806
100
AcDbArc
 50
270.9964648129
 51
0.9629538805
  0
LINE
  5
E7
330
1F
100
AcDbEntity
  8
0
  6
Continuous
 62
     7
370
    15
100
AcDbLine
 10
996.8852973222
 20
312.7946771444
 30
0.0
 11
986.5995830365
 21
312.7946771444
 31
0.0
  0
ARC
  5
E8
330
1F
100
AcDbEntity
  8
0
  6
Continuous
 62
     7
370
    15
100
AcDbCircle
 10
986.5824772136
 20
313.7781465321
 30
0.0
 40
0.9836181402502941
100
AcDbArc
 50
270.9964648129
 51
0.9629538805
  0
LINE
  5
E9
330
1F
100
AcDbEntity
  8
0
  6
Continuous
 62
     7
370
    15
100
AcDbLine
 10
987.5629197103
 20
315.3342220019
 30
0.0
 11
986.9132246653
 21
323.7946771444
 31
0.0
  0
ARC
  5
EA
330
1F
100
AcDbEntity
  8
0
  6
Continuous
 62
     7
370
    15
100
AcDbCircle
 10
986.5313522715
 20
315.2550108888
 30
0.0
 40
1.0346041664002
100
AcDbArc
 50
359.9998195026
 51
4.3909624641
  0
LINE
  5
EB
330
1F
100
AcDbEntity
  8
0
  6
Continuous
 62
     7
370
    15
100
AcDbLine
 10
975.0031022191
 20
312.7946771443
 30
0.0
 11
986.5995830365
 21
312.7946771444
 31
0.0
  0
ARC
  5
EC
330
1F
100
AcDbEntity
  8
0
  6
Continuous
 62
     7
370
    15
100
AcDbCircle
 10
975.020208042
 20
313.778146532
 30
0.0
 40
0.9836181402490259
100
AcDbArc
 50
179.0370461203
 51
269.0035351879
  0
LINE
  5
ED
330
1F
100
AcDbEntity
  8
0
  6
Continuous
 62
     7
370
    15
100
AcDbLine
 10
974.0367288177
 20
315.2550076294
 30
0.0
 11
974.0367288177
 21
313.7946771443
 31
0.0
  0
ARC
  5
EE
330
1F
100
AcDbEntity
  8
0
  6
Continuous
 62
     7
370
    15
100
AcDbCircle
 10
975.0713329842
 20
315.2550108887
 30
0.0
 40
1.034604166519689
100
AcDbArc
 50
175.6090375368
 51
180.0001804978
  0
LINE
  5
EF
330
1F
100
AcDbEntity
  8
0
  6
Continuous
 62
     7
370
    15
100
AcDbLine
 10
974.4782420663
 20
321.0441484758
 30
0.0
 11
974.0397655453
 21
315.3342220018
 31
0.0
  0
ARC
  5
F0
330
1F
100
AcDbEntity
  8
0
  6
Continuous
 62
     7
370
    15
100
AcDbCircle
 10
980.796857332
 20
325.0534292592
 30
0.0
 40
6.244550123247225
100
AcDbArc
 50
248.417255755
 51
348.3708592685
  0
ARC
  5
F1
330
1F
100
AcDbEntity
  8
0
  6
Continuous
 62
     7
370
    15
100
AcDbCircle
 10
996.817066557
 20
315.2550108888
 30
0.0
 40
1.034604166585855
100
AcDbArc
 50
359.999819503
 51
4.3909624638
  0
LINE
  5
F2
330
1F
100
AcDbEntity
  8
0
  6
Continuous
 62
     7
370
    15
100
AcDbLine
 10
997.198938951
 20
323.7946771444
 30
0.0
 11
986.9132246653
 21
323.7946771444
 31
0.0
  0
LINE
  5
F3
330
1F
100
AcDbEntity
  8
0
  6
Continuous
 62
     7
370
    15
100
AcDbLine
 10
997.848633996
 20
315.3342220019
 30
0.0
 11
997.198938951
 21
323.7946771444
 31
0.0
  0
LINE
  5
F4
330
1F
100
AcDbEntity
  8
0
  6
Continuous
 62
     7
370
    15
100
AcDbLine
 10
509.8689701855
 20
321.0623550414
 30
0.0
 11
510.3088448246
 21
315.3342220018
 31
0.0
  0
ARC
  5
F5
330
1F
100
AcDbEntity
  8
0
  6
Continuous
 62
     7
370
    15
100
AcDbCircle
 10
509.2772773857
 20
315.2550108887
 30
0.0
 40
1.034604166485243
100
AcDbArc
 50
359.9998195021
 51
4.3909624633
  0
LINE
  5
F6
330
1F
100
AcDbEntity
  8
0
  6
Continuous
 62
     7
370
    15
100
AcDbLine
 10
510.3118815522
 20
315.2550076294
 30
0.0
 11
510.3118815522
 21
313.7946771443
 31
0.0
  0
ARC
  5
F7
330
1F
100
AcDbEntity
  8
0
  6
Continuous
 62
     7
370
    15
100
AcDbCircle
 10
509.3284023279
 20
313.778146532
 30
0.0
 40
0.9836181402489671
100
AcDbArc
 50
270.9964648121
 51
0.9629538797
  0
LINE
  5
F8
330
1F
100
AcDbEntity
  8
0
  6
Continuous
 62
     7
370
    15
100
AcDbLine
 10
509.3455081507
 20
312.7946771443
 30
0.0
 11
497.7490273334
 21
312.7946771444
 31
0.0
  0
ARC
  5
F9
330
1F
100
AcDbEntity
  8
0
  6
Continuous
 62
     7
370
    15
100
AcDbCircle
 10
497.7661331563
 20
313.7781465321
 30
0.0
 40
0.9836181402502363
100
AcDbArc
 50
179.0370461195
 51
269.0035351871
  0
LINE
  5
FA
330
1F
100
AcDbEntity
  8
0
  6
Continuous
 62
     7
370
    15
100
AcDbLine
 10
496.782653932
 20
313.7946771444
 30
0.0
 11
496.782653932
 21
315.2550076295
 31
0.0
  0
ARC
  5
FB
330
1F
100
AcDbEntity
  8
0
  6
Continuous
 62
     7
370
    15
100
AcDbCircle
 10
497.8172580984
 20
315.2550108888
 30
0.0
 40
1.034604166391568
100
AcDbArc
 50
175.6090375358
 51
180.0001804974
  0
LINE
  5
FC
330
1F
100
AcDbEntity
  8
0
  6
Continuous
 62
     7
370
    15
100
AcDbLine
 10
496.7856906596
 20
315.3342220019
 30
0.0
 11
497.4353857046
 21
323.7946771444
 31
0.0
  0
ARC
  5
FD
330
1F
100
AcDbEntity
  8
0
  6
Continuous
 62
     7
370
    15
100
AcDbCircle
 10
503.5508981571
 20
325.052813524
 30
0.0
 40
6.243588688168582
100
AcDbArc
 50
191.6251876461
 51
292.2269794997
  0
LINE
  5
FE
330
1F
100
AcDbEntity
  8
0
  6
Continuous
 62
     7
370
    15
100
AcDbLine
 10
487.4633130477
 20
312.7946771444
 30
0.0
 11
497.7490273334
 21
312.7946771444
 31
0.0
  0
ARC
  5
FF
330
1F
100
AcDbEntity
  8
0
  6
Continuous
 62
     7
370
    15
100
AcDbCircle
 10
487.4804188706
 20
313.7781465321
 30
0.0
 40
0.9836181402501734
100
AcDbArc
 50
179.0370461195
 51
269.0035351871
  0
LINE
  5
100
330
1F
100
AcDbEntity
  8
0
  6
Continuous
 62
     7
370
    15
100
AcDbLine
 10
486.4969396462
 20
313.7946771444
 30
0.0
 11
486.4969396463
 21
315.2550076295
 31
0.0
  0
ARC
  5
101
330
1F
100
AcDbEntity
  8
0
  6
Continuous
 62
     7
370
    15
100
AcDbCircle
 10
487.5315438127
 20
315.2550108888
 30
0.0
 40
1.034604166435562
100
AcDbArc
 50
175.6090375359
 51
180.0001804973
  0
LINE
  5
102
330
1F
100
AcDbEntity
  8
0
  6
Continuous
 62
     7
370
    15
100
AcDbLine
 10
486.4999763739
 20
315.3342220019
 30
0.0
 11
487.1496714189
 21
323.7946771444
 31
0.0
  0
LINE
  5
103
330
1F
100
AcDbEntity
  8
0
  6
Continuous
 62
     7
370
    15
100
AcDbLine
 10
487.1496714189
 20
323.7946771444
 30
0.0
 11
497.4353857046
 21
323.7946771444
 31
0.0
  0
LWPOLYLINE
  5
104
330
1F
100
AcDbEntity
  8
0
  6
Continuous
 62
     7
370
    15
100
AcDbPolyline
 90
       12
 70
   128
 43
0.0
 10
508.4347483051
 20
577.9813587343
 10
508.406597125
 20
577.9516232751
 10
507.5837510047
 20
576.8119811892
 10
507.0467989129
 20
575.4657782468
 10
506.8294795243
 20
573.9976013297
 10
506.9454478154
 20
572.4997013932
 10
507.3874170718
 20
571.0661969991
 10
508.1276167399
 20
569.7871605006
 10
509.1195373521
 20
568.7429584648
 10
510.3008528883
 20
567.9992019461
 10
511.597336949
 20
567.6026239017
 10
512.3251110417
 20
567.5424876512
  0
LWPOLYLINE
  5
105
330
1F
100
AcDbEntity
  8
0
  6
Continuous
 62
     7
370
    15
100
AcDbPolyline
 90
       12
 70
   128
 43
0.0
 10
975.9138620648
 20
577.9813587343
 10
975.9420132449
 20
577.9516232751
 10
976.7648593652
 20
576.8119811892
 10
977.301811457
 20
575.4657782468
 10
977.5191308456
 20
573.9976013297
 10
977.4031625545
 20
572.4997013932
 10
976.9611932981
 20
571.0661969991
 10
976.22099363
 20
569.7871605006
 10
975.2290730178
 20
568.7429584648
 10
974.0477574815
 20
567.9992019461
 10
972.7512734209
 20
567.6026239017
 10
972.0234993282
 20
567.5424876512
  0
LWPOLYLINE
  5
106
330
1F
100
AcDbEntity
  8
0
  6
Continuous
 62
     7
370
    15
100
AcDbPolyline
 90
        3
 70
   128
 43
0.0
 10
2307.6567273289
 20
1090.9683724328
 10
2307.9020997275
 20
1091.3378514171
 10
2307.9512835873
 20
1091.4111596008
  0
SPLINE
  5
107
330
1F
100
AcDbEntity
  8
0
  6
Continuous
 62
     7
370
    15
100
AcDbSpline
210
0.0
220
0.0
230
1.0
 70
     8
 71
     3
 72
    49
 73
    45
 74
     0
 42
0.000000001
 43
0.00000001
 40
0.0
 40
0.0
 40
0.0
 40
0.0
 40
0.0073311259508536
 40
0.0262994767906413
 40
0.046083684285866
 40
0.0664195831034681
 40
0.0846463643225731
 40
0.1000885974571589
 40
0.110850907935173
 40
0.1197285251285598
 40
0.1267745672760944
 40
0.1309214905265157
 40
0.1341918732043307
 40
0.1367773355207412
 40
0.1393155157740835
 40
0.1469461731723122
 40
0.158077752432849
 40
0.1706816479101559
 40
0.1858534992748919
 40
0.2034880395184677
 40
0.221631088950061
 40
0.239216523986731
 40
0.2722294363836015
 40
0.3033223578227715
 40
0.3380852765106802
 40
0.3705255346151128
 40
0.4026611474731955
 40
0.4513548192465682
 40
0.5025046646709236
 40
0.5564164277417885
 40
0.6117777343050548
 40
0.6644627137735081
 40
0.7141259674019779
 40
0.7349640204103285
 40
0.7551750489534137
 40
0.7747722435802807
 40
0.7953957464524731
 40
0.8190507346559561
 40
0.8457496547950206
 40
0.8737177234700084
 40
0.9044028845529312
 40
0.9377433800378923
 40
0.9737007967852831
 40
1.0
 40
1.0
 40
1.0
 40
1.0
 10
2308.440982577112
 20
1092.134825636971
 30
0.0
 10
2308.463205942449
 20
1092.167448915433
 30
0.0
 10
2308.54292942351
 20
1092.28448075481
 30
0.0
 10
2308.690920480701
 20
1092.499214948996
 30
0.0
 10
2308.890120964209
 20
1092.788391781705
 30
0.0
 10
2309.07811584578
 20
1093.061360869983
 30
0.0
 10
2309.358895860399
 20
1093.467225658035
 30
0.0
 10
2309.704909283554
 20
1093.970645349562
 30
0.0
 10
2310.090310351879
 20
1094.538994584117
 30
0.0
 10
2310.487380161452
 20
1095.133908437849
 30
0.0
 10
2310.89523691462
 20
1095.756186570997
 30
0.0
 10
2311.302819749801
 20
1096.390980808235
 30
0.0
 10
2311.67497968728
 20
1096.980720284268
 30
0.0
 10
2312.10785195403
 20
1097.680433141312
 30
0.0
 10
2312.884175074184
 20
1098.965641610645
 30
0.0
 10
2314.12146217889
 20
1101.117347485206
 30
0.0
 10
2315.849776813399
 20
1104.400007204939
 30
0.0
 10
2317.807414923699
 20
1108.557097641153
 30
0.0
 10
2319.865190384733
 20
1113.519700742805
 30
0.0
 10
2321.894392994887
 20
1119.196673773639
 30
0.0
 10
2323.742029237957
 20
1125.234947809902
 30
0.0
 10
2325.812464625756
 20
1133.100734211787
 30
0.0
 10
2327.81536675048
 20
1142.56106456531
 30
0.0
 10
2329.7491938416
 20
1154.100004454786
 30
0.0
 10
2331.322702529052
 20
1165.62562668571
 30
0.0
 10
2332.708224409079
 20
1177.299156021092
 30
0.0
 10
2334.185712958791
 20
1190.62124786872
 30
0.0
 10
2335.876721927425
 20
1206.147219539452
 30
0.0
 10
2338.02784031342
 20
1224.214731324687
 30
0.0
 10
2340.504346697267
 20
1243.036417687932
 30
0.0
 10
2343.093149263635
 20
1262.026026687631
 30
0.0
 10
2345.598935865862
 20
1280.519634859211
 30
0.0
 10
2347.482698901866
 20
1294.974718425138
 30
0.0
 10
2348.838752069497
 20
1305.62316097723
 30
0.0
 10
2349.745078442485
 20
1312.742277108187
 30
0.0
 10
2350.655552029589
 20
1319.835268582958
 30
0.0
 10
2351.625568583624
 20
1327.331496871079
 30
0.0
 10
2352.707639149476
 20
1335.660612592074
 30
0.0
 10
2353.900985960663
 20
1344.851694712891
 30
0.0
 10
2355.19285458287
 20
1354.868882044879
 30
0.0
 10
2356.563389977144
 20
1365.668351210296
 30
0.0
 10
2358.023541407792
 20
1377.409401117196
 30
0.0
 10
2359.417444101168
 20
1388.635688328508
 30
0.0
 10
2360.34799478618
 20
1395.943821769373
 30
0.0
 10
2360.741089393333
 20
1399.031012924283
 30
0.0
  0
LINE
  5
108
330
1F
100
AcDbEntity
  8
0
  6
Continuous
 62
     7
370
    15
100
AcDbLine
 10
1907.1673912435
 20
1020.9341296625
 30
0.0
 11
1908.7742988293
 21
1023.0914825645
 31
0.0
  0
SPLINE
  5
109
330
1F
100
AcDbEntity
  8
0
  6
Continuous
 62
     7
370
    15
100
AcDbSpline
210
0.0
220
0.0
230
1.0
 70
     8
 71
     3
 72
    18
 73
    14
 74
     0
 42
0.000000001
 43
0.00000001
 40
0.0
 40
0.0
 40
0.0
 40
0.0
 40
0.0776736626811456
 40
0.1719592566212837
 40
0.263047504803998
 40
0.3517933155258731
 40
0.4382241479075353
 40
0.5613076292551873
 40
0.6790078796899638
 40
0.7906485975315786
 40
0.8944087539959625
 40
0.9893635353913746
 40
1.0
 40
1.0
 40
1.0
 40
1.0
 10
1910.288352979428
 20
1024.817146189914
 30
0.0
 10
1911.462875781357
 20
1026.121949023059
 30
0.0
 10
1914.063114535818
 20
1029.01061060383
 30
0.0
 10
1918.742459306902
 20
1032.715666445884
 30
0.0
 10
1924.051579823963
 20
1035.921906392672
 30
0.0
 10
1929.553584356026
 20
1038.384303018379
 30
0.0
 10
1935.961765833704
 20
1040.49740283251
 30
0.0
 10
1943.208598025543
 20
1042.051235139491
 30
0.0
 10
1951.126944505606
 20
1042.993699890155
 30
0.0
 10
1958.650031460347
 20
1043.435018947785
 30
0.0
 10
1965.669917617366
 20
1043.589045376506
 30
0.0
 10
1970.407396376129
 20
1043.604131149985
 30
0.0
 10
1972.797052240336
 20
1043.563020137007
 30
0.0
 10
1973.037768123407
 20
1043.558878924064
 30
0.0
  0
SPLINE
  5
10A
330
1F
100
AcDbEntity
  8
0
  6
Continuous
 62
     7
370
    15
100
AcDbSpline
210
0.0
220
0.0
230
1.0
 70
     8
 71
     3
 72
    16
 73
    12
 74
     0
 42
0.000000001
 43
0.00000001
 40
0.0
 40
0.0
 40
0.0
 40
0.0
 40
0.0901795028289802
 40
0.1989850212675594
 40
0.3107781692206695
 40
0.4245136396759344
 40
0.5412131293458157
 40
0.6658674465020161
 40
0.7939174628139333
 40
0.9191345491420781
 40
1.0
 40
1.0
 40
1.0
 40
1.0
 10
2015.802637780474
 20
1042.341532592434
 30
0.0
 10
2020.806558729974
 20
1042.19140932269
 30
0.0
 10
2031.847929388733
 20
1041.860155755243
 30
0.0
 10
2049.100722705384
 20
1041.723144107016
 30
0.0
 10
2067.660018487976
 20
1041.804996377181
 30
0.0
 10
2086.657943952692
 20
1041.857821815566
 30
0.0
 10
2106.369419728209
 20
1041.749529777436
 30
0.0
 10
2126.875993072938
 20
1041.664130689898
 30
0.0
 10
2147.854402047647
 20
1041.813522732139
 30
0.0
 10
2166.40221132251
 20
1042.220425858588
 30
0.0
 10
2177.823112770236
 20
1042.885680567342
 30
0.0
 10
2182.304600417782
 20
1043.146722199949
 30
0.0
  0
SPLINE
  5
10B
330
1F
100
AcDbEntity
  8
0
  6
Continuous
 62
     7
370
    15
100
AcDbSpline
210
0.0
220
0.0
230
1.0
 70
     8
 71
     3
 72
    35
 73
    31
 74
     0
 42
0.000000001
 43
0.00000001
 40
0.0
 40
0.0
 40
0.0
 40
0.0
 40
0.0494735647539986
 40
0.0774826671345659
 40
0.1050214145697775
 40
0.1317650399244255
 40
0.1561854432063895
 40
0.1785816619629205
 40
0.1996890908988851
 40
0.2203918503462938
 40
0.241631294426236
 40
0.2642849816734508
 40
0.2891612806447396
 40
0.3172482733065151
 40
0.3487502536851718
 40
0.3837122039728588
 40
0.4221623989956357
 40
0.4636595005586293
 40
0.5034054221370278
 40
0.5571225708156212
 40
0.6040889450848097
 40
0.6443139456988609
 40
0.6778134307172057
 40
0.7088248607202076
 40
0.7418299462573071
 40
0.7976774332456442
 40
0.8582758376286184
 40
0.919198271864807
 40
0.9751759945314874
 40
1.0
 40
1.0
 40
1.0
 40
1.0
 10
2197.375801549448
 20
1044.294677144305
 30
0.0
 10
2200.711010281858
 20
1044.569952080469
 30
0.0
 10
2205.934423418198
 20
1045.001071939232
 30
0.0
 10
2212.979075852512
 20
1045.916362796294
 30
0.0
 10
2218.48553897793
 20
1046.71196759422
 30
0.0
 10
2223.740807388088
 20
1047.586468010833
 30
0.0
 10
2228.619604398326
 20
1048.501356561069
 30
0.0
 10
2232.960351193168
 20
1049.406240424284
 30
0.0
 10
2236.737431869302
 20
1050.267639143507
 30
0.0
 10
2239.930422107862
 20
1051.053022680948
 30
0.0
 10
2242.522660460954
 20
1051.730929718202
 30
0.0
 10
2244.53507315418
 20
1052.28317264349
 30
0.0
 10
2245.941627809745
 20
1052.68229031341
 30
0.0
 10
2247.251050456277
 20
1053.062223902482
 30
0.0
 10
2248.453059279943
 20
1053.418417879544
 30
0.0
 10
2249.56653320567
 20
1053.753012757776
 30
0.0
 10
2250.598576943964
 20
1054.065597402596
 30
0.0
 10
2251.490178344578
 20
1054.33554478875
 30
0.0
 10
2252.538820387685
 20
1054.65437482844
 30
0.0
 10
2253.680176633097
 20
1055.004920711888
 30
0.0
 10
2254.890228480161
 20
1055.382843564353
 30
0.0
 10
2255.978895489133
 20
1055.727857084229
 30
0.0
 10
2256.975130813239
 20
1056.048237242701
 30
0.0
 10
2257.933373138667
 20
1056.360896536741
 30
0.0
 10
2259.117186509019
 20
1056.752808110246
 30
0.0
 10
2260.646595142368
 20
1057.270567788262
 30
0.0
 10
2262.486788433814
 20
1057.894504209424
 30
0.0
 10
2264.700629762036
 20
1058.668134327495
 30
0.0
 10
2266.547969413248
 20
1059.326061086871
 30
0.0
 10
2268.072345692756
 20
1059.912080837874
 30
0.0
 10
2268.540666432571
 20
1060.092118540524
 30
0.0
  0
SPLINE
  5
10C
330
1F
100
AcDbEntity
  8
0
  6
Continuous
 62
     7
370
    15
100
AcDbSpline
210
0.0
220
0.0
230
1.0
 70
     8
 71
     3
 72
    30
 73
    26
 74
     0
 42
0.000000001
 43
0.00000001
 40
0.0
 40
0.0
 40
0.0
 40
0.0
 40
0.0216713810350097
 40
0.1732640929121897
 40
0.3168364351217271
 40
0.3685783245279364
 40
0.4191677879680458
 40
0.468601811293174
 40
0.5147179360517402
 40
0.5545705262074135
 40
0.5888796681465992
 40
0.6188422068529964
 40
0.6462433998342514
 40
0.6733811324846862
 40
0.7025124790798107
 40
0.7334801715448213
 40
0.7659317739560231
 40
0.7884064252158284
 40
0.8115532521569636
 40
0.8340506169020739
 40
0.8655932810731758
 40
0.8965138444211144
 40
0.9291286933768614
 40
0.9654276683106106
 40
1.0
 40
1.0
 40
1.0
 40
1.0
 10
2296.941007885029
 20
1093.390835821397
 30
0.0
 10
2296.928084781916
 20
1093.38038565116
 30
0.0
 10
2296.824763736763
 20
1093.296835864281
 30
0.0
 10
2296.550789987838
 20
1093.060752580138
 30
0.0
 10
2296.162519459428
 20
1092.689363974421
 30
0.0
 10
2295.810973674392
 20
1092.335494744302
 30
0.0
 10
2295.561136177362
 20
1092.078565674907
 30
0.0
 10
2295.315408439891
 20
1091.824748781858
 30
0.0
 10
2294.980920996614
 20
1091.469480312043
 30
0.0
 10
2294.255962424191
 20
1090.694535822405
 30
0.0
 10
2293.17878731364
 20
1089.574816616832
 30
0.0
 10
2291.689305563288
 20
1088.092987890504
 30
0.0
 10
2289.731572418464
 20
1086.257209752391
 30
0.0
 10
2287.285871547267
 20
1084.12636268914
 30
0.0
 10
2284.454390351309
 20
1081.861037184392
 30
0.0
 10
2281.370194859101
 20
1079.60347561878
 30
0.0
 10
2278.410822408
 20
1077.623391134393
 30
0.0
 10
2275.660980739699
 20
1075.91853156658
 30
0.0
 10
2273.222172664895
 20
1074.497705505821
 30
0.0
 10
2270.413481089189
 20
1072.95907138282
 30
0.0
 10
2267.356886414668
 20
1071.402779894244
 30
0.0
 10
2264.297435308007
 20
1069.960563129325
 30
0.0
 10
2261.743470344871
 20
1068.831110679733
 30
0.0
 10
2259.769466708403
 20
1068.000845491547
 30
0.0
 10
2258.944694706265
 20
1067.667028619172
 30
0.0
 10
2258.542355697932
 20
1067.504186586406
 30
0.0
  0
LINE
  5
10D
330
1F
100
AcDbEntity
  8
0
  6
Continuous
 62
     7
370
    15
100
AcDbLine
 10
2360.7374796852
 20
1399.0316118056
 30
0.0
 11
2350.8175671523
 21
1400.2946771443
 31
0.0
  0
LINE
  5
10E
330
1F
100
AcDbEntity
  8
0
  6
Continuous
 62
     7
370
    15
100
AcDbLine
 10
1899.037574547
 20
1026.9229866566
 30
0.0
 11
1907.0508222542
 21
1020.9406903975
 31
0.0
  0
LINE
  5
10F
330
1F
100
AcDbEntity
  8
0
  6
Continuous
 62
     7
370
    15
100
AcDbLine
 10
1965.1880171172
 20
319.2946771443
 30
0.0
 11
1970.0281359269
 21
319.2946771443
 31
0.0
  0
LINE
  5
110
330
1F
100
AcDbEntity
  8
0
  6
Continuous
 62
     7
370
    15
100
AcDbLine
 10
1970.0281359269
 20
331.2946771443
 30
0.0
 11
1965.1880171172
 21
331.2946771443
 31
0.0
  0
LINE
  5
111
330
1F
100
AcDbEntity
  8
0
  6
Continuous
 62
     7
370
    15
100
AcDbLine
 10
2371.4835410834
 20
331.2946771443
 30
0.0
 11
1970.0281359269
 21
331.2946771443
 31
0.0
  0
LINE
  5
112
330
1F
100
AcDbEntity
  8
0
  6
Continuous
 62
     7
370
    15
100
AcDbLine
 10
2366.5630084163
 20
319.2946771443
 30
0.0
 11
2371.4835410834
 21
319.2946771443
 31
0.0
  0
LINE
  5
113
330
1F
100
AcDbEntity
  8
0
  6
Continuous
 62
     7
370
    15
100
AcDbLine
 10
1970.0281359269
 20
319.2946771443
 30
0.0
 11
2326.5160305696
 21
319.2946771443
 31
0.0
  0
LINE
  5
114
330
1F
100
AcDbEntity
  8
0
  6
Continuous
 62
     7
370
    15
100
AcDbLine
 10
1965.1880171172
 20
331.2946771443
 30
0.0
 11
1919.0275904514
 21
331.2946771443
 31
0.0
  0
LINE
  5
115
330
1F
100
AcDbEntity
  8
0
  6
Continuous
 62
     7
370
    15
100
AcDbLine
 10
1962.8379097751
 20
319.2946771443
 30
0.0
 11
1965.1880171172
 21
319.2946771443
 31
0.0
  0
LINE
  5
116
330
1F
100
AcDbEntity
  8
0
  6
Continuous
 62
     7
370
    15
100
AcDbLine
 10
1919.0275904514
 20
319.2946771443
 30
0.0
 11
1923.1075653424
 21
319.2946771443
 31
0.0
  0
SPLINE
  5
117
330
1F
100
AcDbEntity
  8
0
  6
Continuous
 62
     7
370
    15
100
AcDbSpline
210
0.0
220
0.0
230
1.0
 70
     8
 71
     3
 72
    23
 73
    19
 74
     0
 42
0.000000001
 43
0.00000001
 40
0.0
 40
0.0
 40
0.0
 40
0.0
 40
0.0398106181661936
 40
0.1054960000109827
 40
0.171203498835661
 40
0.2369092705493397
 40
0.3026127658551802
 40
0.3683135796138173
 40
0.434011446573022
 40
0.499706255931483
 40
0.5653980578674703
 40
0.6310870615120343
 40
0.6967736243472638
 40
0.762458233508525
 40
0.8281414799587474
 40
0.8938239395502438
 40
0.959506180598449
 40
0.9999999999999999
 40
0.9999999999999999
 40
0.9999999999999999
 40
0.9999999999999999
 10
2371.48354108337
 20
319.2946771443052
 30
0.0
 10
2372.039716751718
 20
319.3062276518577
 30
0.0
 10
2373.513552402026
 20
319.3368358765227
 30
0.0
 10
2375.891297993511
 20
319.6518444444494
 30
0.0
 10
2378.570079483468
 20
320.3080147021965
 30
0.0
 10
2381.155872327105
 20
321.2712432921309
 30
0.0
 10
2383.614129679741
 20
322.5228621647811
 30
0.0
 10
2385.912525054248
 20
324.0479614506709
 30
0.0
 10
2388.020784121853
 20
325.8260227629967
 30
0.0
 10
2389.911155653969
 20
327.8337329127618
 30
0.0
 10
2391.558769772514
 20
330.0446148747484
 30
0.0
 10
2392.941921577266
 20
332.4295511357986
 30
0.0
 10
2394.042534610808
 20
334.9571577959568
 30
0.0
 10
2394.845722695004
 20
337.5940715859224
 30
0.0
 10
2395.342499825887
 20
340.3059096560194
 30
0.0
 10
2395.520504360646
 20
343.0557638511447
 30
0.0
 10
2395.414717580212
 20
345.4596616601161
 30
0.0
 10
2395.184278113137
 20
346.9244034436971
 30
0.0
 10
2395.096392255221
 20
347.483032093159
 30
0.0
  0
SPLINE
  5
118
330
1F
100
AcDbEntity
  8
0
  6
Continuous
 62
     7
370
    15
100
AcDbSpline
210
0.0
220
0.0
230
1.0
 70
     8
 71
     3
 72
    19
 73
    15
 74
     0
 42
0.000000001
 43
0.00000001
 40
0.0
 40
0.0
 40
0.0
 40
0.0
 40
0.0398384450888023
 40
0.1327428148582564
 40
0.2257392663755494
 40
0.3187465417422589
 40
0.4117559446880785
 40
0.5047584576975569
 40
0.5977472158890825
 40
0.6907168540511913
 40
0.7836640603510819
 40
0.8765878961891332
 40
0.9694898567747583
 40
1.0
 40
1.0
 40
1.0
 40
1.0
 10
2383.284260279159
 20
345.3679580566097
 30
0.0
 10
2383.327369344081
 20
345.0937300472925
 30
0.0
 10
2383.471009955828
 20
344.1799946394822
 30
0.0
 10
2383.503851194865
 20
342.5992661868527
 30
0.0
 10
2383.241579936117
 20
340.6674621091153
 30
0.0
 10
2382.665845098109
 20
338.8025281490778
 30
0.0
 10
2381.796400413019
 20
337.0553276245581
 30
0.0
 10
2380.654890769181
 20
335.471647732482
 30
0.0
 10
2379.271719555739
 20
334.0932572179437
 30
0.0
 10
2377.683298922107
 20
332.9567336277138
 30
0.0
 10
2375.931422505491
 20
332.0909431206675
 30
0.0
 10
2374.062692540078
 20
331.5225498686556
 30
0.0
 10
2372.558438242417
 20
331.3123941051891
 30
0.0
 10
2371.696604931556
 20
331.2981889629312
 30
0.0
 10
2371.48354108337
 20
331.2946771443052
 30
0.0
  0
LINE
  5
119
330
1F
100
AcDbEntity
  8
0
  6
Continuous
 62
     7
370
    15
100
AcDbLine
 10
2262.0902547386
 20
1022.2045904461
 30
0.0
 11
2341.4945740003
 21
578.7523602262
 31
0.0
  0
LINE
  5
11A
330
1F
100
AcDbEntity
  8
0
  6
Continuous
 62
     7
370
    15
100
AcDbLine
 10
2342.0941930351
 20
575.4036456884
 30
0.0
 11
2383.2842602792
 21
345.3679580566
 31
0.0
  0
LINE
  5
11B
330
1F
100
AcDbEntity
  8
0
  6
Continuous
 62
     7
370
    15
100
AcDbLine
 10
2395.0963922552
 20
347.4830320932
 30
0.0
 11
2273.9023867147
 21
1024.3196644827
 31
0.0
  0
SPLINE
  5
11C
330
1F
100
AcDbEntity
  8
0
  6
Continuous
 62
     7
370
    15
100
AcDbSpline
210
0.0
220
0.0
230
1.0
 70
     8
 71
     3
 72
    22
 73
    18
 74
     0
 42
0.000000001
 43
0.00000001
 40
0.0
 40
0.0
 40
0.0
 40
0.0
 40
0.0415322402836839
 40
0.1108443536589352
 40
0.1801776082153911
 40
0.2494842638433755
 40
0.318748180653831
 40
0.3879543989905954
 40
0.4570900402557621
 40
0.5261453507736191
 40
0.5951147128384958
 40
0.6639974640963123
 40
0.7327983678249054
 40
0.8015276132969509
 40
0.8702002912782724
 40
0.9388353708259336
 40
1.0
 40
1.0
 40
1.0
 40
1.0
 10
1896.045585133983
 20
345.5794264290628
 30
0.0
 10
1895.998253826077
 20
345.0299718670753
 30
0.0
 10
1895.871932486393
 20
343.5635463775648
 30
0.0
 10
1895.924996552946
 20
341.1674371847207
 30
0.0
 10
1896.279416201436
 20
338.4308022363651
 30
0.0
 10
1896.943942843551
 20
335.7567909385061
 30
0.0
 10
1897.904060014391
 20
333.1823917340293
 30
0.0
 10
1899.148448139552
 20
330.7418931604954
 30
0.0
 10
1900.65992464077
 20
328.4679994420824
 30
0.0
 10
1902.418154382808
 20
326.3909952648466
 30
0.0
 10
1904.399317808181
 20
324.5384449747631
 30
0.0
 10
1906.576675785578
 20
322.9345539611914
 30
0.0
 10
1908.920959816684
 20
321.600705509615
 30
0.0
 10
1911.400842370604
 20
320.5520734938968
 30
0.0
 10
1913.98342114364
 20
319.8092033740983
 30
0.0
 10
1916.538640254718
 20
319.370630646472
 30
0.0
 10
1918.230395972659
 20
319.3190045545732
 30
0.0
 10
1919.027590451445
 20
319.2946771443054
 30
0.0
  0
SPLINE
  5
11D
330
1F
100
AcDbEntity
  8
0
  6
Continuous
 62
     7
370
    15
100
AcDbSpline
210
0.0
220
0.0
230
1.0
 70
     8
 71
     3
 72
    18
 73
    14
 74
     0
 42
0.000000001
 43
0.00000001
 40
0.0
 40
0.0
 40
0.0
 40
0.0
 40
0.0416949687661554
 40
0.1404973667144048
 40
0.2395612102860389
 40
0.3386328017696866
 40
0.4373899512510154
 40
0.5356270335202905
 40
0.6332430979297459
 40
0.7302337013613417
 40
0.8266625018949906
 40
0.922631123720368
 40
1.0
 40
1.0
 40
1.0
 40
1.0
 10
1919.027590451445
 20
331.2946771443054
 30
0.0
 10
1918.768275905985
 20
331.3003763947727
 30
0.0
 10
1917.894477175201
 20
331.3195808625201
 30
0.0
 10
1916.421393723708
 20
331.5621075959098
 30
0.0
 10
1914.671195610033
 20
332.1558064502911
 30
0.0
 10
1913.03941594458
 20
333.0468275381039
 30
0.0
 10
1911.571562012994
 20
334.207135909791
 30
0.0
 10
1910.307962631562
 20
335.6060297542484
 30
0.0
 10
1909.282827686939
 20
337.2045239059208
 30
0.0
 10
1908.520723349014
 20
338.9593232225422
 30
0.0
 10
1908.046906119818
 20
340.8227217597263
 30
0.0
 10
1907.860662164732
 20
342.6261360202097
 30
0.0
 10
1907.941925759764
 20
343.7899953323322
 30
0.0
 10
1907.97819761726
 20
344.3094818145469
 30
0.0
  0
LINE
  5
11E
330
1F
100
AcDbEntity
  8
0
  6
Continuous
 62
     7
370
    15
100
AcDbLine
 10
1907.9781976173
 20
344.3094818145
 30
0.0
 11
1935.5287228054
 21
603.1788348735
 31
0.0
  0
LINE
  5
11F
330
1F
100
AcDbEntity
  8
0
  6
Continuous
 62
     7
370
    15
100
AcDbLine
 10
1936.7988909423
 20
615.1135476113
 30
0.0
 11
1979.9277519616
 21
1020.3595555911
 31
0.0
  0
LINE
  5
120
330
1F
100
AcDbEntity
  8
0
  6
Continuous
 62
     7
370
    15
100
AcDbLine
 10
1967.9951394783
 20
1021.6295002056
 30
0.0
 11
1924.8424504871
 21
616.1596006073
 31
0.0
  0
LINE
  5
121
330
1F
100
AcDbEntity
  8
0
  6
Continuous
 62
     7
370
    15
100
AcDbLine
 10
1923.5722823502
 20
604.2248878695
 30
0.0
 11
1896.045585134
 21
345.5794264291
 31
0.0
  0
SPLINE
  5
122
330
1F
100
AcDbEntity
  8
0
  6
Continuous
 62
     7
370
    15
100
AcDbSpline
210
0.0
220
0.0
230
1.0
 70
     8
 71
     3
 72
    20
 73
    16
 74
     0
 42
0.000000001
 43
0.00000001
 40
0.0
 40
0.0
 40
0.0
 40
0.0
 40
0.047482439503911
 40
0.1324241696014915
 40
0.2175996141524955
 40
0.302995092172355
 40
0.388593603691774
 40
0.4742562421060041
 40
0.5597529602052491
 40
0.6447541898486854
 40
0.7288793538482591
 40
0.8117938074194058
 40
0.8933128074136678
 40
0.9734602587518344
 40
1.0
 40
1.0
 40
1.0
 40
1.0
 10
2273.902386714694
 20
1024.319664482653
 30
0.0
 10
2273.803199282329
 20
1024.828604941889
 30
0.0
 10
2273.526574629024
 20
1026.247993212481
 30
0.0
 10
2272.876427101928
 20
1028.527198328794
 30
0.0
 10
2271.888591616962
 20
1031.098921100796
 30
0.0
 10
2270.666070995684
 20
1033.535843521837
 30
0.0
 10
2269.224461836265
 20
1035.804044371232
 30
0.0
 10
2267.577189389174
 20
1037.868624447946
 30
0.0
 10
2265.744302034157
 20
1039.69509361551
 30
0.0
 10
2263.751378789172
 20
1041.251107897331
 30
0.0
 10
2261.630399877743
 20
1042.50846147482
 30
0.0
 10
2259.418199021055
 20
1043.447738338448
 30
0.0
 10
2257.15445680781
 20
1044.053146642175
 30
0.0
 10
2255.372935684447
 20
1044.27584363128
 30
0.0
 10
2254.361476853087
 20
1044.29092537619
 30
0.0
 10
2254.109864124167
 20
1044.294677144306
 30
0.0
  0
SPLINE
  5
123
330
1F
100
AcDbEntity
  8
0
  6
Continuous
 62
     7
370
    15
100
AcDbSpline
210
0.0
220
0.0
230
1.0
 70
     8
 71
     3
 72
    18
 73
    14
 74
     0
 42
0.000000001
 43
0.00000001
 40
0.0
 40
0.0
 40
0.0
 40
0.0
 40
0.0490148773862774
 40
0.1638093289178177
 40
0.2680828120891743
 40
0.3672095468210577
 40
0.4724885007019861
 40
0.575223760692947
 40
0.6771111662215653
 40
0.778903219055171
 40
0.880876584174977
 40
0.9778008144438398
 40
1.0
 40
1.0
 40
1.0
 40
1.0
 10
2254.109864124167
 20
1032.294677144306
 30
0.0
 10
2254.227230116905
 20
1032.29132013071
 30
0.0
 10
2254.619471116644
 20
1032.280100881093
 30
0.0
 10
2255.320234349967
 20
1032.13738109639
 30
0.0
 10
2256.25863643012
 20
1031.750579862614
 30
0.0
 10
2257.246634628911
 20
1031.127492142988
 30
0.0
 10
2258.261698271189
 20
1030.241513449581
 30
0.0
 10
2259.260053624794
 20
1029.078818632272
 30
0.0
 10
2260.170179240588
 20
1027.692722487996
 30
0.0
 10
2260.959924694032
 20
1026.111783104468
 30
0.0
 10
2261.586907528977
 20
1024.403912163667
 30
0.0
 10
2261.928553040561
 20
1023.072276559361
 30
0.0
 10
2262.064854371209
 20
1022.340888001091
 30
0.0
 10
2262.090254738632
 20
1022.204590446104
 30
0.0
  0
LINE
  5
124
330
1F
100
AcDbEntity
  8
0
  6
Continuous
 62
     7
370
    15
100
AcDbLine
 10
1969.8363315388
 20
1038.9296494516
 30
0.0
 11
1967.9951394783
 21
1021.6295002056
 31
0.0
  0
LINE
  5
125
330
1F
100
AcDbEntity
  8
0
  6
Continuous
 62
     7
370
    15
100
AcDbLine
 10
1979.9277519616
 20
1020.3595555911
 30
0.0
 11
1981.7689440221
 21
1037.659704837
 31
0.0
  0
LINE
  5
126
330
1F
100
AcDbEntity
  8
0
  6
Continuous
 62
     7
370
    15
100
AcDbLine
 10
2228.0447294532
 20
1032.2946771443
 30
0.0
 11
2254.1098641242
 21
1032.2946771443
 31
0.0
  0
LINE
  5
127
330
1F
100
AcDbEntity
  8
0
  6
Continuous
 62
     7
370
    15
100
AcDbLine
 10
2254.1098641242
 20
1044.2946771443
 30
0.0
 11
2228.0447294532
 21
1044.2946771443
 31
0.0
  0
LINE
  5
128
330
1F
100
AcDbEntity
  8
0
  6
Continuous
 62
     7
370
    15
100
AcDbLine
 10
2228.0447294532
 20
1044.2946771443
 30
0.0
 11
2222.3046004178
 21
1044.2946771443
 31
0.0
  0
LINE
  5
129
330
1F
100
AcDbEntity
  8
0
  6
Continuous
 62
     7
370
    15
100
AcDbLine
 10
2222.3046004178
 20
1032.2946771443
 30
0.0
 11
2228.0447294532
 21
1032.2946771443
 31
0.0
  0
LINE
  5
12A
330
1F
100
AcDbEntity
  8
0
  6
Continuous
 62
     7
370
    15
100
AcDbLine
 10
1915.8832375379
 20
604.8975921239
 30
0.0
 11
1934.4405425881
 21
603.2740383064
 31
0.0
  0
LINE
  5
12B
330
1F
100
AcDbEntity
  8
0
  6
Continuous
 62
     7
370
    15
100
AcDbLine
 10
1935.486411501
 20
615.2283746835
 30
0.0
 11
1916.9291064509
 21
616.851928501
 31
0.0
  0
LINE
  5
12C
330
1F
100
AcDbEntity
  8
0
  6
Continuous
 62
     7
370
    15
100
AcDbLine
 10
2324.4421098054
 20
581.1991604681
 30
0.0
 11
1935.486411501
 21
615.2283746835
 31
0.0
  0
LINE
  5
12D
330
1F
100
AcDbEntity
  8
0
  6
Continuous
 62
     7
370
    15
100
AcDbLine
 10
1934.4405425881
 20
603.2740383064
 30
0.0
 11
2323.3962408925
 21
569.244824091
 31
0.0
  0
LINE
  5
12E
330
1F
100
AcDbEntity
  8
0
  6
Continuous
 62
     7
370
    15
100
AcDbLine
 10
2341.3208683748
 20
579.7224604389
 30
0.0
 11
2333.4268937977
 21
580.4130937245
 31
0.0
  0
LINE
  5
12F
330
1F
100
AcDbEntity
  8
0
  6
Continuous
 62
     7
370
    15
100
AcDbLine
 10
2332.3810248848
 20
568.4587573474
 30
0.0
 11
2342.7979975407
 21
567.5473903318
 31
0.0
  0
LINE
  5
130
330
1F
100
AcDbEntity
  8
0
  6
Continuous
 62
     7
370
    15
100
AcDbLine
 10
2333.4268937977
 20
580.4130937245
 30
0.0
 11
2324.4421098054
 21
581.1991604681
 31
0.0
  0
LINE
  5
131
330
1F
100
AcDbEntity
  8
0
  6
Continuous
 62
     7
370
    15
100
AcDbLine
 10
2323.3962408925
 20
569.244824091
 30
0.0
 11
2332.3810248848
 21
568.4587573474
 31
0.0
  0
SPLINE
  5
132
330
1F
100
AcDbEntity
  8
0
  6
Continuous
 62
     7
370
    15
100
AcDbSpline
210
0.0
220
0.0
230
1.0
 70
     8
 71
     3
 72
    15
 73
    11
 74
     0
 42
0.000000001
 43
0.00000001
 40
0.0
 40
0.0
 40
0.0
 40
0.0
 40
0.1253286913905742
 40
0.2497155426471104
 40
0.3739506633389578
 40
0.498798051735244
 40
0.6244876636984417
 40
0.7495670942348442
 40
0.8745111366372395
 40
1.0
 40
1.0
 40
1.0
 40
1.0
 10
2299.730639832096
 20
1293.730935693523
 30
0.0
 10
2299.784262493334
 20
1297.013192946735
 30
0.0
 10
2299.891104843642
 20
1303.55304142037
 30
0.0
 10
2300.451498904613
 20
1313.588657298496
 30
0.0
 10
2301.298358862333
 20
1323.706429899145
 30
0.0
 10
2302.446715079447
 20
1333.915268723646
 30
0.0
 10
2303.861987129109
 20
1344.138635294141
 30
0.0
 10
2305.520859188732
 20
1354.295007301305
 30
0.0
 10
2307.365381333599
 20
1364.345194066565
 30
0.0
 10
2308.758952920256
 20
1370.893458444158
 30
0.0
 10
2309.457254582691
 20
1374.174713562101
 30
0.0
  0
SPLINE
  5
133
330
1F
100
AcDbEntity
  8
0
  6
Continuous
 62
     7
370
    15
100
AcDbSpline
210
0.0
220
0.0
230
1.0
 70
     8
 71
     3
 72
    15
 73
    11
 74
     0
 42
0.000000001
 43
0.00000001
 40
0.0
 40
0.0
 40
0.0
 40
0.0
 40
0.1249037694717052
 40
0.2488877559298681
 40
0.3728280735369134
 40
0.4975607728503813
 40
0.6233623369656758
 40
0.7487506004082428
 40
0.8741787844425116
 40
1.0
 40
1.0
 40
1.0
 40
1.0
 10
2309.150354336058
 20
1292.593571707562
 30
0.0
 10
2309.196417846939
 20
1295.857008319164
 30
0.0
 10
2309.288205660086
 20
1302.359849813191
 30
0.0
 10
2309.830717561013
 20
1312.352442246692
 30
0.0
 10
2310.664523396345
 20
1322.440015213853
 30
0.0
 10
2311.806137416104
 20
1332.635638589404
 30
0.0
 10
2313.221375331545
 20
1342.862631842096
 30
0.0
 10
2314.885815212807
 20
1353.037564373283
 30
0.0
 10
2316.737501132612
 20
1363.111211485425
 30
0.0
 10
2318.136532815341
 20
1369.675959247548
 30
0.0
 10
2318.837142915147
 20
1372.963467773343
 30
0.0
  0
SPLINE
  5
134
330
1F
100
AcDbEntity
  8
0
  6
Continuous
 62
     7
370
    15
100
AcDbSpline
210
0.0
220
0.0
230
1.0
 70
    11
 71
     3
 72
    26
 73
    22
 74
     0
 42
0.000000001
 43
0.00000001
 40
0.0
 40
0.0
 40
0.0
 40
0.0
 40
0.0535242578592984
 40
0.1070517811586462
 40
0.1605121770046248
 40
0.2139751085841703
 40
0.2675259006105808
 40
0.3212118023323893
 40
0.3750328574070547
 40
0.4289417921320127
 40
0.4828544103348731
 40
0.5366755026006911
 40
0.5903382151378264
 40
0.6438411276071437
 40
0.6972597382783846
 40
0.7507184667483696
 40
0.8043315128469336
 40
0.8581408822876003
 40
0.9120883210302216
 40
0.9660442860006444
 40
0.9999999999999999
 40
0.9999999999999999
 40
0.9999999999999999
 40
0.9999999999999999
 10
2202.40013069989
 20
1046.942709468211
 30
0.0
 10
2202.356146529783
 20
1046.962859401151
 30
0.0
 10
2202.268175506157
 20
1047.003160496349
 30
0.0
 10
2201.58133215232
 20
1047.021140949125
 30
0.0
 10
2200.569710853936
 20
1047.006322301532
 30
0.0
 10
2199.306646091914
 20
1046.958851847619
 30
0.0
 10
2197.943551989262
 20
1046.884672526334
 30
0.0
 10
2196.629330189655
 20
1046.790698798585
 30
0.0
 10
2195.512820708771
 20
1046.685865607265
 30
0.0
 10
2194.721399373028
 20
1046.580610169574
 30
0.0
 10
2194.346552153017
 20
1046.486327664419
 30
0.0
 10
2194.431309155003
 20
1046.414155762356
 30
0.0
 10
2194.964538809194
 20
1046.373392466143
 30
0.0
 10
2195.883381163202
 20
1046.36992614227
 30
0.0
 10
2197.082853065508
 20
1046.40515576961
 30
0.0
 10
2198.429458988096
 20
1046.475582828374
 30
0.0
 10
2199.773917625223
 20
1046.572952037419
 30
0.0
 10
2200.968545421587
 20
1046.685360398412
 30
0.0
 10
2201.868475800827
 20
1046.797902761896
 30
0.0
 10
2202.335600561288
 20
1046.886265557995
 30
0.0
 10
2202.382150772058
 20
1046.926982593075
 30
0.0
 10
2202.40013069989
 20
1046.942709468211
 30
0.0
  0
SPLINE
  5
135
330
1F
100
AcDbEntity
  8
0
  6
Continuous
 62
     7
370
    15
100
AcDbSpline
210
0.0
220
0.0
230
1.0
 70
    11
 71
     3
 72
    26
 73
    22
 74
     0
 42
0.000000001
 43
0.00000001
 40
0.0
 40
0.0
 40
0.0
 40
0.0
 40
0.0539617204060824
 40
0.1079237839839501
 40
0.1618584540590716
 40
0.215639083259601
 40
0.2692185162928356
 40
0.322653447179105
 40
0.3760708451713032
 40
0.4295967054219492
 40
0.4832941018984964
 40
0.5371438535603221
 40
0.5910676201976625
 40
0.6449690450974237
 40
0.6987690443876173
 40
0.7524271405479063
 40
0.8059520002152629
 40
0.8594022210657746
 40
0.9128723337257969
 40
0.9664600945211708
 40
1.0
 40
1.0
 40
1.0
 40
1.0
 10
2003.802637780474
 20
1047.584033978557
 30
0.0
 10
2003.758115113693
 20
1047.62145063215
 30
0.0
 10
2003.669069496987
 20
1047.696284177289
 30
0.0
 10
2002.97527218705
 20
1047.807908819105
 30
0.0
 10
2001.954078145323
 20
1047.901204788531
 30
0.0
 10
2000.68150648778
 20
1047.965079263553
 30
0.0
 10
1999.314962966717
 20
1047.991511926177
 30
0.0
 10
1998.005637953751
 20
1047.978288895902
 30
0.0
 10
1996.899139674467
 20
1047.928416552231
 30
0.0
 10
1996.117281523776
 20
1047.849135303906
 30
0.0
 10
1995.748248530286
 20
1047.750408753472
 30
0.0
 10
1995.836057571231
 20
1047.643431179328
 30
0.0
 10
1996.373230924367
 20
1047.539355189389
 30
0.0
 10
1997.299583528265
 20
1047.44841695421
 30
0.0
 10
1998.508892291401
 20
1047.379445353177
 30
0.0
 10
1999.86270436886
 20
1047.339466708696
 30
0.0
 10
2001.206814039779
 20
1047.333205541826
 30
0.0
 10
2002.393080747611
 20
1047.362373982152
 30
0.0
 10
2003.281784900558
 20
1047.42528040675
 30
0.0
 10
2003.739766516614
 20
1047.504319449781
 30
0.0
 10
2003.785162528287
 20
1047.561877091486
 30
0.0
 10
2003.802637780474
 20
1047.584033978557
 30
0.0
  0
LINE
  5
136
330
1F
100
AcDbEntity
  8
0
  6
Continuous
 62
     7
370
    15
100
AcDbLine
 10
2268.4618664854
 20
1060.0527984245
 30
0.0
 11
2268.6533322374
 21
1060.148337265
 31
0.0
  0
LINE
  5
137
330
1F
100
AcDbEntity
  8
0
  6
Continuous
 62
     7
370
    15
100
AcDbLine
 10
2268.9665086032
 20
1060.3046080681
 30
0.0
 11
2272.9630391605
 21
1062.2988231756
 31
0.0
  0
SPLINE
  5
138
330
1F
100
AcDbEntity
  8
0
  6
Continuous
 62
     7
370
    15
100
AcDbSpline
210
0.0
220
0.0
230
1.0
 70
     8
 71
     3
 72
    15
 73
    11
 74
     0
 42
0.000000001
 43
0.00000001
 40
0.0
 40
0.0
 40
0.0
 40
0.0
 40
0.118148996805848
 40
0.2376963773691024
 40
0.3586775137614815
 40
0.4822853599163761
 40
0.6076344043819618
 40
0.7362375140624844
 40
0.8664212733743544
 40
1.0
 40
1.0
 40
1.0
 40
1.0
 10
2272.963039160532
 20
1062.298823175573
 30
0.0
 10
2273.203184178117
 20
1062.430315208595
 30
0.0
 10
2273.686316513271
 20
1062.694855583436
 30
0.0
 10
2275.581703580269
 20
1063.687835960801
 30
0.0
 10
2278.218651003634
 20
1065.13372869308
 30
0.0
 10
2281.553190544653
 20
1067.090609897848
 30
0.0
 10
2285.422602114732
 20
1069.567918976105
 30
0.0
 10
2289.648811321776
 20
1072.579480924642
 30
0.0
 10
2294.088866733513
 20
1076.09978080308
 30
0.0
 10
2296.970376594048
 20
1078.813181423687
 30
0.0
 10
2298.42967591996
 20
1080.187344237013
 30
0.0
  0
SPLINE
  5
139
330
1F
100
AcDbEntity
  8
0
  6
Continuous
 62
     7
370
    15
100
AcDbSpline
210
0.0
220
0.0
230
1.0
 70
     8
 71
     3
 72
    10
 73
     6
 74
     0
 42
0.000000001
 43
0.00000001
 40
0.0
 40
0.0
 40
0.0
 40
0.0
 40
0.3326757648338818
 40
0.6655400746263371
 40
1.0
 40
1.0
 40
1.0
 40
1.0
 10
2298.42967591996
 20
1080.187344237013
 30
0.0
 10
2300.168575103925
 20
1081.990556948606
 30
0.0
 10
2303.647358998034
 20
1085.598004347847
 30
0.0
 10
2308.255606648324
 20
1091.577795703041
 30
0.0
 10
2310.861189105057
 20
1095.876541456412
 30
0.0
 10
2312.167095391851
 20
1098.031053623223
 30
0.0
  0
SPLINE
  5
13A
330
1F
100
AcDbEntity
  8
0
  6
Continuous
 62
     7
370
    15
100
AcDbSpline
210
0.0
220
0.0
230
1.0
 70
     8
 71
     3
 72
    12
 73
     8
 74
     0
 42
0.000000001
 43
0.00000001
 40
0.0
 40
0.0
 40
0.0
 40
0.0
 40
0.2092194882706303
 40
0.4134277899921625
 40
0.6124851858282939
 40
0.8076435049411902
 40
1.0
 40
1.0
 40
1.0
 40
1.0
 10
2312.167095391851
 20
1098.031053623223
 30
0.0
 10
2313.744608108602
 20
1101.057711674048
 30
0.0
 10
2316.861849248813
 20
1107.038533820961
 30
0.0
 10
2320.226471097315
 20
1116.464604974776
 30
0.0
 10
2322.825937666934
 20
1125.869890050469
 30
0.0
 10
2324.782916460761
 20
1135.23822603749
 30
0.0
 10
2325.710236373081
 20
1141.488747176135
 30
0.0
 10
2326.170543957743
 20
1144.591411369995
 30
0.0
  0
SPLINE
  5
13B
330
1F
100
AcDbEntity
  8
0
  6
Continuous
 62
     7
370
    15
100
AcDbSpline
210
0.0
220
0.0
230
1.0
 70
     8
 71
     3
 72
    12
 73
     8
 74
     0
 42
0.000000001
 43
0.00000001
 40
0.0
 40
0.0
 40
0.0
 40
0.0
 40
0.2049283124859686
 40
0.4060936429683146
 40
0.60505038375449
 40
0.8028164325219233
 40
1.0
 40
1.0
 40
1.0
 40
1.0
 10
2326.170972675572
 20
1144.594518253377
 30
0.0
 10
2326.835942973586
 20
1150.114908530456
 30
0.0
 10
2328.153673098383
 20
1161.054321298906
 30
0.0
 10
2329.424515981882
 20
1177.420767523694
 30
0.0
 10
2330.749764389765
 20
1193.582281244721
 30
0.0
 10
2332.204995032258
 20
1209.624399152427
 30
0.0
 10
2333.436048767519
 20
1220.263086733632
 30
0.0
 10
2334.050667841171
 20
1225.574585426778
 30
0.0
  0
SPLINE
  5
13C
330
1F
100
AcDbEntity
  8
0
  6
Continuous
 62
     7
370
    15
100
AcDbSpline
210
0.0
220
0.0
230
1.0
 70
     8
 71
     3
 72
    15
 73
    11
 74
     0
 42
0.000000001
 43
0.00000001
 40
0.0
 40
0.0
 40
0.0
 40
0.0
 40
0.1230320301350527
 40
0.2468105540894964
 40
0.3706370061619403
 40
0.4957541896417053
 40
0.6206468036880207
 40
0.7468111306952236
 40
0.8726486391968161
 40
1.0
 40
1.0
 40
1.0
 40
1.0
 10
2334.050667841171
 20
1225.574585426778
 30
0.0
 10
2334.266084899374
 20
1227.404732172699
 30
0.0
 10
2334.698226053487
 20
1231.076130034946
 30
0.0
 10
2335.219488777746
 20
1236.481130644308
 30
0.0
 10
2335.603762039962
 20
1241.593836960276
 30
0.0
 10
2335.807381895333
 20
1246.223387221408
 30
0.0
 10
2335.80377749329
 20
1250.22020015463
 30
0.0
 10
2335.568554401957
 20
1253.398623748968
 30
0.0
 10
2335.111995426143
 20
1255.752796056216
 30
0.0
 10
2334.617852065785
 20
1256.484638347609
 30
0.0
 10
2334.36930310885
 20
1256.85274738794
 30
0.0
  0
SPLINE
  5
13D
330
1F
100
AcDbEntity
  8
0
  6
Continuous
 62
     7
370
    15
100
AcDbSpline
210
0.0
220
0.0
230
1.0
 70
     8
 71
     3
 72
    11
 73
     7
 74
     0
 42
0.000000001
 43
0.00000001
 40
0.0
 40
0.0
 40
0.0
 40
0.0
 40
0.2507196054121988
 40
0.5010685723801175
 40
0.75090789041506
 40
0.9999999999999999
 40
0.9999999999999999
 40
0.9999999999999999
 40
0.9999999999999999
 10
2334.36930310885
 20
1256.85274738794
 30
0.0
 10
2333.249391394158
 20
1257.893177279439
 30
0.0
 10
2331.011223528707
 20
1259.972498996374
 30
0.0
 10
2326.578933657198
 20
1263.070314486582
 30
0.0
 10
2321.422121721085
 20
1266.149282624772
 30
0.0
 10
2317.487153405772
 20
1268.21190085389
 30
0.0
 10
2315.522615786871
 20
1269.241665461845
 30
0.0
  0
SPLINE
  5
13E
330
1F
100
AcDbEntity
  8
0
  6
Continuous
 62
     7
370
    15
100
AcDbSpline
210
0.0
220
0.0
230
1.0
 70
     8
 71
     3
 72
    15
 73
    11
 74
     0
 42
0.000000001
 43
0.00000001
 40
0.0
 40
0.0
 40
0.0
 40
0.0
 40
0.1257415030306432
 40
0.2508215945005605
 40
0.3767228249192363
 40
0.5013396269494456
 40
0.6262584537873027
 40
0.7510292537878174
 40
0.8749910249224085
 40
0.9999999999999999
 40
0.9999999999999999
 40
0.9999999999999999
 40
0.9999999999999999
 10
2315.522615786871
 20
1269.241665461845
 30
0.0
 10
2315.077875607429
 20
1269.533509948589
 30
0.0
 10
2314.190734621696
 20
1270.115663793956
 30
0.0
 10
2312.971943393396
 20
1271.777228734758
 30
0.0
 10
2311.870275300912
 20
1273.983270304322
 30
0.0
 10
2310.917298064126
 20
1276.771483934001
 30
0.0
 10
2310.138653360495
 20
1280.075801828571
 30
0.0
 10
2309.567466117045
 20
1283.857249962613
 30
0.0
 10
2309.202193365239
 20
1288.030918387936
 30
0.0
 10
2309.167682398351
 20
1291.068428544308
 30
0.0
 10
2309.150354336058
 20
1292.593571707562
 30
0.0
  0
SPLINE
  5
13F
330
1F
100
AcDbEntity
  8
0
  6
Continuous
 62
     7
370
    15
100
AcDbSpline
210
0.0
220
0.0
230
1.0
 70
     8
 71
     3
 72
    15
 73
    11
 74
     0
 42
0.000000001
 43
0.00000001
 40
0.0
 40
0.0
 40
0.0
 40
0.0
 40
0.1243467712679925
 40
0.2485436876698303
 40
0.373082592925179
 40
0.4976496018787296
 40
0.6228026399349363
 40
0.7477918261391974
 40
0.8738744707275412
 40
1.0
 40
1.0
 40
1.0
 40
1.0
 10
2318.837142915147
 20
1372.963467773343
 30
0.0
 10
2319.283789810182
 20
1374.837292972735
 30
0.0
 10
2320.176545329656
 20
1378.582685155871
 30
0.0
 10
2321.837530143448
 20
1383.647168606521
 30
0.0
 10
2323.666448080176
 20
1388.152517437568
 30
0.0
 10
2325.634320264544
 20
1391.978304620838
 30
0.0
 10
2327.672281141831
 20
1395.056072229088
 30
0.0
 10
2329.724525299936
 20
1397.30537437392
 30
0.0
 10
2331.744131924405
 20
1398.752990006915
 30
0.0
 10
2332.994546989578
 20
1398.936068359619
 30
0.0
 10
2333.619860830486
 20
1399.027623101005
 30
0.0
  0
SPLINE
  5
140
330
1F
100
AcDbEntity
  8
0
  6
Continuous
 62
     7
370
    15
100
AcDbSpline
210
0.0
220
0.0
230
1.0
 70
     8
 71
     3
 72
    14
 73
    10
 74
     0
 42
0.000000001
 43
0.00000001
 40
0.0
 40
0.0
 40
0.0
 40
0.0
 40
0.1433526396318361
 40
0.2865549785960956
 40
0.4293375503331225
 40
0.5718368311090126
 40
0.714281876550398
 40
0.8570300378485599
 40
1.0
 40
1.0
 40
1.0
 40
1.0
 10
2333.619860830486
 20
1399.027623101005
 30
0.0
 10
2336.191842409307
 20
1399.029313519752
 30
0.0
 10
2341.333108926348
 20
1399.032692584896
 30
0.0
 10
2347.617615621451
 20
1399.043734870907
 30
0.0
 10
2352.611604327978
 20
1399.04808707562
 30
0.0
 10
2356.306329016481
 20
1399.04262920706
 30
0.0
 10
2358.854034652469
 20
1399.036941056789
 30
0.0
 10
2360.440814564647
 20
1399.032549830659
 30
0.0
 10
2360.637782937488
 20
1399.031926828731
 30
0.0
 10
2360.73634357645
 20
1399.031615085951
 30
0.0
  0
SPLINE
  5
141
330
1F
100
AcDbEntity
  8
0
  6
Continuous
 62
     7
370
    15
100
AcDbSpline
210
0.0
220
0.0
230
1.0
 70
     8
 71
     3
 72
    12
 73
     8
 74
     0
 42
0.000000001
 43
0.00000001
 40
0.0
 40
0.0
 40
0.0
 40
0.0
 40
0.000268507739378
 40
0.2505270612713996
 40
0.5004420582002264
 40
0.7502182016710444
 40
1.0
 40
1.0
 40
1.0
 40
1.0
 10
1907.051174249711
 20
1020.941155256109
 30
0.0
 10
1907.051056302457
 20
1020.941000779585
 30
0.0
 10
1906.94100741144
 20
1020.796868809421
 30
0.0
 10
1907.317042656121
 20
1021.302444645935
 30
0.0
 10
1908.247932632223
 20
1022.488635540427
 30
0.0
 10
1909.866387111625
 20
1024.423975191894
 30
0.0
 10
1911.522029620975
 20
1026.124145551899
 30
0.0
 10
1912.349860246357
 20
1026.97424035463
 30
0.0
  0
SPLINE
  5
142
330
1F
100
AcDbEntity
  8
0
  6
Continuous
 62
     7
370
    15
100
AcDbSpline
210
0.0
220
0.0
230
1.0
 70
     8
 71
     3
 72
    21
 73
    17
 74
     0
 42
0.000000001
 43
0.00000001
 40
0.0
 40
0.0
 40
0.0
 40
0.0
 40
0.0654416661861111
 40
0.1298641123915757
 40
0.1941048209408085
 40
0.2580853886433779
 40
0.3420481914052742
 40
0.4256162837794485
 40
0.5081686801710619
 40
0.5901129732712188
 40
0.6721710145541497
 40
0.7532535761449239
 40
0.8140924864900686
 40
0.8756122978180902
 40
0.937694980819938
 40
0.9999999999999999
 40
0.9999999999999999
 40
0.9999999999999999
 40
0.9999999999999999
 10
1912.349860246357
 20
1026.97424035463
 30
0.0
 10
1912.542543588803
 20
1027.166877194285
 30
0.0
 10
1912.924909330656
 20
1027.549150654813
 30
0.0
 10
1914.104282513468
 20
1028.689816724916
 30
0.0
 10
1915.679170507203
 20
1030.13714251062
 30
0.0
 10
1917.885639173092
 20
1032.037948922317
 30
0.0
 10
1920.842855815703
 20
1034.372620645808
 30
0.0
 10
1924.703168556094
 20
1037.080998466323
 30
0.0
 10
1929.170504704235
 20
1039.838912389402
 30
0.0
 10
1934.217011391358
 20
1042.554388782065
 30
0.0
 10
1939.804970658479
 20
1045.135283139773
 30
0.0
 10
1945.397885171011
 20
1047.305936496194
 30
0.0
 10
1950.808908618333
 20
1049.086374874774
 30
0.0
 10
1955.933426136354
 20
1050.527939463267
 30
0.0
 10
1961.263880715113
 20
1051.80733982674
 30
0.0
 10
1964.912619167128
 20
1052.490516342982
 30
0.0
 10
1966.740249352815
 20
1052.832715171332
 30
0.0
  0
SPLINE
  5
143
330
1F
100
AcDbEntity
  8
0
  6
Continuous
 62
     7
370
    15
100
AcDbSpline
210
0.0
220
0.0
230
1.0
 70
     8
 71
     3
 72
    20
 73
    16
 74
     0
 42
0.000000001
 43
0.00000001
 40
0.0
 40
0.0
 40
0.0
 40
0.0
 40
0.0539528390076867
 40
0.1084850807084101
 40
0.1636877918662224
 40
0.2193813558346967
 40
0.275298991631782
 40
0.3855508593105526
 40
0.4957833022560189
 40
0.5791780437002543
 40
0.6627588731060625
 40
0.7466272889816538
 40
0.8306886980584846
 40
0.9148720559089073
 40
1.0
 40
1.0
 40
1.0
 40
1.0
 10
1966.740249352814
 20
1052.832715171332
 30
0.0
 10
1971.341804111889
 20
1053.533068981351
 30
0.0
 10
1980.594329995676
 20
1054.941297741908
 30
0.0
 10
1994.68513871408
 20
1055.962981759898
 30
0.0
 10
2008.939658395326
 20
1056.552828395348
 30
0.0
 10
2023.324529294066
 20
1056.859160454293
 30
0.0
 10
2042.458694262132
 20
1057.049116297562
 30
0.0
 10
2066.29823742989
 20
1057.039725628271
 30
0.0
 10
2092.507353991816
 20
1056.905457415868
 30
0.0
 10
2116.412805321825
 20
1056.470805709819
 30
0.0
 10
2138.039209750872
 20
1055.861401054298
 30
0.0
 10
2159.721392054516
 20
1055.195029093596
 30
0.0
 10
2181.458610949691
 20
1054.65513639825
 30
0.0
 10
2203.307891878216
 20
1054.209493571865
 30
0.0
 10
2217.909743895257
 20
1054.275741479403
 30
0.0
 10
2225.251401704743
 20
1054.309050231414
 30
0.0
  0
SPLINE
  5
144
330
1F
100
AcDbEntity
  8
0
  6
Continuous
 62
     7
370
    15
100
AcDbSpline
210
0.0
220
0.0
230
1.0
 70
     8
 71
     3
 72
    15
 73
    11
 74
     0
 42
0.000000001
 43
0.00000001
 40
0.0
 40
0.0
 40
0.0
 40
0.0
 40
0.1232164449738705
 40
0.2483985385992837
 40
0.374876193089599
 40
0.5023543033739063
 40
0.6292432743077706
 40
0.7550718364329144
 40
0.8783195516706588
 40
0.9999999999999999
 40
0.9999999999999999
 40
0.9999999999999999
 40
0.9999999999999999
 10
2225.251401704743
 20
1054.309050231414
 30
0.0
 10
2227.631977843016
 20
1054.364788714216
 30
0.0
 10
2232.431107000628
 20
1054.477154865296
 30
0.0
 10
2239.446143602103
 20
1054.782161458144
 30
0.0
 10
2246.140400457603
 20
1055.294565329835
 30
0.0
 10
2252.296320691868
 20
1056.045042613516
 30
0.0
 10
2257.734877418754
 20
1057.010307073533
 30
0.0
 10
2262.217300533945
 20
1058.070863929937
 30
0.0
 10
2265.729401027933
 20
1059.097627963656
 30
0.0
 10
2267.031708265824
 20
1059.546761366268
 30
0.0
 10
2267.678695228292
 20
1059.7698910913
 30
0.0
  0
LINE
  5
145
330
1F
100
AcDbEntity
  8
0
  6
Continuous
 62
     7
370
    15
100
AcDbLine
 10
2267.6786952283
 20
1059.7698910913
 30
0.0
 11
2268.4618664854
 21
1060.0527984245
 31
0.0
  0
SPLINE
  5
146
330
1F
100
AcDbEntity
  8
0
  6
Continuous
 62
     7
370
    15
100
AcDbSpline
210
0.0
220
0.0
230
1.0
 70
     8
 71
     3
 72
    12
 73
     8
 74
     0
 42
0.000000001
 43
0.00000001
 40
0.0
 40
0.0
 40
0.0
 40
0.0
 40
0.2499714980307364
 40
0.4999482582008883
 40
0.6666092642532219
 40
0.8332776003114327
 40
1.0
 40
1.0
 40
1.0
 40
1.0
 10
2324.178166037375
 20
1226.716379948335
 30
0.0
 10
2323.409210170033
 20
1219.996634112396
 30
0.0
 10
2321.871282248091
 20
1206.557000983432
 30
0.0
 10
2320.346362776567
 20
1188.583809051279
 30
0.0
 10
2319.06095453517
 20
1172.855126141427
 30
0.0
 10
2317.939027871267
 20
1159.370053735935
 30
0.0
 10
2316.828766560687
 20
1150.417402503199
 30
0.0
 10
2316.273545883763
 20
1145.940350992594
 30
0.0
  0
SPLINE
  5
147
330
1F
100
AcDbEntity
  8
0
  6
Continuous
 62
     7
370
    15
100
AcDbSpline
210
0.0
220
0.0
230
1.0
 70
     8
 71
     3
 72
    15
 73
    11
 74
     0
 42
0.000000001
 43
0.00000001
 40
0.0
 40
0.0
 40
0.0
 40
0.0
 40
0.1253126906535317
 40
0.2498044998513742
 40
0.3741496877463588
 40
0.4990482899911519
 40
0.6247253390302275
 40
0.7497145168393012
 40
0.8745422653156568
 40
1.0
 40
1.0
 40
1.0
 40
1.0
 10
2309.455406943044
 20
1374.174713562101
 30
0.0
 10
2308.757683443685
 20
1370.898170513691
 30
0.0
 10
2307.36680699787
 20
1364.366547952713
 30
0.0
 10
2305.528247846412
 20
1354.353367235295
 30
0.0
 10
2303.875854717084
 20
1344.251421179882
 30
0.0
 10
2302.460338270958
 20
1334.0475140041
 30
0.0
 10
2301.305261932082
 20
1323.816756555893
 30
0.0
 10
2300.45203051319
 20
1313.643185936779
 30
0.0
 10
2299.889570308095
 20
1303.571497566665
 30
0.0
 10
2299.783663258079
 20
1297.016622678656
 30
0.0
 10
2299.730576445315
 20
1293.730935693523
 30
0.0
  0
SPLINE
  5
148
330
1F
100
AcDbEntity
  8
0
  6
Continuous
 62
     7
370
    15
100
AcDbSpline
210
0.0
220
0.0
230
1.0
 70
    24
 71
     3
 72
    14
 73
    10
 74
     0
 42
0.000000001
 43
0.00000001
 40
0.0
 40
0.0
 40
0.0
 40
0.0
 40
0.1435655126448383
 40
0.2864279414748752
 40
0.4288558345749359
 40
0.5712064479824359
 40
0.7137707454155799
 40
0.8567671481799901
 40
0.9999999999999999
 40
0.9999999999999999
 40
0.9999999999999999
 40
0.9999999999999999
 10
2324.153587212396
 20
1400.294677144306
 30
0.0
 10
2326.687738769139
 20
1400.294677144306
 30
0.0
 10
2331.743631374622
 20
1400.294677144306
 30
0.0
 10
2337.918851904909
 20
1400.294677144306
 30
0.0
 10
2342.821579436311
 20
1400.294677144306
 30
0.0
 10
2346.453021680642
 20
1400.294677144306
 30
0.0
 10
2348.96120745954
 20
1400.294677144306
 30
0.0
 10
2350.525053332517
 20
1400.294677144306
 30
0.0
 10
2350.719262268249
 20
1400.294677144306
 30
0.0
 10
2350.816446952442
 20
1400.294677144306
 30
0.0
  0
SPLINE
  5
149
330
1F
100
AcDbEntity
  8
0
  6
Continuous
 62
     7
370
    15
100
AcDbSpline
210
0.0
220
0.0
230
1.0
 70
     8
 71
     3
 72
    15
 73
    11
 74
     0
 42
0.000000001
 43
0.00000001
 40
0.0
 40
0.0
 40
0.0
 40
0.0
 40
0.1248989672041086
 40
0.2497209348632229
 40
0.3747959911725162
 40
0.4996340419898636
 40
0.6247435487825099
 40
0.7493677115542018
 40
0.8747833569161491
 40
1.0
 40
1.0
 40
1.0
 40
1.0
 10
2309.457254582691
 20
1374.174713562101
 30
0.0
 10
2309.903123470425
 20
1376.049013512411
 30
0.0
 10
2310.794586370109
 20
1379.796457917142
 30
0.0
 10
2312.45144656
 20
1384.869987891763
 30
0.0
 10
2314.274467548971
 20
1389.389077623065
 30
0.0
 10
2316.234112726884
 20
1393.226236435667
 30
0.0
 10
2318.260288517874
 20
1396.312817861899
 30
0.0
 10
2320.297167262401
 20
1398.567818601267
 30
0.0
 10
2322.298213683219
 20
1400.01910105717
 30
0.0
 10
2323.535456826752
 20
1400.202867085395
 30
0.0
 10
2324.153587212396
 20
1400.294677144306
 30
0.0
  0
SPLINE
  5
14A
330
1F
100
AcDbEntity
  8
0
  6
Continuous
 62
     7
370
    15
100
AcDbSpline
210
0.0
220
0.0
230
1.0
 70
     8
 71
     3
 72
    15
 73
    11
 74
     0
 42
0.000000001
 43
0.00000001
 40
0.0
 40
0.0
 40
0.0
 40
0.0
 40
0.1250954691891243
 40
0.2496344123619166
 40
0.3751411620401947
 40
0.4995703591419636
 40
0.6245499351979202
 40
0.749646950036774
 40
0.8741733403233933
 40
1.0
 40
1.0
 40
1.0
 40
1.0
 10
2306.014757944524
 20
1270.327715464109
 30
0.0
 10
2305.573436289741
 20
1270.61376686083
 30
0.0
 10
2304.692756336513
 20
1271.18459706586
 30
0.0
 10
2303.484154676452
 20
1272.836506929211
 30
0.0
 10
2302.392839976801
 20
1275.039771893844
 30
0.0
 10
2301.450791140987
 20
1277.833455680831
 30
0.0
 10
2300.683667688158
 20
1281.150689342192
 30
0.0
 10
2300.124403712302
 20
1284.950572061356
 30
0.0
 10
2299.771033987452
 20
1289.146852119211
 30
0.0
 10
2299.744151091498
 20
1292.197626189971
 30
0.0
 10
2299.730639832096
 20
1293.730935693523
 30
0.0
  0
SPLINE
  5
14B
330
1F
100
AcDbEntity
  8
0
  6
Continuous
 62
     7
370
    15
100
AcDbSpline
210
0.0
220
0.0
230
1.0
 70
     8
 71
     3
 72
    11
 73
     7
 74
     0
 42
0.000000001
 43
0.00000001
 40
0.0
 40
0.0
 40
0.0
 40
0.0
 40
0.2501844504654327
 40
0.5000199957653734
 40
0.7498787045002163
 40
1.0
 40
1.0
 40
1.0
 40
1.0
 10
2324.579479502075
 20
1258.125392677343
 30
0.0
 10
2323.480391165542
 20
1259.156048894076
 30
0.0
 10
2321.283747271981
 20
1261.215923982906
 30
0.0
 10
2316.927971145096
 20
1264.278411453465
 30
0.0
 10
2311.84629440682
 20
1267.316727408903
 30
0.0
 10
2307.959283910844
 20
1269.323701428446
 30
0.0
 10
2306.014757944524
 20
1270.327715464109
 30
0.0
  0
SPLINE
  5
14C
330
1F
100
AcDbEntity
  8
0
  6
Continuous
 62
     7
370
    15
100
AcDbSpline
210
0.0
220
0.0
230
1.0
 70
     8
 71
     3
 72
    15
 73
    11
 74
     0
 42
0.000000001
 43
0.00000001
 40
0.0
 40
0.0
 40
0.0
 40
0.0
 40
0.1248588076731485
 40
0.2499761431157676
 40
0.3745532304217309
 40
0.4998005208732759
 40
0.6242770335286003
 40
0.7495619611205688
 40
0.8741539404848943
 40
1.0
 40
1.0
 40
1.0
 40
1.0
 10
2324.178292756878
 20
1226.716379948335
 30
0.0
 10
2324.396404068379
 20
1228.564414471896
 30
0.0
 10
2324.833078304142
 20
1232.264309987108
 30
0.0
 10
2325.362907612342
 20
1237.707366079439
 30
0.0
 10
2325.755943736785
 20
1242.845709565182
 30
0.0
 10
2325.968809117996
 20
1247.490032262194
 30
0.0
 10
2325.975423200197
 20
1251.494062123575
 30
0.0
 10
2325.751865137384
 20
1254.675658350065
 30
0.0
 10
2325.308326470523
 20
1257.030035299822
 30
0.0
 10
2324.823238192278
 20
1257.759056681988
 30
0.0
 10
2324.579479502075
 20
1258.125392677343
 30
0.0
  0
SPLINE
  5
14D
330
1F
100
AcDbEntity
  8
0
  6
Continuous
 62
     7
370
    15
100
AcDbSpline
210
0.0
220
0.0
230
1.0
 70
     8
 71
     3
 72
    12
 73
     8
 74
     0
 42
0.000000001
 43
0.00000001
 40
0.0
 40
0.0
 40
0.0
 40
0.0
 40
0.1667223754313849
 40
0.3333906914289282
 40
0.5000516854694865
 40
0.7500284522049658
 40
0.9999999999999999
 40
0.9999999999999999
 40
0.9999999999999999
 40
0.9999999999999999
 10
2316.273790490325
 20
1145.940072929997
 30
0.0
 10
2316.829002057756
 20
1150.417139602846
 30
0.0
 10
2317.939245166254
 20
1159.369821267636
 30
0.0
 10
2319.061145497345
 20
1172.854938466274
 30
0.0
 10
2320.34652837927
 20
1188.583674449493
 30
0.0
 10
2321.871426080184
 20
1206.556928824527
 30
0.0
 10
2323.409342549396
 20
1219.996609672496
 30
0.0
 10
2324.178292756878
 20
1226.716379948335
 30
0.0
  0
SPLINE
  5
14E
330
1F
100
AcDbEntity
  8
0
  6
Continuous
 62
     7
370
    15
100
AcDbSpline
210
0.0
220
0.0
230
1.0
 70
     8
 71
     3
 72
    12
 73
     8
 74
     0
 42
0.000000001
 43
0.00000001
 40
0.0
 40
0.0
 40
0.0
 40
0.0
 40
0.2010946504065013
 40
0.4020259239636514
 40
0.6017330856143639
 40
0.8008024099074527
 40
1.0
 40
1.0
 40
1.0
 40
1.0
 10
2303.473647295455
 20
1102.972946182733
 30
0.0
 10
2304.870369897806
 20
1105.655094592409
 30
0.0
 10
2307.662680352589
 20
1111.017212333621
 30
0.0
 10
2310.706522045306
 20
1119.556248533794
 30
0.0
 10
2313.109164722572
 20
1128.246124707042
 30
0.0
 10
2314.949392535888
 20
1137.051803039352
 30
0.0
 10
2315.831953499238
 20
1142.974687667466
 30
0.0
 10
2316.273376099658
 20
1145.937083743315
 30
0.0
  0
SPLINE
  5
14F
330
1F
100
AcDbEntity
  8
0
  6
Continuous
 62
     7
370
    15
100
AcDbSpline
210
0.0
220
0.0
230
1.0
 70
     8
 71
     3
 72
    10
 73
     6
 74
     0
 42
0.000000001
 43
0.00000001
 40
0.0
 40
0.0
 40
0.0
 40
0.0
 40
0.3330768012687974
 40
0.6654158796728645
 40
1.0
 40
1.0
 40
1.0
 40
1.0
 10
2291.428396072838
 20
1087.327012616226
 30
0.0
 10
2292.955456345805
 20
1088.909795757325
 30
0.0
 10
2296.006194646937
 20
1092.071856375638
 30
0.0
 10
2300.046568519956
 20
1097.31520205145
 30
0.0
 10
2302.328726918367
 20
1101.082803887037
 30
0.0
 10
2303.473647295455
 20
1102.972946182733
 30
0.0
  0
SPLINE
  5
150
330
1F
100
AcDbEntity
  8
0
  6
Continuous
 62
     7
370
    15
100
AcDbSpline
210
0.0
220
0.0
230
1.0
 70
     8
 71
     3
 72
    15
 73
    11
 74
     0
 42
0.000000001
 43
0.00000001
 40
0.0
 40
0.0
 40
0.0
 40
0.0
 40
0.1249075696527679
 40
0.2500099103251108
 40
0.3747959867367061
 40
0.5000718115166186
 40
0.6246669043886223
 40
0.7499715715637858
 40
0.8743952744043055
 40
1.0
 40
1.0
 40
1.0
 40
1.0
 10
2268.67693400783
 20
1071.333288276023
 30
0.0
 10
2268.887561275547
 20
1071.450683693051
 30
0.0
 10
2269.30914424654
 20
1071.685657584267
 30
0.0
 10
2271.007939452817
 20
1072.580846286486
 30
0.0
 10
2273.380068143983
 20
1073.886222810815
 30
0.0
 10
2276.378104074948
 20
1075.64972997695
 30
0.0
 10
2279.848699079526
 20
1077.874533563445
 30
0.0
 10
2283.62487816919
 20
1080.567379356287
 30
0.0
 10
2287.572817378885
 20
1083.696653832334
 30
0.0
 10
2290.139162418491
 20
1086.113088302117
 30
0.0
 10
2291.428396072838
 20
1087.327012616226
 30
0.0
  0
LINE
  5
151
330
1F
100
AcDbEntity
  8
0
  6
Continuous
 62
     7
370
    15
100
AcDbLine
 10
2264.9235726121
 20
1069.4058976032
 30
0.0
 11
2265.0810654246
 21
1069.4867718239
 31
0.0
  0
LINE
  5
152
330
1F
100
AcDbEntity
  8
0
  6
Continuous
 62
     7
370
    15
100
AcDbLine
 10
2265.3924142559
 20
1069.6466527334
 30
0.0
 11
2268.6769340078
 21
1071.333288276
 31
0.0
  0
LINE
  5
153
330
1F
100
AcDbEntity
  8
0
  6
Continuous
 62
     7
370
    15
100
AcDbLine
 10
2264.2614654056
 20
1069.1678621307
 30
0.0
 11
2264.9235726121
 21
1069.4058976032
 31
0.0
  0
SPLINE
  5
154
330
1F
100
AcDbEntity
  8
0
  6
Continuous
 62
     7
370
    15
100
AcDbSpline
210
0.0
220
0.0
230
1.0
 70
     8
 71
     3
 72
    15
 73
    11
 74
     0
 42
0.000000001
 43
0.00000001
 40
0.0
 40
0.0
 40
0.0
 40
0.0
 40
0.1249601196645072
 40
0.2500127170096473
 40
0.3748707461875823
 40
0.4999965733265132
 40
0.6248208008781897
 40
0.7500496380514812
 40
0.8747641347936631
 40
1.0
 40
1.0
 40
1.0
 40
1.0
 10
2225.024108730098
 20
1064.273795549401
 30
0.0
 10
2227.325368362058
 20
1064.330118195886
 30
0.0
 10
2231.929590690555
 20
1064.442805170856
 30
0.0
 10
2238.624388153403
 20
1064.734957042327
 30
0.0
 10
2244.909542543
 20
1065.212150147136
 30
0.0
 10
2250.586502980775
 20
1065.896390879229
 30
0.0
 10
2255.508348054763
 20
1066.760612198423
 30
0.0
 10
2259.502299837192
 20
1067.697532960884
 30
0.0
 10
2262.591351086958
 20
1068.594595389639
 30
0.0
 10
2263.703987021394
 20
1068.976507674949
 30
0.0
 10
2264.261465405592
 20
1069.167862130733
 30
0.0
  0
SPLINE
  5
155
330
1F
100
AcDbEntity
  8
0
  6
Continuous
 62
     7
370
    15
100
AcDbSpline
210
0.0
220
0.0
230
1.0
 70
     8
 71
     3
 72
    19
 73
    15
 74
     0
 42
0.000000001
 43
0.00000001
 40
0.0
 40
0.0
 40
0.0
 40
0.0
 40
0.055987938960383
 40
0.1119820318938523
 40
0.1679810327693693
 40
0.223983119359693
 40
0.2799840019010026
 40
0.3899869204237754
 40
0.4999906131888792
 40
0.5999905907325127
 40
0.6999938318798089
 40
0.7999941371733759
 40
0.899995500008683
 40
1.0
 40
1.0
 40
1.0
 40
1.0
 10
1965.024109007772
 20
1062.660977938667
 30
0.0
 10
1969.827853378243
 20
1063.387022506007
 30
0.0
 10
1979.43587012779
 20
1064.839191444638
 30
0.0
 10
1993.980403117115
 20
1065.888304956867
 30
0.0
 10
2008.540445582777
 20
1066.476500345402
 30
0.0
 10
2023.111479923421
 20
1066.775484390127
 30
0.0
 10
2042.368268554681
 20
1066.950767762458
 30
0.0
 10
2066.310393443211
 20
1066.932474949363
 30
0.0
 10
2094.068805515489
 20
1066.783084905531
 30
0.0
 10
2120.95572783373
 20
1066.265958659354
 30
0.0
 10
2146.967246138402
 20
1065.47609025708
 30
0.0
 10
2172.98034160429
 20
1064.757823832794
 30
0.0
 10
2198.999317638675
 20
1064.17982923186
 30
0.0
 10
2216.349087298481
 20
1064.242472746727
 30
0.0
 10
2225.024108196731
 20
1064.273794995452
 30
0.0
  0
SPLINE
  5
156
330
1F
100
AcDbEntity
  8
0
  6
Continuous
 62
     7
370
    15
100
AcDbSpline
210
0.0
220
0.0
230
1.0
 70
     8
 71
     3
 72
    20
 73
    16
 74
     0
 42
0.000000001
 43
0.00000001
 40
0.0
 40
0.0
 40
0.0
 40
0.0
 40
0.0626364884971816
 40
0.1247397382324264
 40
0.1872131023981178
 40
0.2500143218218205
 40
0.333279945711147
 40
0.4169341654700874
 40
0.5001350814568848
 40
0.5832027959985108
 40
0.6668265766459367
 40
0.7496640754664592
 40
0.8324243388566409
 40
0.916153135446807
 40
1.0
 40
1.0
 40
1.0
 40
1.0
 10
1905.243128345824
 20
1034.009459300553
 30
0.0
 10
1905.464110794467
 20
1034.230620714689
 30
0.0
 10
1905.904194417593
 20
1034.671060745225
 30
0.0
 10
1907.250439729269
 20
1035.973218389178
 30
0.0
 10
1909.043157097711
 20
1037.620369120458
 30
0.0
 10
1911.553439407066
 20
1039.782188230325
 30
0.0
 10
1914.914364149504
 20
1042.432752842084
 30
0.0
 10
1919.268005192313
 20
1045.482562151388
 30
0.0
 10
1924.26527298102
 20
1048.560340353732
 30
0.0
 10
1929.869498348376
 20
1051.566641789575
 30
0.0
 10
1936.034685084563
 20
1054.401262017953
 30
0.0
 10
1942.706709974164
 20
1056.979959667018
 30
0.0
 10
1949.817195099747
 20
1059.242136963401
 30
0.0
 10
1957.288293406779
 20
1061.191776812471
 30
0.0
 10
1962.444292709931
 20
1062.171013911256
 30
0.0
 10
1965.024108730097
 20
1062.660977428792
 30
0.0
  0
LINE
  5
157
330
1F
100
AcDbEntity
  8
0
  6
Continuous
 62
     7
370
    15
100
AcDbLine
 10
1905.2431283458
 20
1034.0103347892
 30
0.0
 11
1904.5171873392
 21
1033.2528211126
 31
0.0
  0
SPLINE
  5
158
330
1F
100
AcDbEntity
  8
0
  6
Continuous
 62
     7
370
    15
100
AcDbSpline
210
0.0
220
0.0
230
1.0
 70
     8
 71
     3
 72
    12
 73
     8
 74
     0
 42
0.000000001
 43
0.00000001
 40
0.0
 40
0.0
 40
0.0
 40
0.0
 40
0.1202848755556341
 40
0.340285998240593
 40
0.5601250984731092
 40
0.7799897863813722
 40
1.0
 40
1.0
 40
1.0
 40
1.0
 10
1899.115408004736
 20
1027.026506193363
 30
0.0
 10
1899.102350889891
 20
1027.00971281946
 30
0.0
 10
1899.065412302734
 20
1026.962204352781
 30
0.0
 10
1899.673051285251
 20
1027.770675621408
 30
0.0
 10
1900.889582900547
 20
1029.284861866045
 30
0.0
 10
1902.691887362602
 20
1031.397114194543
 30
0.0
 10
1904.39252714142
 20
1033.138485563417
 30
0.0
 10
1905.243128345824
 20
1034.009459300553
 30
0.0
  0
LINE
  5
159
330
1F
100
AcDbEntity
  8
0
  6
Continuous
 62
     7
370
    15
100
AcDbLine
 10
2264.9235726121
 20
1069.4092038815
 30
0.0
 11
2264.5915529357
 21
1069.2895639561
 31
0.0
  0
SPLINE
  5
15A
330
1F
100
AcDbEntity
  8
0
  6
Continuous
 62
     7
370
    15
100
AcDbSpline
210
0.0
220
0.0
230
1.0
 70
     8
 71
     3
 72
     9
 73
     5
 74
     0
 42
0.000000001
 43
0.00000001
 40
0.0
 40
0.0
 40
0.0
 40
0.0
 40
0.0985284217360866
 40
1.0
 40
1.0
 40
1.0
 40
1.0
 10
2299.492557295368
 20
1096.797034895958
 30
0.0
 10
2299.640769622999
 20
1096.987610954686
 30
0.0
 10
2301.145029257116
 20
1098.921835165018
 30
0.0
 10
2302.369317318593
 20
1101.052233007424
 30
0.0
 10
2303.472978209622
 20
1102.972726112748
 30
0.0
  0
SPLINE
  5
15B
330
1F
100
AcDbEntity
  8
0
  6
Continuous
 62
     7
370
    15
100
AcDbSpline
210
0.0
220
0.0
230
1.0
 70
     8
 71
     3
 72
    12
 73
     8
 74
     0
 42
0.000000001
 43
0.00000001
 40
0.0
 40
0.0
 40
0.0
 40
0.0
 40
0.2010946341189831
 40
0.4020258790357041
 40
0.601732955057195
 40
0.8008022906970038
 40
0.9999999999999999
 40
0.9999999999999999
 40
0.9999999999999999
 40
0.9999999999999999
 10
2303.472978209622
 20
1102.972726112748
 30
0.0
 10
2304.869836022596
 20
1105.655078959443
 30
0.0
 10
2307.662416702876
 20
1111.01760524365
 30
0.0
 10
2310.706478540106
 20
1119.557339778289
 30
0.0
 10
2313.109252873528
 20
1128.247931470792
 30
0.0
 10
2314.949541684483
 20
1137.054338452898
 30
0.0
 10
2315.832116138774
 20
1142.977710704963
 30
0.0
 10
2316.273545606305
 20
1145.940351473118
 30
0.0
  0
LINE
  5
15C
330
1F
100
AcDbEntity
  8
0
  6
Continuous
 62
     7
370
    15
100
AcDbLine
 10
1961.6807669179
 20
313.7946771444
 30
0.0
 11
1961.6807669179
 21
315.2550076295
 31
0.0
  0
LINE
  5
15D
330
1F
100
AcDbEntity
  8
0
  6
Continuous
 62
     7
370
    15
100
AcDbLine
 10
1923.0258308601
 20
313.7946771444
 30
0.0
 11
1923.0258308601
 21
315.2550076295
 31
0.0
  0
ARC
  5
15E
330
1F
100
AcDbEntity
  8
0
  6
Continuous
 62
     7
370
    15
100
AcDbCircle
 10
1962.845846283
 20
313.5612077566
 30
0.0
 40
1.18824150828282
100
AcDbArc
 50
168.6686241749
 51
220.1729220797
  0
LINE
  5
15F
330
1F
100
AcDbEntity
  8
0
  6
Continuous
 62
     7
370
    15
100
AcDbLine
 10
1961.937909775
 20
312.7946771444
 30
0.0
 11
1923.2829737172
 21
312.7946771444
 31
0.0
  0
ARC
  5
160
330
1F
100
AcDbEntity
  8
0
  6
Continuous
 62
     7
370
    15
100
AcDbCircle
 10
1924.1909102252
 20
313.5612077566
 30
0.0
 40
1.188241508282597
100
AcDbArc
 50
168.6686241749
 51
220.1729220797
  0
LINE
  5
161
330
1F
100
AcDbEntity
  8
0
  6
Continuous
 62
     7
370
    15
100
AcDbLine
 10
1965.1990324357
 20
319.2946771443
 30
0.0
 11
1965.2799588733
 21
315.3342220018
 31
0.0
  0
ARC
  5
162
330
1F
100
AcDbEntity
  8
0
  6
Continuous
 62
     7
370
    15
100
AcDbCircle
 10
1961.4020968838
 20
315.2550536619
 30
0.0
 40
3.878670034388818
100
AcDbArc
 50
359.9993200076
 51
1.1695572787
  0
LINE
  5
163
330
1F
100
AcDbEntity
  8
0
  6
Continuous
 62
     7
370
    15
100
AcDbLine
 10
1965.2807669179
 20
315.2550076294
 30
0.0
 11
1965.2807669179
 21
313.7946771443
 31
0.0
  0
ARC
  5
164
330
1F
100
AcDbEntity
  8
0
  6
Continuous
 62
     7
370
    15
100
AcDbCircle
 10
1964.1156875528
 20
313.5612077565
 30
0.0
 40
1.188241508236581
100
AcDbArc
 50
319.8270779191
 51
11.3313758255
  0
LINE
  5
165
330
1F
100
AcDbEntity
  8
0
  6
Continuous
 62
     7
370
    15
100
AcDbLine
 10
1965.0236240608
 20
312.7946771443
 30
0.0
 11
1961.937909775
 21
312.7946771444
 31
0.0
  0
ARC
  5
166
330
1F
100
AcDbEntity
  8
0
  6
Continuous
 62
     7
370
    15
100
AcDbCircle
 10
1965.5594369508
 20
315.255053662
 30
0.0
 40
3.878670033161681
100
AcDbArc
 50
178.830442721
 51
180.0006799925
  0
LINE
  5
167
330
1F
100
AcDbEntity
  8
0
  6
Continuous
 62
     7
370
    15
100
AcDbLine
 10
1961.6815749625
 20
315.3342220019
 30
0.0
 11
1961.8544526927
 21
323.7946771444
 31
0.0
  0
LWPOLYLINE
  5
168
330
1F
100
AcDbEntity
  8
0
  6
Continuous
 62
     7
370
    15
100
AcDbPolyline
 90
        9
 70
   128
 43
0.0
 10
1961.8544526927
 20
323.7946771444
 10
1961.9952407316
 20
322.315459751
 10
1962.2235025383
 20
321.0116706824
 10
1962.5257971377
 20
319.9600822927
 10
1962.8843242059
 20
319.2226163435
 10
1963.2779722243
 20
318.8426978016
 10
1963.6835616115
 20
318.8426978016
 10
1964.0772096299
 20
319.2226163435
 10
1964.1236240608
 20
319.2946771443
  0
ARC
  5
169
330
1F
100
AcDbEntity
  8
0
  6
Continuous
 62
     7
370
    15
100
AcDbCircle
 10
1926.904500893
 20
315.255053662
 30
0.0
 40
3.878670033174415
100
AcDbArc
 50
178.830442721
 51
180.0006799925
  0
LINE
  5
16A
330
1F
100
AcDbEntity
  8
0
  6
Continuous
 62
     7
370
    15
100
AcDbLine
 10
1961.8544526927
 20
323.7946771444
 30
0.0
 11
1923.1995166349
 21
323.7946771444
 31
0.0
  0
LINE
  5
16B
330
1F
100
AcDbEntity
  8
0
  6
Continuous
 62
     7
370
    15
100
AcDbLine
 10
1923.0266389047
 20
315.3342220019
 30
0.0
 11
1923.1995166349
 21
323.7946771444
 31
0.0
  0
LINE
  5
16C
330
1F
100
AcDbEntity
  8
0
  6
Continuous
 62
     7
370
    15
100
AcDbLine
 10
2326.5571647826
 20
312.7946771443
 30
0.0
 11
2366.5544021999
 21
312.7946771443
 31
0.0
  0
ARC
  5
16D
330
1F
100
AcDbEntity
  8
0
  6
Continuous
 62
     7
370
    15
100
AcDbCircle
 10
2305.2882726011
 20
313.5447116754
 30
0.0
 40
21.28211282804824
100
AcDbArc
 50
357.9803361509
 51
0.6729733941
  0
ARC
  5
16E
330
1F
100
AcDbEntity
  8
0
  6
Continuous
 62
     7
370
    15
100
AcDbCircle
 10
2345.2855100195
 20
313.5447116754
 30
0.0
 40
21.28211282697082
100
AcDbArc
 50
357.9803361509
 51
0.6729733942
  0
LINE
  5
16F
330
1F
100
AcDbEntity
  8
0
  6
Continuous
 62
     7
370
    15
100
AcDbLine
 10
2326.5689174149
 20
316.2946771443
 30
0.0
 11
2326.5689174149
 21
313.7946771443
 31
0.0
  0
LINE
  5
170
330
1F
100
AcDbEntity
  8
0
  6
Continuous
 62
     7
370
    15
100
AcDbLine
 10
2366.5661548322
 20
316.2946771443
 30
0.0
 11
2366.5661548322
 21
313.7946771443
 31
0.0
  0
ARC
  5
171
330
1F
100
AcDbEntity
  8
0
  6
Continuous
 62
     7
370
    15
100
AcDbCircle
 10
2241.792326769
 20
316.2947500406
 30
0.0
 40
84.77659064592122
100
AcDbArc
 50
359.9999507334
 51
0.0609361207
  0
ARC
  5
172
330
1F
100
AcDbEntity
  8
0
  6
Continuous
 62
     7
370
    15
100
AcDbCircle
 10
2281.7895641845
 20
316.2947500415
 30
0.0
 40
84.77659064774204
100
AcDbArc
 50
359.9999507329
 51
0.0609361201
  0
LINE
  5
173
330
1F
100
AcDbEntity
  8
0
  6
Continuous
 62
     7
370
    15
100
AcDbLine
 10
2326.560979162
 20
323.7946771443
 30
0.0
 11
2326.5688694692
 21
316.3849129746
 31
0.0
  0
LINE
  5
174
330
1F
100
AcDbEntity
  8
0
  6
Continuous
 62
     7
370
    15
100
AcDbLine
 10
2326.5571647826
 20
312.7946771443
 30
0.0
 11
2326.4161331952
 21
312.7946771443
 31
0.0
  0
ARC
  5
175
330
1F
100
AcDbEntity
  8
0
  6
Continuous
 62
     7
370
    15
100
AcDbCircle
 10
2347.685025376
 20
313.5447116754
 30
0.0
 40
21.28211282737944
100
AcDbArc
 50
179.3270266058
 51
182.0196638491
  0
LINE
  5
176
330
1F
100
AcDbEntity
  8
0
  6
Continuous
 62
     7
370
    15
100
AcDbLine
 10
2326.4043805629
 20
313.7946771443
 30
0.0
 11
2326.4043805629
 21
316.2946771443
 31
0.0
  0
ARC
  5
177
330
1F
100
AcDbEntity
  8
0
  6
Continuous
 62
     7
370
    15
100
AcDbCircle
 10
2411.1809721017
 20
316.2947500406
 30
0.0
 40
84.77659153883539
100
AcDbArc
 50
179.9390638799
 51
180.0000492665
  0
LINE
  5
178
330
1F
100
AcDbEntity
  8
0
  6
Continuous
 62
     7
370
    15
100
AcDbLine
 10
2326.4044285087
 20
316.3849129746
 30
0.0
 11
2326.4075269788
 21
319.2946771443
 31
0.0
  0
LWPOLYLINE
  5
179
330
1F
100
AcDbEntity
  8
0
  6
Continuous
 62
     7
370
    15
100
AcDbPolyline
 90
        9
 70
   128
 43
0.0
 10
2326.4572674082
 20
319.2946771443
 10
2326.459388765
 20
319.2226163435
 10
2326.4773803221
 20
318.8426978016
 10
2326.4959176557
 20
318.8426978016
 10
2326.5139092129
 20
319.2226163435
 10
2326.5302955782
 20
319.9600822927
 10
2326.5441118565
 20
321.0116706824
 10
2326.5545444895
 20
322.3154597509
 10
2326.560979162
 20
323.7946771443
  0
LINE
  5
17A
330
1F
100
AcDbEntity
  8
0
  6
Continuous
 62
     7
370
    15
100
AcDbLine
 10
2326.560979162
 20
323.7946771443
 30
0.0
 11
2366.5582165793
 21
323.7946771443
 31
0.0
  0
LINE
  5
17B
330
1F
100
AcDbEntity
  8
0
  6
Continuous
 62
     7
370
    15
100
AcDbLine
 10
2366.5582165793
 20
323.7946771443
 30
0.0
 11
2366.5661068865
 21
316.3849129746
 31
0.0
  0
ARC
  5
17C
330
1F
100
AcDbEntity
  8
0
  6
Continuous
 62
     7
370
    15
100
AcDbCircle
 10
1975.8026377805
 20
1038.2946771443
 30
0.0
 40
6.000000000000106
100
AcDbArc
 50
353.9250853679
 51
173.9250853679
  0
ARC
  5
17D
330
1F
100
AcDbEntity
  8
0
  6
Continuous
 62
     7
370
    15
100
AcDbCircle
 10
2222.3046004178
 20
1038.2946771443
 30
0.0
 40
6.000000000000037
100
AcDbArc
 50
90.0
 51
240.2387339143
  0
ARC
  5
17E
330
1F
100
AcDbEntity
  8
0
  6
Continuous
 62
     7
370
    15
100
AcDbCircle
 10
2222.3046004178
 20
1038.2946771443
 30
0.0
 40
6.000000000000037
100
AcDbArc
 50
240.2387339143
 51
270.0
  0
LINE
  5
17F
330
1F
100
AcDbEntity
  8
0
  6
Continuous
 62
     7
370
    15
100
AcDbLine
 10
2015.8026377805
 20
1041.2946771443
 30
0.0
 11
2015.8026377805
 21
1044.2946771443
 31
0.0
  0
LINE
  5
180
330
1F
100
AcDbEntity
  8
0
  6
Continuous
 62
     7
370
    15
100
AcDbLine
 10
2003.8026377805
 20
1041.2946771443
 30
0.0
 11
2015.8026377805
 21
1041.2946771443
 31
0.0
  0
LINE
  5
181
330
1F
100
AcDbEntity
  8
0
  6
Continuous
 62
     7
370
    15
100
AcDbLine
 10
2003.8026377805
 20
1044.2946771443
 30
0.0
 11
2015.8026377805
 21
1044.2946771443
 31
0.0
  0
LINE
  5
182
330
1F
100
AcDbEntity
  8
0
  6
Continuous
 62
     7
370
    15
100
AcDbLine
 10
1980.9987902032
 20
1041.2946771443
 30
0.0
 11
2003.8026377805
 21
1041.2946771443
 31
0.0
  0
LINE
  5
183
330
1F
100
AcDbEntity
  8
0
  6
Continuous
 62
     7
370
    15
100
AcDbLine
 10
1975.8026377805
 20
1044.2946771443
 30
0.0
 11
2003.8026377805
 21
1044.2946771443
 31
0.0
  0
LINE
  5
184
330
1F
100
AcDbEntity
  8
0
  6
Continuous
 62
     7
370
    15
100
AcDbLine
 10
2182.3046004178
 20
1041.2946771443
 30
0.0
 11
2182.3046004178
 21
1044.2946771443
 31
0.0
  0
LINE
  5
185
330
1F
100
AcDbEntity
  8
0
  6
Continuous
 62
     7
370
    15
100
AcDbLine
 10
2182.3046004178
 20
1044.2946771443
 30
0.0
 11
2194.3046004178
 21
1044.2946771443
 31
0.0
  0
LINE
  5
186
330
1F
100
AcDbEntity
  8
0
  6
Continuous
 62
     7
370
    15
100
AcDbLine
 10
2182.3046004178
 20
1041.2946771443
 30
0.0
 11
2194.3046004178
 21
1041.2946771443
 31
0.0
  0
LINE
  5
187
330
1F
100
AcDbEntity
  8
0
  6
Continuous
 62
     7
370
    15
100
AcDbLine
 10
2194.3046004178
 20
1044.2946771443
 30
0.0
 11
2222.3046004178
 21
1044.2946771443
 31
0.0
  0
LINE
  5
188
330
1F
100
AcDbEntity
  8
0
  6
Continuous
 62
     7
370
    15
100
AcDbLine
 10
2194.3046004178
 20
1041.2946771443
 30
0.0
 11
2217.1084479951
 21
1041.2946771443
 31
0.0
  0
ARC
  5
189
330
1F
100
AcDbEntity
  8
0
  6
Continuous
 62
     7
370
    15
100
AcDbCircle
 10
1916.4061719944
 20
610.8747603125
 30
0.0
 40
6.000000000000081
100
AcDbArc
 50
85.0
 51
265.0
  0
LWPOLYLINE
  5
18A
330
1F
100
AcDbEntity
  8
0
  6
Continuous
 62
     7
370
    15
100
AcDbPolyline
 90
       13
 70
   128
 43
0.0
 10
2341.7543378235
 20
577.9813587343
 10
2341.7368463539
 20
577.9516232751
 10
2341.2019140429
 20
576.8119811892
 10
2340.8001274232
 20
575.4657782468
 10
2340.5567322258
 20
573.9976013297
 10
2340.487021866
 20
572.4997013932
 10
2340.5953765022
 20
571.0661969991
 10
2340.874987814
 20
569.7871605006
 10
2341.3082867943
 20
568.7429584648
 10
2341.8680476748
 20
567.9992019461
 10
2342.5190986206
 20
567.6026239017
 10
2343.2205317063
 20
567.5781427888
 10
2343.4802568889
 20
567.6628437657
  0
LINE
  5
18B
330
1F
100
AcDbEntity
  8
0
  6
Continuous
 62
     7
370
    15
100
AcDbLine
 10
520.5722306504
 20
2472.5228061666
 30
0.0
 11
523.8541922279
 21
2463.1508057925
 31
0.0
  0
LINE
  5
18C
330
1F
100
AcDbEntity
  8
0
  6
Continuous
 62
     7
370
    15
100
AcDbLine
 10
960.4930348767
 20
2463.1496710209
 30
0.0
 11
963.7749508901
 21
2472.5224039433
 31
0.0
  0
SPLINE
  5
18D
330
1F
100
AcDbEntity
  8
0
  6
Continuous
 62
     7
370
    15
100
AcDbSpline
210
0.0
220
0.0
230
1.0
 70
     8
 71
     3
 72
     9
 73
     5
 74
     0
 42
0.000000001
 43
0.00000001
 40
0.0
 40
0.0
 40
0.0
 40
0.0
 40
0.5000746365911848
 40
1.0
 40
1.0
 40
1.0
 40
1.0
 10
940.9899753087525
 20
2113.942476142745
 30
0.0
 10
941.1050033289578
 20
2114.505881450742
 30
0.0
 10
941.3350250332963
 20
2115.632523889234
 30
0.0
 10
941.5691630724293
 20
2116.728840438149
 30
0.0
 10
941.6862146167307
 20
2117.276916887277
 30
0.0
  0
SPLINE
  5
18E
330
1F
100
AcDbEntity
  8
0
  6
Continuous
 62
     7
370
    15
100
AcDbSpline
210
0.0
220
0.0
230
1.0
 70
     8
 71
     3
 72
     9
 73
     5
 74
     0
 42
0.000000001
 43
0.00000001
 40
0.0
 40
0.0
 40
0.0
 40
0.0
 40
0.4999258781760763
 40
0.9999999999999999
 40
0.9999999999999999
 40
0.9999999999999999
 40
0.9999999999999999
 10
542.6631408802923
 20
2117.2719898682
 30
0.0
 10
542.7798735139104
 20
2116.725655527247
 30
0.0
 10
543.0133733960212
 20
2115.63282484013
 30
0.0
 10
543.24277188921
 20
2114.5098010403
 30
0.0
 10
543.3574881392391
 20
2113.948205899812
 30
0.0
  0
SPLINE
  5
18F
330
1F
100
AcDbEntity
  8
0
  6
Continuous
 62
     7
370
    15
100
AcDbSpline
210
0.0
220
0.0
230
1.0
 70
     8
 71
     3
 72
    19
 73
    15
 74
     0
 42
0.000000001
 43
0.00000001
 40
0.0
 40
0.0
 40
0.0
 40
0.0
 40
0.0552890972781603
 40
0.1605326226000335
 40
0.2656709929426759
 40
0.3704523328066844
 40
0.4746227114379898
 40
0.577802798986223
 40
0.679378651442568
 40
0.7783009159080833
 40
0.8612436965132297
 40
0.9343034819160879
 40
0.9955167988389071
 40
1.0
 40
1.0
 40
1.0
 40
1.0
 10
546.9811337940289
 20
2418.977331564662
 30
0.0
 10
546.7055894997638
 20
2419.274611842266
 30
0.0
 10
545.9055430099777
 20
2420.137769046134
 30
0.0
 10
544.6048425718357
 20
2421.570580048787
 30
0.0
 10
543.1246761584372
 20
2423.23848655908
 30
0.0
 10
541.7405593348051
 20
2424.839241139285
 30
0.0
 10
540.481748730416
 20
2426.337458100447
 30
0.0
 10
539.3764593967825
 20
2427.697843385514
 30
0.0
 10
538.4509511969982
 20
2428.885330974274
 30
0.0
 10
537.7610733749653
 20
2429.817978719382
 30
0.0
 10
537.3006641000134
 20
2430.488590089555
 30
0.0
 10
537.067853847197
 20
2430.851767602045
 30
0.0
 10
536.9798270302668
 20
2431.021879318569
 30
0.0
 10
536.9987847278526
 20
2430.981333048056
 30
0.0
 10
537.0000784215567
 20
2430.97856612688
 30
0.0
  0
SPLINE
  5
190
330
1F
100
AcDbEntity
  8
0
  6
Continuous
 62
     7
370
    15
100
AcDbSpline
210
0.0
220
0.0
230
1.0
 70
     8
 71
     3
 72
    19
 73
    15
 74
     0
 42
0.000000001
 43
0.00000001
 40
0.0
 40
0.0
 40
0.0
 40
0.0
 40
0.0602854375086627
 40
0.1120498703044308
 40
0.1886569671397112
 40
0.295340414564204
 40
0.3903678859000088
 40
0.4905738982219185
 40
0.5859512624535262
 40
0.6791672548390091
 40
0.7712874895744011
 40
0.8628059354601167
 40
0.9539990443595487
 40
1.0
 40
1.0
 40
1.0
 40
1.0
 10
525.6498874080282
 20
2427.190822662048
 30
0.0
 10
525.7645286191787
 20
2426.839146402281
 30
0.0
 10
525.9776071564144
 20
2426.185501327708
 30
0.0
 10
526.3911466625816
 20
2425.353524710821
 30
0.0
 10
526.9374738479315
 20
2424.396668538001
 30
0.0
 10
527.7048996782262
 20
2423.246419479152
 30
0.0
 10
528.7196687077544
 20
2421.853599058632
 30
0.0
 10
529.8733639592301
 20
2420.365381855104
 30
0.0
 10
531.1866065006275
 20
2418.746055058971
 30
0.0
 10
532.6027846924394
 20
2417.060082869156
 30
0.0
 10
534.1138785875911
 20
2415.312839770843
 30
0.0
 10
535.7027325970672
 20
2413.523148020429
 30
0.0
 10
537.0763182325551
 20
2412.010744916459
 30
0.0
 10
537.9140146389088
 20
2411.107081266039
 30
0.0
 10
538.1948929360719
 20
2410.804084254934
 30
0.0
  0
LINE
  5
191
330
1F
100
AcDbEntity
  8
0
  6
Continuous
 62
     7
370
    15
100
AcDbLine
 10
551.7551780415
 20
2413.8452339986
 30
0.0
 11
546.981133794
 21
2418.9773315647
 31
0.0
  0
LINE
  5
192
330
1F
100
AcDbEntity
  8
0
  6
Continuous
 62
     7
370
    15
100
AcDbLine
 10
538.1948929361
 20
2410.8040842549
 30
0.0
 11
545.309381482
 21
2403.156009068
 31
0.0
  0
SPLINE
  5
193
330
1F
100
AcDbEntity
  8
0
  6
Continuous
 62
     7
370
    15
100
AcDbSpline
210
0.0
220
0.0
230
1.0
 70
     8
 71
     3
 72
    19
 73
    15
 74
     0
 42
0.000000001
 43
0.00000001
 40
0.0
 40
0.0
 40
0.0
 40
0.0
 40
0.0260141052386762
 40
0.0860804611446762
 40
0.1574515862541238
 40
0.2395421554993465
 40
0.3301305456020004
 40
0.4265576270557821
 40
0.526663076867339
 40
0.6290061431568316
 40
0.732702898117183
 40
0.8372159576830515
 40
0.9422052481589469
 40
0.9999999999999999
 40
0.9999999999999999
 40
0.9999999999999999
 40
0.9999999999999999
 10
947.3406841318744
 20
2430.96411951025
 30
0.0
 10
947.3427184892538
 20
2430.968085353198
 30
0.0
 10
947.3494501611577
 20
2430.981208295025
 30
0.0
 10
947.2293647286681
 20
2430.770243791358
 30
0.0
 10
946.9568485096053
 20
2430.351458365021
 30
0.0
 10
946.4844910781494
 20
2429.676401603068
 30
0.0
 10
945.8057469401117
 20
2428.765918323475
 30
0.0
 10
944.9201367180619
 20
2427.633367569885
 30
0.0
 10
943.8469084029219
 20
2426.313693869581
 30
0.0
 10
942.6118435623193
 20
2424.843896502716
 30
0.0
 10
941.2443305703923
 20
2423.261879589322
 30
0.0
 10
939.7746819657257
 20
2421.60507533549
 30
0.0
 10
938.4668534725822
 20
2420.163612702462
 30
0.0
 10
937.655528812105
 20
2419.28815393648
 30
0.0
 10
937.3674765758575
 20
2418.977331564662
 30
0.0
  0
SPLINE
  5
194
330
1F
100
AcDbEntity
  8
0
  6
Continuous
 62
     7
370
    15
100
AcDbSpline
210
0.0
220
0.0
230
1.0
 70
     8
 71
     3
 72
    19
 73
    15
 74
     0
 42
0.000000001
 43
0.00000001
 40
0.0
 40
0.0
 40
0.0
 40
0.0
 40
0.0477843117827816
 40
0.138783046966616
 40
0.2299263535039498
 40
0.3213201525333457
 40
0.4131694425403767
 40
0.5057924259593513
 40
0.5997538048510289
 40
0.6962143146969523
 40
0.7981113465498855
 40
0.9164803037390041
 40
0.9711694543510535
 40
1.0
 40
1.0
 40
1.0
 40
1.0
 10
946.1537174338144
 20
2410.804084254934
 30
0.0
 10
946.445484271709
 20
2411.118866937442
 30
0.0
 10
947.292881445721
 20
2412.033110507785
 30
0.0
 10
948.673023591489
 20
2413.553421132871
 30
0.0
 10
950.2532777627501
 20
2415.334094622911
 30
0.0
 10
951.7499612733586
 20
2417.065114466318
 30
0.0
 10
953.1418934669799
 20
2418.722148138042
 30
0.0
 10
954.4114073810139
 20
2420.286033893892
 30
0.0
 10
955.5465296416943
 20
2421.745565708541
 30
0.0
 10
956.545839830577
 20
2423.106633290906
 30
0.0
 10
957.4386465379105
 20
2424.435044404529
 30
0.0
 10
958.0643759328898
 20
2425.524685370403
 30
0.0
 10
958.4939397227761
 20
2426.509019014756
 30
0.0
 10
958.6461728967927
 20
2427.015862903682
 30
0.0
 10
958.6987229618582
 20
2427.190822662048
 30
0.0
  0
LINE
  5
195
330
1F
100
AcDbEntity
  8
0
  6
Continuous
 62
     7
370
    15
100
AcDbLine
 10
939.0396447774
 20
2403.1564561493
 30
0.0
 11
946.1537174338
 21
2410.8040842549
 31
0.0
  0
LINE
  5
196
330
1F
100
AcDbEntity
  8
0
  6
Continuous
 62
     7
370
    15
100
AcDbLine
 10
937.3674765759
 20
2418.9773315647
 30
0.0
 11
932.5942551901
 21
2413.8461185749
 31
0.0
  0
SPLINE
  5
197
330
1F
100
AcDbEntity
  8
0
  6
Continuous
 62
     7
370
    15
100
AcDbSpline
210
0.0
220
0.0
230
1.0
 70
     8
 71
     3
 72
    13
 73
     9
 74
     0
 42
0.000000001
 43
0.00000001
 40
0.0
 40
0.0
 40
0.0
 40
0.0
 40
0.1602067350317843
 40
0.368170142714328
 40
0.5697536028078145
 40
0.7364464910120446
 40
0.883045902196288
 40
1.0
 40
1.0
 40
1.0
 40
1.0
 10
942.8907130725952
 20
2130.233612575661
 30
0.0
 10
943.3336015942617
 20
2130.198744915332
 30
0.0
 10
944.351401065652
 20
2130.118615752991
 30
0.0
 10
945.674408291908
 20
2129.972575885447
 30
0.0
 10
946.7925592037212
 20
2129.81716742552
 30
0.0
 10
947.5302296105936
 20
2129.685105908603
 30
0.0
 10
947.9529942819141
 20
2129.585522361172
 30
0.0
 10
947.9999096157179
 20
2129.570686685704
 30
0.0
 10
948.020728691735
 20
2129.564103229287
 30
0.0
  0
SPLINE
  5
198
330
1F
100
AcDbEntity
  8
0
  6
Continuous
 62
     7
370
    15
100
AcDbSpline
210
0.0
220
0.0
230
1.0
 70
     8
 71
     3
 72
    19
 73
    15
 74
     0
 42
0.000000001
 43
0.00000001
 40
0.0
 40
0.0
 40
0.0
 40
0.0
 40
0.0653655154067719
 40
0.1227964052291385
 40
0.178541090809032
 40
0.233890820009461
 40
0.291458796520605
 40
0.356011347019042
 40
0.4367201261369106
 40
0.5543286588382611
 40
0.6812115652156079
 40
0.799207263099009
 40
0.9232640049060444
 40
1.0
 40
1.0
 40
1.0
 40
1.0
 10
956.4773271413072
 20
2136.551632015509
 30
0.0
 10
956.3170200581742
 20
2136.966869705635
 30
0.0
 10
956.0158653373859
 20
2137.746939981922
 30
0.0
 10
955.3239727617272
 20
2138.710852461933
 30
0.0
 10
954.5769392692614
 20
2139.466654573617
 30
0.0
 10
953.7881154115667
 20
2140.048345642297
 30
0.0
 10
952.990746890607
 20
2140.491290871958
 30
0.0
 10
952.151948409184
 20
2140.845588757145
 30
0.0
 10
951.1370159984749
 20
2141.170237229669
 30
0.0
 10
949.8721561664403
 20
2141.464941132465
 30
0.0
 10
948.3047668896405
 20
2141.73172363689
 30
0.0
 10
946.4878325007624
 20
2141.961213270804
 30
0.0
 10
944.7539725202557
 20
2142.13430357755
 30
0.0
 10
943.5263403128716
 20
2142.219172070221
 30
0.0
 10
943.0571820131397
 20
2142.25160585412
 30
0.0
  0
SPLINE
  5
199
330
1F
100
AcDbEntity
  8
0
  6
Continuous
 62
     7
370
    15
100
AcDbSpline
210
0.0
220
0.0
230
1.0
 70
     8
 71
     3
 72
    15
 73
    11
 74
     0
 42
0.000000001
 43
0.00000001
 40
0.0
 40
0.0
 40
0.0
 40
0.0
 40
0.0111352282341366
 40
0.1283822310413734
 40
0.2664693073281548
 40
0.4262010837558479
 40
0.6047851647801159
 40
0.7974960948301596
 40
0.9997212155681111
 40
1.0
 40
1.0
 40
1.0
 40
1.0
 10
536.3303195457947
 20
2129.565580167919
 30
0.0
 10
536.3272207459702
 20
2129.564445237407
 30
0.0
 10
536.2914935182349
 20
2129.551360197021
 30
0.0
 10
536.4498600812553
 20
2129.602041138301
 30
0.0
 10
536.8249184984171
 20
2129.684571053809
 30
0.0
 10
537.5249897374812
 20
2129.811548117852
 30
0.0
 10
538.5253170504503
 20
2129.954281301165
 30
0.0
 10
539.8575859052894
 20
2130.100126456291
 30
0.0
 10
540.8619244467267
 20
2130.1970669446
 30
0.0
 10
541.4564057712239
 20
2130.236905810546
 30
0.0
 10
541.4572241857536
 20
2130.236960656183
 30
0.0
  0
SPLINE
  5
19A
330
1F
100
AcDbEntity
  8
0
  6
Continuous
 62
     7
370
    15
100
AcDbSpline
210
0.0
220
0.0
230
1.0
 70
     8
 71
     3
 72
    19
 73
    15
 74
     0
 42
0.000000001
 43
0.00000001
 40
0.0
 40
0.0
 40
0.0
 40
0.0
 40
0.0168283370445409
 40
0.1338651772459758
 40
0.2529651876773096
 40
0.3759376929935622
 40
0.5074362068078154
 40
0.6233223226059563
 40
0.704110200015277
 40
0.7661787212571887
 40
0.8271918980439378
 40
0.8885837967249557
 40
0.9512271188348845
 40
1.0
 40
1.0
 40
1.0
 40
1.0
 10
541.2910712803158
 20
2142.254151978162
 30
0.0
 10
541.1852307723836
 20
2142.247639887723
 30
0.0
 10
540.343296223732
 20
2142.195837850569
 30
0.0
 10
538.909591658935
 20
2142.067080707036
 30
0.0
 10
537.0155965069846
 20
2141.863801377771
 30
0.0
 10
535.2826912971049
 20
2141.612570843722
 30
0.0
 10
533.7692468195966
 20
2141.314938654443
 30
0.0
 10
532.5224682437942
 20
2140.968413905091
 30
0.0
 10
531.4717220797856
 20
2140.551457141019
 30
0.0
 10
530.5570285758268
 20
2140.050638364529
 30
0.0
 10
529.6916852601294
 20
2139.404723852645
 30
0.0
 10
528.8818147061784
 20
2138.54558939873
 30
0.0
 10
528.2488074865819
 20
2137.574453066598
 30
0.0
 10
527.9862283001294
 20
2136.863051047288
 30
0.0
 10
527.8712832285793
 20
2136.551632015509
 30
0.0
  0
LINE
  5
19B
330
1F
100
AcDbEntity
  8
0
  6
Continuous
 62
     7
370
    15
100
AcDbLine
 10
958.6987229619
 20
2427.190822662
 30
0.0
 11
991.9235225883
 21
2548.3848282026
 31
0.0
  0
LINE
  5
19C
330
1F
100
AcDbEntity
  8
0
  6
Continuous
 62
     7
370
    15
100
AcDbLine
 10
980.3505334266
 20
2551.5575119031
 30
0.0
 11
960.3551399147
 21
2478.6203727987
 31
0.0
  0
LINE
  5
19D
330
1F
100
AcDbEntity
  8
0
  6
Continuous
 62
     7
370
    15
100
AcDbLine
 10
955.4380075998
 20
2460.6841634696
 30
0.0
 11
947.2477275844
 21
2430.8085027367
 31
0.0
  0
LINE
  5
19E
330
1F
100
AcDbEntity
  8
0
  6
Continuous
 62
     7
370
    15
100
AcDbLine
 10
537.1005047265
 20
2430.8098817812
 30
0.0
 11
528.9109419841
 21
2460.6829261198
 31
0.0
  0
LINE
  5
19F
330
1F
100
AcDbEntity
  8
0
  6
Continuous
 62
     7
370
    15
100
AcDbLine
 10
523.9934565646
 20
2478.6204234674
 30
0.0
 11
503.9980769433
 21
2551.5575119031
 31
0.0
  0
LINE
  5
1A0
330
1F
100
AcDbEntity
  8
0
  6
Continuous
 62
     7
370
    15
100
AcDbLine
 10
492.4250877816
 20
2548.3848282026
 30
0.0
 11
525.649887408
 21
2427.190822662
 31
0.0
  0
LINE
  5
1A1
330
1F
100
AcDbEntity
  8
0
  6
Continuous
 62
     7
370
    15
100
AcDbLine
 10
979.2335708589
 20
2064.6020776712
 30
0.0
 11
975.4371889124
 21
2076.605288419
 31
0.0
  0
LINE
  5
1A2
330
1F
100
AcDbEntity
  8
0
  6
Continuous
 62
     7
370
    15
100
AcDbLine
 10
971.1532251858
 20
2090.1501108764
 30
0.0
 11
956.4773271413
 21
2136.5516320155
 31
0.0
  0
LINE
  5
1A3
330
1F
100
AcDbEntity
  8
0
  6
Continuous
 62
     7
370
    15
100
AcDbLine
 10
945.9881073715
 20
2129.9224623112
 30
0.0
 11
960.7639905028
 21
2083.2048133207
 31
0.0
  0
LINE
  5
1A4
330
1F
100
AcDbEntity
  8
0
  6
Continuous
 62
     7
370
    15
100
AcDbLine
 10
964.4463826904
 20
2071.5620096969
 30
0.0
 11
967.7921933751
 21
2060.9833926514
 31
0.0
  0
LINE
  5
1A5
330
1F
100
AcDbEntity
  8
0
  6
Continuous
 62
     7
370
    15
100
AcDbLine
 10
516.5564169948
 20
2060.9833926514
 30
0.0
 11
519.9040387726
 21
2071.5677359206
 31
0.0
  0
LINE
  5
1A6
330
1F
100
AcDbEntity
  8
0
  6
Continuous
 62
     7
370
    15
100
AcDbLine
 10
523.5842339995
 20
2083.2035933037
 30
0.0
 11
538.3611307749
 21
2129.9244471835
 31
0.0
  0
LINE
  5
1A7
330
1F
100
AcDbEntity
  8
0
  6
Continuous
 62
     7
370
    15
100
AcDbLine
 10
527.8712832286
 20
2136.5516320155
 30
0.0
 11
513.1948883422
 21
2090.1485399866
 31
0.0
  0
LINE
  5
1A8
330
1F
100
AcDbEntity
  8
0
  6
Continuous
 62
     7
370
    15
100
AcDbLine
 10
508.9121509587
 20
2076.6075949196
 30
0.0
 11
505.115039511
 21
2064.6020776712
 31
0.0
  0
SPLINE
  5
1A9
330
1F
100
AcDbEntity
  8
0
  6
Continuous
 62
     7
370
    15
100
AcDbSpline
210
0.0
220
0.0
230
1.0
 70
     8
 71
     3
 72
    34
 73
    30
 74
     0
 42
0.000000001
 43
0.00000001
 40
0.0
 40
0.0
 40
0.0
 40
0.0
 40
0.0290549194149249
 40
0.0843842519923476
 40
0.1397782339315464
 40
0.1952643605461264
 40
0.2509178438358245
 40
0.3068546314063511
 40
0.3632778792060289
 40
0.4205951660269193
 40
0.4797871277757633
 40
0.5441015137683495
 40
0.5885139124695055
 40
0.613844364924912
 40
0.6371970973842505
 40
0.661207515501405
 40
0.6874753770115785
 40
0.7154683313345319
 40
0.7446847176696375
 40
0.7746232660286634
 40
0.8048703836081064
 40
0.8359013513324849
 40
0.8642718189310077
 40
0.8905622883456439
 40
0.915076535610422
 40
0.937938359772649
 40
0.9593182799901805
 40
0.9802238458997997
 40
1.0
 40
1.0
 40
1.0
 40
1.0
 10
993.4264776945719
 20
2532.334900662715
 30
0.0
 10
993.421034746093
 20
2532.759254868048
 30
0.0
 10
993.4052267815466
 20
2533.991707510076
 30
0.0
 10
993.366652566493
 20
2536.02088136676
 30
0.0
 10
993.306176551975
 20
2538.370391275235
 30
0.0
 10
993.230840968982
 20
2540.622379189717
 30
0.0
 10
993.1418875489755
 20
2542.741783178049
 30
0.0
 10
993.0401245447053
 20
2544.698437459844
 30
0.0
 10
992.9259811155499
 20
2546.469069787953
 30
0.0
 10
992.7985555552665
 20
2548.042165132571
 30
0.0
 10
992.6510836246032
 20
2549.440218951715
 30
0.0
 10
992.4908011843736
 20
2550.532091579966
 30
0.0
 10
992.298431185072
 20
2551.425746076545
 30
0.0
 10
992.0426428275315
 20
2552.224235029449
 30
0.0
 10
991.708505956884
 20
2552.979584485843
 30
0.0
 10
991.20226582317
 20
2553.799391039969
 30
0.0
 10
990.4841016805392
 20
2554.620300257699
 30
0.0
 10
989.5439795874405
 20
2555.355945932878
 30
0.0
 10
988.4155437426027
 20
2555.917023944432
 30
0.0
 10
987.1567597859663
 20
2556.238368818188
 30
0.0
 10
985.82988744998
 20
2556.283487254054
 30
0.0
 10
984.5476057757949
 20
2556.042019377987
 30
0.0
 10
983.4036473500594
 20
2555.559832390229
 30
0.0
 10
982.4600452332576
 20
2554.923547542509
 30
0.0
 10
981.7126962067564
 20
2554.196794462864
 30
0.0
 10
981.151740737108
 20
2553.440049946593
 30
0.0
 10
980.7573083631618
 20
2552.711603398187
 30
0.0
 10
980.5000562931239
 20
2552.070211396749
 30
0.0
 10
980.3994433046362
 20
2551.725219159457
 30
0.0
 10
980.3505334265795
 20
2551.557511903068
 30
0.0
  0
SPLINE
  5
1AA
330
1F
100
AcDbEntity
  8
0
  6
Continuous
 62
     7
370
    15
100
AcDbSpline
210
0.0
220
0.0
230
1.0
 70
     8
 71
     3
 72
    34
 73
    30
 74
     0
 42
0.000000001
 43
0.00000001
 40
0.0
 40
0.0
 40
0.0
 40
0.0
 40
0.0249302180221562
 40
0.0481950993046081
 40
0.0724709068676605
 40
0.0990252848744804
 40
0.1272163761470594
 40
0.1565652122611699
 40
0.186568360159823
 40
0.220158772288343
 40
0.2505498395610609
 40
0.2783837211948385
 40
0.3042356678616989
 40
0.3283525649667463
 40
0.3508357993457498
 40
0.3719592098877889
 40
0.3930682841416119
 40
0.4163894333729732
 40
0.4455621761912474
 40
0.4886870522040097
 40
0.5504010685181151
 40
0.6071763896259483
 40
0.6671258433281839
 40
0.7246014713529156
 40
0.7810207520393643
 40
0.83691844203291
 40
0.892531549792201
 40
0.9479865345927571
 40
1.0
 40
1.0
 40
1.0
 40
1.0
 10
503.9980769433069
 20
2551.557511903068
 30
0.0
 10
503.9348701396772
 20
2551.771671145199
 30
0.0
 10
503.8126787422754
 20
2552.185683807756
 30
0.0
 10
503.4714477902677
 20
2552.966662815528
 30
0.0
 10
502.9583894990787
 20
2553.801292075638
 30
0.0
 10
502.2279628035684
 20
2554.633610699009
 30
0.0
 10
501.2759571508321
 20
2555.372264035229
 30
0.0
 10
500.1380947991143
 20
2555.930055696956
 30
0.0
 10
498.8271277607454
 20
2556.255797070271
 30
0.0
 10
497.4562443674953
 20
2556.276562492237
 30
0.0
 10
496.1519819904995
 20
2555.992086719896
 30
0.0
 10
495.0428455508913
 20
2555.492895337356
 30
0.0
 10
494.1309136127321
 20
2554.850934603906
 30
0.0
 10
493.411643513586
 20
2554.128302990784
 30
0.0
 10
492.8750133059501
 20
2553.386000663773
 30
0.0
 10
492.4971753033795
 20
2552.677664484575
 30
0.0
 10
492.2407483340353
 20
2552.034057164563
 30
0.0
 10
492.0591944297605
 20
2551.431926664472
 30
0.0
 10
491.9080124293525
 20
2550.771990704615
 30
0.0
 10
491.7617857855467
 20
2549.91084629367
 30
0.0
 10
491.621498621598
 20
2548.768622834557
 30
0.0
 10
491.4834673357992
 20
2547.269762619853
 30
0.0
 10
491.3608361588954
 20
2545.564016061569
 30
0.0
 10
491.2501637566411
 20
2543.630819873326
 30
0.0
 10
491.1542433059763
 20
2541.549271940188
 30
0.0
 10
491.0723922527663
 20
2539.333553968512
 30
0.0
 10
491.0054850294453
 20
2537.011458771171
 30
0.0
 10
490.9538314885525
 20
2534.665275535271
 30
0.0
 10
490.9324709329123
 20
2533.094929612405
 30
0.0
 10
490.9221326753146
 20
2532.334900662715
 30
0.0
  0
SPLINE
  5
1AB
330
1F
100
AcDbEntity
  8
0
  6
Continuous
 62
     7
370
    15
100
AcDbSpline
210
0.0
220
0.0
230
1.0
 70
     8
 71
     3
 72
    31
 73
    27
 74
     0
 42
0.000000001
 43
0.00000001
 40
0.0
 40
0.0
 40
0.0
 40
0.0
 40
0.0310174434865187
 40
0.0900849575762803
 40
0.1492277844672148
 40
0.2084853189309221
 40
0.2679512858873231
 40
0.3277704741903567
 40
0.3881975472133671
 40
0.4497470972167742
 40
0.5136758046812009
 40
0.5843068627150815
 40
0.6237143231121947
 40
0.6503459529627832
 40
0.6767794875916748
 40
0.7034593063654063
 40
0.7321264460561602
 40
0.7624619939516786
 40
0.7939383152442197
 40
0.8260662548166812
 40
0.8619775379839835
 40
0.8945250724727062
 40
0.9243924805810028
 40
0.9522138597770151
 40
0.9782875283107215
 40
1.0
 40
1.0
 40
1.0
 40
1.0
 10
499.2918844763406
 20
2078.26557709422
 30
0.0
 10
499.4018393435346
 20
2077.854430272071
 30
0.0
 10
499.721184796708
 20
2076.660323348107
 30
0.0
 10
500.261271292384
 20
2074.697772712135
 30
0.0
 10
500.9047699210096
 20
2072.429352619611
 30
0.0
 10
501.5416812787712
 20
2070.25884553269
 30
0.0
 10
502.162293545832
 20
2068.219216765861
 30
0.0
 10
502.7586904158761
 20
2066.338531186352
 30
0.0
 10
503.3254655140378
 20
2064.63758448791
 30
0.0
 10
503.8620214251135
 20
2063.124634923973
 30
0.0
 10
504.3873492540741
 20
2061.769443005985
 30
0.0
 10
504.8345096766811
 20
2060.756934049528
 30
0.0
 10
505.2819197916474
 20
2059.927833377444
 30
0.0
 10
505.7166821681283
 20
2059.269029987083
 30
0.0
 10
506.2483030585745
 20
2058.621603411502
 30
0.0
 10
506.9774958657445
 20
2057.950793493198
 30
0.0
 10
507.9090699135558
 20
2057.345831727782
 30
0.0
 10
509.0277770613582
 20
2056.890814906755
 30
0.0
 10
510.2768916153022
 20
2056.660309731798
 30
0.0
 10
511.6291163748256
 20
2056.700162705684
 30
0.0
 10
512.9568603578399
 20
2057.049791369259
 30
0.0
 10
514.1383193509727
 20
2057.675452038919
 30
0.0
 10
515.0756722455596
 20
2058.456537647456
 30
0.0
 10
515.7815279440754
 20
2059.321565644382
 30
0.0
 10
516.2723632045262
 20
2060.183822621113
 30
0.0
 10
516.4676740730542
 20
2060.733594257293
 30
0.0
 10
516.5564169948248
 20
2060.983392651355
 30
0.0
  0
SPLINE
  5
1AC
330
1F
100
AcDbEntity
  8
0
  6
Continuous
 62
     7
370
    15
100
AcDbSpline
210
0.0
220
0.0
230
1.0
 70
     8
 71
     3
 72
    32
 73
    28
 74
     0
 42
0.000000001
 43
0.00000001
 40
0.0
 40
0.0
 40
0.0
 40
0.0
 40
0.0224713117545997
 40
0.0518357045912729
 40
0.0825410916985266
 40
0.1142533359263965
 40
0.1464902039601872
 40
0.1814588248979343
 40
0.2132588257414511
 40
0.2425818375792421
 40
0.2699513894405123
 40
0.2956233247921057
 40
0.3198149230408782
 40
0.3433002331171013
 40
0.3680878691234502
 40
0.3968932772998657
 40
0.4355229405562752
 40
0.4998106101592847
 40
0.562351476497396
 40
0.6216906637731223
 40
0.6841669517198649
 40
0.7449439627554862
 40
0.8048950412564994
 40
0.8644091632211223
 40
0.9236804122636337
 40
0.9828225943312973
 40
1.0
 40
1.0
 40
1.0
 40
1.0
 10
967.7921933750616
 20
2060.983392651355
 30
0.0
 10
967.8845000883
 20
2060.724711441932
 30
0.0
 10
968.097428624536
 20
2060.12799849071
 30
0.0
 10
968.6505288822827
 20
2059.189479913222
 30
0.0
 10
969.4608450524348
 20
2058.266246618909
 30
0.0
 10
970.4884608311396
 20
2057.497367848247
 30
0.0
 10
971.7121406340834
 20
2056.937565873615
 30
0.0
 10
973.0347677294385
 20
2056.66431984421
 30
0.0
 10
974.3396589997668
 20
2056.690304880299
 30
0.0
 10
975.5032951783085
 20
2056.95438245546
 30
0.0
 10
976.5079989409315
 20
2057.390257330454
 30
0.0
 10
977.343550826088
 20
2057.936494902781
 30
0.0
 10
978.0091935554079
 20
2058.532199429958
 30
0.0
 10
978.5226421761007
 20
2059.126264972001
 30
0.0
 10
978.9220027523943
 20
2059.698237036139
 30
0.0
 10
979.2690520271583
 20
2060.292402036863
 30
0.0
 10
979.6535810327139
 20
2061.063745521549
 30
0.0
 10
980.0805522766441
 20
2062.065632550682
 30
0.0
 10
980.5856568808055
 20
2063.396538694582
 30
0.0
 10
981.1256215780993
 20
2064.937897624338
 30
0.0
 10
981.7020590857717
 20
2066.684842606707
 30
0.0
 10
982.3168376855347
 20
2068.641210309791
 30
0.0
 10
982.9484200569741
 20
2070.734341981263
 30
0.0
 10
983.5913058389282
 20
2072.942464820188
 30
0.0
 10
984.2369621983408
 20
2075.235316297445
 30
0.0
 10
984.7259796030747
 20
2077.026178108045
 30
0.0
 10
984.9959606967419
 20
2078.037872882613
 30
0.0
 10
985.0567258935458
 20
2078.26557709422
 30
0.0
  0
ARC
  5
1AD
330
1F
100
AcDbEntity
  8
0
  6
Continuous
 62
     7
370
    15
100
AcDbCircle
 10
974.1466188801
 20
2130.5974323314
 30
0.0
 40
12.00000000000005
100
AcDbArc
 50
345.0994033122
 51
0.6733917307
  0
ARC
  5
1AE
330
1F
100
AcDbEntity
  8
0
  6
Continuous
 62
     7
370
    15
100
AcDbCircle
 10
974.1466188801
 20
2130.5974323314
 30
0.0
 40
24.0000000000001
100
AcDbArc
 50
345.0994033122
 51
0.6733917307
  0
ARC
  5
1AF
330
1F
100
AcDbEntity
  8
0
  6
Continuous
 62
     7
370
    15
100
AcDbCircle
 10
510.2019914898
 20
2130.5974323314
 30
0.0
 40
12.00000000000011
100
AcDbArc
 50
179.3266082693
 51
194.9005966878
  0
ARC
  5
1B0
330
1F
100
AcDbEntity
  8
0
  6
Continuous
 62
     7
370
    15
100
AcDbCircle
 10
510.2019914898
 20
2130.5974323314
 30
0.0
 40
24.0000000000001
100
AcDbArc
 50
179.3266082693
 51
194.9005966878
  0
LINE
  5
1B1
330
1F
100
AcDbEntity
  8
0
  6
Continuous
 62
     7
370
    15
100
AcDbLine
 10
487.0090298551
 20
2124.4260037599
 30
0.0
 11
499.2918844763
 21
2078.2655770942
 31
0.0
  0
LINE
  5
1B2
330
1F
100
AcDbEntity
  8
0
  6
Continuous
 62
     7
370
    15
100
AcDbLine
 10
500.8833416449
 20
2118.9513586829
 30
0.0
 11
498.6055106725
 21
2127.5117180457
 31
0.0
  0
LINE
  5
1B3
330
1F
100
AcDbEntity
  8
0
  6
Continuous
 62
     7
370
    15
100
AcDbLine
 10
490.9221326753
 20
2532.3349006627
 30
0.0
 11
486.2036490394
 21
2130.8794955062
 31
0.0
  0
LINE
  5
1B4
330
1F
100
AcDbEntity
  8
0
  6
Continuous
 62
     7
370
    15
100
AcDbLine
 10
498.2028202646
 20
2130.7384639188
 30
0.0
 11
502.6722757055
 21
2511.0061904385
 31
0.0
  0
LINE
  5
1B5
330
1F
100
AcDbEntity
  8
0
  6
Continuous
 62
     7
370
    15
100
AcDbLine
 10
985.7430996974
 20
2127.5117180457
 30
0.0
 11
983.465268725
 21
2118.9513586829
 31
0.0
  0
LINE
  5
1B6
330
1F
100
AcDbEntity
  8
0
  6
Continuous
 62
     7
370
    15
100
AcDbLine
 10
985.0567258935
 20
2078.2655770942
 30
0.0
 11
997.3395805148
 21
2124.4260037599
 31
0.0
  0
LINE
  5
1B7
330
1F
100
AcDbEntity
  8
0
  6
Continuous
 62
     7
370
    15
100
AcDbLine
 10
981.6763346644
 20
2511.0061904385
 30
0.0
 11
986.1457901053
 21
2130.7384639188
 31
0.0
  0
LINE
  5
1B8
330
1F
100
AcDbEntity
  8
0
  6
Continuous
 62
     7
370
    15
100
AcDbLine
 10
998.1449613305
 20
2130.8794955062
 30
0.0
 11
993.4264776946
 21
2532.3349006627
 31
0.0
  0
SPLINE
  5
1B9
330
1F
100
AcDbEntity
  8
0
  6
Continuous
 62
     7
370
    15
100
AcDbSpline
210
0.0
220
0.0
230
1.0
 70
     8
 71
     3
 72
    22
 73
    18
 74
     0
 42
0.000000001
 43
0.00000001
 40
0.0
 40
0.0
 40
0.0
 40
0.0
 40
0.0433546914090362
 40
0.1147872269100561
 40
0.186242890859748
 40
0.2576988345991635
 40
0.3291571857612966
 40
0.4006199619571159
 40
0.4720889354199321
 40
0.5435655401730743
 40
0.6150507996509278
 40
0.6865452779399883
 40
0.7580490561690346
 40
0.8295617340470761
 40
0.9010824552723571
 40
0.972609954573469
 40
1.0
 40
1.0
 40
1.0
 40
1.0
 10
500.0772066396151
 20
2095.954516693035
 30
0.0
 10
500.0693350617225
 20
2095.399131961238
 30
0.0
 10
500.0484940277231
 20
2093.928678103553
 30
0.0
 10
500.2807823462081
 20
2091.547566109436
 30
0.0
 10
500.843636415052
 20
2088.855350782033
 30
0.0
 10
501.7167324885603
 20
2086.245043359851
 30
0.0
 10
502.882598814705
 20
2083.751643280316
 30
0.0
 10
504.3274793029477
 20
2081.407811857126
 30
0.0
 10
506.0319604593473
 20
2079.244381018732
 30
0.0
 10
507.9737654396696
 20
2077.289779898663
 30
0.0
 10
510.1273577179259
 20
2075.569745704193
 30
0.0
 10
512.4644612899673
 20
2074.106839892317
 30
0.0
 10
514.9543440215724
 20
2072.920659989421
 30
0.0
 10
517.5643495318598
 20
2072.025689690344
 30
0.0
 10
520.2598657706994
 20
2071.438152236855
 30
0.0
 10
522.4414475424207
 20
2071.208864531302
 30
0.0
 10
523.7110174798904
 20
2071.191753724058
 30
0.0
 10
524.0625585371943
 20
2071.187015780056
 30
0.0
  0
SPLINE
  5
1BA
330
1F
100
AcDbEntity
  8
0
  6
Continuous
 62
     7
370
    15
100
AcDbSpline
210
0.0
220
0.0
230
1.0
 70
     8
 71
     3
 72
    18
 73
    14
 74
     0
 42
0.000000001
 43
0.00000001
 40
0.0
 40
0.0
 40
0.0
 40
0.0
 40
0.0433717400152153
 40
0.144140055119659
 40
0.2450005558746316
 40
0.3458837734547331
 40
0.4468090663203559
 40
0.5477920576478787
 40
0.6488427731822732
 40
0.7499643795479575
 40
0.851152545976266
 40
0.9523956187838305
 40
1.0
 40
1.0
 40
1.0
 40
1.0
 10
524.0625585371943
 20
2083.187015780056
 30
0.0
 10
523.7838623186494
 20
2083.192910941421
 30
0.0
 10
522.8576534949171
 20
2083.212502705177
 30
0.0
 10
521.2938209071966
 20
2083.457412985997
 30
0.0
 10
519.4369557250354
 20
2084.051704030847
 30
0.0
 10
517.7007998657718
 20
2084.940159633859
 30
0.0
 10
516.1316534541209
 20
2086.094616049809
 30
0.0
 10
514.7703504197207
 20
2087.486201290644
 30
0.0
 10
513.6529573815883
 20
2089.078248256067
 30
0.0
 10
512.8075426735085
 20
2090.82944072486
 30
0.0
 10
512.2615227263481
 20
2092.693466619982
 30
0.0
 10
512.055131630421
 20
2094.282292253758
 30
0.0
 10
512.0662763566174
 20
2095.230779764943
 30
0.0
 10
512.0698406620862
 20
2095.534124967301
 30
0.0
  0
LINE
  5
1BB
330
1F
100
AcDbEntity
  8
0
  6
Continuous
 62
     7
370
    15
100
AcDbLine
 10
524.0625585372
 20
2071.1870157801
 30
0.0
 11
577.4876923095
 21
2071.1870157801
 31
0.0
  0
LINE
  5
1BC
330
1F
100
AcDbEntity
  8
0
  6
Continuous
 62
     7
370
    15
100
AcDbLine
 10
906.8579405009
 20
2071.1870157801
 30
0.0
 11
960.2860518327
 21
2071.1870157801
 31
0.0
  0
LINE
  5
1BD
330
1F
100
AcDbEntity
  8
0
  6
Continuous
 62
     7
370
    15
100
AcDbLine
 10
960.2860518327
 20
2083.1870157801
 30
0.0
 11
924.2620214851
 21
2083.1870157801
 31
0.0
  0
LINE
  5
1BE
330
1F
100
AcDbEntity
  8
0
  6
Continuous
 62
     7
370
    15
100
AcDbLine
 10
560.0858780429
 20
2083.1870157801
 30
0.0
 11
524.0625585372
 21
2083.1870157801
 31
0.0
  0
SPLINE
  5
1BF
330
1F
100
AcDbEntity
  8
0
  6
Continuous
 62
     7
370
    15
100
AcDbSpline
210
0.0
220
0.0
230
1.0
 70
     8
 71
     3
 72
    22
 73
    18
 74
     0
 42
0.000000001
 43
0.00000001
 40
0.0
 40
0.0
 40
0.0
 40
0.0
 40
0.0433032699357204
 40
0.1148142424080575
 40
0.1863507494595583
 40
0.2578858469696537
 40
0.3294175019924694
 40
0.4009438779575422
 40
0.4724634023466587
 40
0.5439748510328171
 40
0.6154774167012316
 40
0.6869707568689785
 40
0.7584550178128547
 40
0.8299308319123593
 40
0.9013992875010693
 40
0.9728618721734834
 40
0.9999999999999999
 40
0.9999999999999999
 40
0.9999999999999999
 40
0.9999999999999999
 10
960.2860518326921
 20
2071.187015780056
 30
0.0
 10
960.8419003103136
 20
2071.198530351135
 30
0.0
 10
962.3156763541668
 20
2071.229060072262
 30
0.0
 10
964.6937643668483
 20
2071.543406431936
 30
0.0
 10
967.3736520016822
 20
2072.198494692979
 30
0.0
 10
969.9606982650013
 20
2073.160242229344
 30
0.0
 10
972.4202953359514
 20
2074.410018903584
 30
0.0
 10
974.7200526931834
 20
2075.932927321387
 30
0.0
 10
976.8296325814558
 20
2077.708455449281
 30
0.0
 10
978.7212403292808
 20
2079.71328915447
 30
0.0
 10
980.3699372950388
 20
2081.920941687049
 30
0.0
 10
981.7541109413938
 20
2084.302304860019
 30
0.0
 10
982.8552534691419
 20
2086.825940240266
 30
0.0
 10
983.6600807332683
 20
2089.458699813514
 30
0.0
 10
984.1536930027829
 20
2092.165464202628
 30
0.0
 10
984.3061791199835
 20
2094.344386558054
 30
0.0
 10
984.2789092788256
 20
2095.607003408299
 30
0.0
 10
984.2714037302713
 20
2095.954516693035
 30
0.0
  0
SPLINE
  5
1C0
330
1F
100
AcDbEntity
  8
0
  6
Continuous
 62
     7
370
    15
100
AcDbSpline
210
0.0
220
0.0
230
1.0
 70
     8
 71
     3
 72
    18
 73
    14
 74
     0
 42
0.000000001
 43
0.00000001
 40
0.0
 40
0.0
 40
0.0
 40
0.0
 40
0.0433311383861149
 40
0.1445344532526121
 40
0.2458226334054502
 40
0.3470838133082779
 40
0.448297955368937
 40
0.549450640733654
 40
0.6505342784397399
 40
0.7515486349979003
 40
0.85250054433062
 40
0.9534029557529111
 40
1.0
 40
1.0
 40
1.0
 40
1.0
 10
972.2787697078002
 20
2095.534124967301
 30
0.0
 10
972.2825582307939
 20
2095.258040090294
 30
0.0
 10
972.2951951501072
 20
2094.337137057607
 30
0.0
 10
972.1036698346297
 20
2092.773783538094
 30
0.0
 10
971.5699415861939
 20
2090.904858295971
 30
0.0
 10
970.7351960822377
 20
2089.145798664735
 30
0.0
 10
969.6263482092054
 20
2087.544185649667
 30
0.0
 10
968.2714812483697
 20
2086.14205109513
 30
0.0
 10
966.7068267422003
 20
2084.976693979158
 30
0.0
 10
964.9735744126845
 20
2084.077336492326
 30
0.0
 10
963.1178346945911
 20
2083.472384248683
 30
0.0
 10
961.5333019732361
 20
2083.215242538576
 30
0.0
 10
960.5854810857242
 20
2083.19379222124
 30
0.0
 10
960.2860518326921
 20
2083.187015780056
 30
0.0
  0
LINE
  5
1C1
330
1F
100
AcDbEntity
  8
0
  6
Continuous
 62
     7
370
    15
100
AcDbLine
 10
513.2712378118
 20
2472.344387006
 30
0.0
 11
500.0772066396
 21
2095.954516693
 31
0.0
  0
LINE
  5
1C2
330
1F
100
AcDbEntity
  8
0
  6
Continuous
 62
     7
370
    15
100
AcDbLine
 10
512.0698406621
 20
2095.5341249673
 30
0.0
 11
523.9173254295
 21
2433.5106839822
 31
0.0
  0
LINE
  5
1C3
330
1F
100
AcDbEntity
  8
0
  6
Continuous
 62
     7
370
    15
100
AcDbLine
 10
525.5453531707
 20
2479.9538932191
 30
0.0
 11
525.7043563938
 21
2484.4898232717
 31
0.0
  0
LINE
  5
1C4
330
1F
100
AcDbEntity
  8
0
  6
Continuous
 62
     7
370
    15
100
AcDbLine
 10
958.6442539761
 20
2484.4898232717
 30
0.0
 11
958.8032455148
 21
2479.9542265413
 31
0.0
  0
LINE
  5
1C5
330
1F
100
AcDbEntity
  8
0
  6
Continuous
 62
     7
370
    15
100
AcDbLine
 10
960.4312849404
 20
2433.5106839822
 30
0.0
 11
972.2787697078
 21
2095.5341249673
 31
0.0
  0
LINE
  5
1C6
330
1F
100
AcDbEntity
  8
0
  6
Continuous
 62
     7
370
    15
100
AcDbLine
 10
984.2714037303
 20
2095.954516693
 30
0.0
 11
971.077372558
 21
2472.344387006
 31
0.0
  0
SPLINE
  5
1C7
330
1F
100
AcDbEntity
  8
0
  6
Continuous
 62
     7
370
    15
100
AcDbSpline
210
0.0
220
0.0
230
1.0
 70
     8
 71
     3
 72
    12
 73
     8
 74
     0
 42
0.000000001
 43
0.00000001
 40
0.0
 40
0.0
 40
0.0
 40
0.0
 40
0.1338406598495034
 40
0.3543606860671701
 40
0.5749521123278732
 40
0.7955444023299226
 40
1.0
 40
1.0
 40
1.0
 40
1.0
 10
525.7043563938098
 20
2484.489823271713
 30
0.0
 10
525.7121945776966
 20
2485.045190239441
 30
0.0
 10
525.7329471966893
 20
2486.515597064425
 30
0.0
 10
525.5016548627606
 20
2488.897238876345
 30
0.0
 10
524.9347007583831
 20
2491.587273174122
 30
0.0
 10
524.0977865173081
 20
2494.141819415549
 30
0.0
 10
523.3210205008809
 20
2495.727422733915
 30
0.0
 10
522.9473822244782
 20
2496.490126145759
 30
0.0
  0
SPLINE
  5
1C8
330
1F
100
AcDbEntity
  8
0
  6
Continuous
 62
     7
370
    15
100
AcDbSpline
210
0.0
220
0.0
230
1.0
 70
     8
 71
     3
 72
    12
 73
     8
 74
     0
 42
0.000000001
 43
0.00000001
 40
0.0
 40
0.0
 40
0.0
 40
0.0
 40
0.1338103890642287
 40
0.3543934763135571
 40
0.5750361408604455
 40
0.7956581305879947
 40
0.9999999999999999
 40
0.9999999999999999
 40
0.9999999999999999
 40
0.9999999999999999
 10
961.4012281454081
 20
2496.490126145759
 30
0.0
 10
961.1518028260313
 20
2495.993733958059
 30
0.0
 10
960.4912060918556
 20
2494.679051635974
 30
0.0
 10
959.659574911166
 20
2492.434394637294
 30
0.0
 10
958.9954761819002
 20
2489.765967670985
 30
0.0
 10
958.6337580808548
 20
2487.102855948712
 30
0.0
 10
958.6408458538341
 20
2485.338301138396
 30
0.0
 10
958.6442539760766
 20
2484.489823271713
 30
0.0
  0
LINE
  5
1C9
330
1F
100
AcDbEntity
  8
0
  6
Continuous
 62
     7
370
    15
100
AcDbLine
 10
522.9473822245
 20
2496.4901261458
 30
0.0
 11
517.4375512398
 21
2506.9070988016
 31
0.0
  0
LINE
  5
1CA
330
1F
100
AcDbEntity
  8
0
  6
Continuous
 62
     7
370
    15
100
AcDbLine
 10
966.91105913
 20
2506.9070988016
 30
0.0
 11
961.4012281454
 21
2496.4901261458
 31
0.0
  0
SPLINE
  5
1CB
330
1F
100
AcDbEntity
  8
0
  6
Continuous
 62
     7
370
    15
100
AcDbSpline
210
0.0
220
0.0
230
1.0
 70
     8
 71
     3
 72
    40
 73
    36
 74
     0
 42
0.000000001
 43
0.00000001
 40
0.0
 40
0.0
 40
0.0
 40
0.0
 40
0.0059422961030657
 40
0.0377560644933317
 40
0.0696649092234883
 40
0.1014310624282925
 40
0.133364823242039
 40
0.165141169162242
 40
0.1970239966793067
 40
0.2288386818876969
 40
0.2606432175303804
 40
0.292509372208546
 40
0.3242446421320039
 40
0.3561585443061523
 40
0.3878835707789537
 40
0.4197998259123111
 40
0.451638406402023
 40
0.4834570592007824
 40
0.5153932714521849
 40
0.5471719273093034
 40
0.5790837161521035
 40
0.6109540371076627
 40
0.6427574189377389
 40
0.6746861780130115
 40
0.7064304655964448
 40
0.7383619227436237
 40
0.7701040673420321
 40
0.8020006839692958
 40
0.8337897359013884
 40
0.8656148580363959
 40
0.8974965764293272
 40
0.9292406271828622
 40
0.9611726219002393
 40
0.992959549730641
 40
1.0
 40
1.0
 40
1.0
 40
1.0
 10
575.783339218637
 20
2480.203178607607
 30
0.0
 10
575.7550899615841
 20
2480.22870655848
 30
0.0
 10
575.5756002908106
 20
2480.390905638233
 30
0.0
 10
576.0172343776306
 20
2480.913951721549
 30
0.0
 10
577.1111147317445
 20
2481.743090664665
 30
0.0
 10
578.9684576960168
 20
2482.743945155005
 30
0.0
 10
581.4114124618877
 20
2483.842963720838
 30
0.0
 10
584.3759592185102
 20
2485.004243372264
 30
0.0
 10
587.7461324449224
 20
2486.177397949148
 30
0.0
 10
591.4181984772974
 20
2487.319326048613
 30
0.0
 10
595.2699056964706
 20
2488.384455718931
 30
0.0
 10
599.1671362248298
 20
2489.328890161316
 30
0.0
 10
602.9725540109791
 20
2490.115515892018
 30
0.0
 10
606.5232465460869
 20
2490.711519523386
 30
0.0
 10
609.6764138513577
 20
2491.097044032331
 30
0.0
 10
612.2823685277052
 20
2491.260533726402
 30
0.0
 10
614.227320721242
 20
2491.203094964618
 30
0.0
 10
615.4283416525936
 20
2490.936438055769
 30
0.0
 10
615.840813132838
 20
2490.479732279841
 30
0.0
 10
615.4610789235118
 20
2489.856290857192
 30
0.0
 10
614.3192598133888
 20
2489.093089854314
 30
0.0
 10
612.471568846647
 20
2488.216034447511
 30
0.0
 10
609.9998000774159
 20
2487.252037671984
 30
0.0
 10
607.0056979005516
 20
2486.229200249284
 30
0.0
 10
603.593769577179
 20
2485.172861521578
 30
0.0
 10
599.8958313277767
 20
2484.11586078163
 30
0.0
 10
596.0284784855596
 20
2483.086348169026
 30
0.0
 10
592.137346610838
 20
2482.122789891198
 30
0.0
 10
588.3541321013845
 20
2481.262318831641
 30
0.0
 10
584.8246346111562
 20
2480.545821266429
 30
0.0
 10
581.7010492922959
 20
2480.014966028271
 30
0.0
 10
579.093450818538
 20
2479.696626906651
 30
0.0
 10
577.2119897515017
 20
2479.642028390006
 30
0.0
 10
576.1830684001841
 20
2479.733311841491
 30
0.0
 10
576.0469825860258
 20
2479.914585168615
 30
0.0
 10
576.0223065596281
 20
2479.947454909175
 30
0.0
  0
SPLINE
  5
1CC
330
1F
100
AcDbEntity
  8
0
  6
Continuous
 62
     7
370
    15
100
AcDbSpline
210
0.0
220
0.0
230
1.0
 70
     8
 71
     3
 72
    12
 73
     8
 74
     0
 42
0.000000001
 43
0.00000001
 40
0.0
 40
0.0
 40
0.0
 40
0.0
 40
0.2499714980307364
 40
0.4999482582008883
 40
0.6666092642532219
 40
0.8332776003114327
 40
1.0
 40
1.0
 40
1.0
 40
1.0
 10
668.5958174705993
 20
2484.959009823007
 30
0.0
 10
668.2085126932951
 20
2484.190053955665
 30
0.0
 10
667.4338949855503
 20
2482.652126033723
 30
0.0
 10
666.4013414974485
 20
2481.127206562198
 30
0.0
 10
665.4980799557956
 20
2479.841798320802
 30
0.0
 10
664.7237882742145
 20
2478.719871656898
 30
0.0
 10
664.2079217261436
 20
2477.609610346318
 30
0.0
 10
663.9499466248836
 20
2477.054389669395
 30
0.0
  0
SPLINE
  5
1CD
330
1F
100
AcDbEntity
  8
0
  6
Continuous
 62
     7
370
    15
100
AcDbSpline
210
0.0
220
0.0
230
1.0
 70
     8
 71
     3
 72
    15
 73
    11
 74
     0
 42
0.000000001
 43
0.00000001
 40
0.0
 40
0.0
 40
0.0
 40
0.0
 40
0.1248383576862522
 40
0.2499675273632797
 40
0.3745099936088619
 40
0.49976773118349
 40
0.6242819799856886
 40
0.7495257693801981
 40
0.874195081183746
 40
1.0
 40
1.0
 40
1.0
 40
1.0
 10
642.9717353905868
 20
2485.359191288014
 30
0.0
 10
644.7807004693207
 20
2485.601188108755
 30
0.0
 10
648.4028446259595
 20
2486.085745483842
 30
0.0
 10
653.4883065789445
 20
2486.529613720105
 30
0.0
 10
658.0903755069365
 20
2486.755333311414
 30
0.0
 10
662.0155175908585
 20
2486.750267737277
 30
0.0
 10
665.1446765207717
 20
2486.538335809521
 30
0.0
 10
667.3347132482262
 20
2486.146878050369
 30
0.0
 10
668.6167679168711
 20
2485.616199472252
 30
0.0
 10
668.6028220287747
 20
2485.178734170194
 30
0.0
 10
668.5958174705993
 20
2484.959009823007
 30
0.0
  0
SPLINE
  5
1CE
330
1F
100
AcDbEntity
  8
0
  6
Continuous
 62
     7
370
    15
100
AcDbSpline
210
0.0
220
0.0
230
1.0
 70
     8
 71
     3
 72
    11
 73
     7
 74
     0
 42
0.000000001
 43
0.00000001
 40
0.0
 40
0.0
 40
0.0
 40
0.0
 40
0.2501190051004888
 40
0.4999790664244022
 40
0.7498137513210438
 40
0.9999999999999999
 40
0.9999999999999999
 40
0.9999999999999999
 40
0.9999999999999999
 10
559.2436275127282
 20
2466.797826275837
 30
0.0
 10
566.1332561775561
 20
2468.74022568988
 30
0.0
 10
579.905380796665
 20
2472.623013586251
 30
0.0
 10
600.7518752669581
 20
2477.709015365906
 30
0.0
 10
621.7652890628624
 20
2482.066109434933
 30
0.0
 10
635.8996073437712
 20
2484.260982933171
 30
0.0
 10
642.9717353905868
 20
2485.359191288014
 30
0.0
  0
SPLINE
  5
1CF
330
1F
100
AcDbEntity
  8
0
  6
Continuous
 62
     7
370
    15
100
AcDbSpline
210
0.0
220
0.0
230
1.0
 70
     8
 71
     3
 72
    15
 73
    11
 74
     0
 42
0.000000001
 43
0.00000001
 40
0.0
 40
0.0
 40
0.0
 40
0.0
 40
0.1249376330514466
 40
0.2494577901783601
 40
0.3748042887320506
 40
0.4992574701957341
 40
0.6246306289961482
 40
0.7492103853683245
 40
0.874232655540852
 40
0.9999999999999999
 40
0.9999999999999999
 40
0.9999999999999999
 40
0.9999999999999999
 10
531.1419593903191
 20
2460.511420230946
 30
0.0
 10
531.7265093228302
 20
2460.524844250009
 30
0.0
 10
532.893655929114
 20
2460.551647432116
 30
0.0
 10
535.4305149118466
 20
2460.905065725641
 30
0.0
 10
538.4591256407022
 20
2461.464025910241
 30
0.0
 10
541.982986148372
 20
2462.232111775475
 30
0.0
 10
545.8922979185019
 20
2463.17227478191
 30
0.0
 10
550.1252431693315
 20
2464.263413989077
 30
0.0
 10
554.5916391703838
 20
2465.471558120504
 30
0.0
 10
557.6898965136141
 20
2466.354862150729
 30
0.0
 10
559.2436275127282
 20
2466.797826275837
 30
0.0
  0
SPLINE
  5
1D0
330
1F
100
AcDbEntity
  8
0
  6
Continuous
 62
     7
370
    15
100
AcDbSpline
210
0.0
220
0.0
230
1.0
 70
     8
 71
     3
 72
    15
 73
    11
 74
     0
 42
0.000000001
 43
0.00000001
 40
0.0
 40
0.0
 40
0.0
 40
0.0
 40
0.1253126906535317
 40
0.2498044998513742
 40
0.3741496877463588
 40
0.4990482899911519
 40
0.6247253390302275
 40
0.7497145168393012
 40
0.8745422653156568
 40
1.0
 40
1.0
 40
1.0
 40
1.0
 10
528.3195425477804
 20
2470.236250728675
 30
0.0
 10
527.5322628093372
 20
2469.538527229317
 30
0.0
 10
525.9628605382721
 20
2468.147650783501
 30
0.0
 10
524.5083491777751
 20
2466.309091632044
 30
0.0
 10
523.7243163576518
 20
2464.656698502716
 30
0.0
 10
523.6909746393587
 20
2463.241182056589
 30
0.0
 10
524.3979505860684
 20
2462.086105717714
 30
0.0
 10
525.8727259275187
 20
2461.232874298822
 30
0.0
 10
528.0392674142585
 20
2460.670414093726
 30
0.0
 10
530.1059946988676
 20
2460.56450704371
 30
0.0
 10
531.1419593903191
 20
2460.511420230946
 30
0.0
  0
SPLINE
  5
1D1
330
1F
100
AcDbEntity
  8
0
  6
Continuous
 62
     7
370
    15
100
AcDbSpline
210
0.0
220
0.0
230
1.0
 70
     8
 71
     3
 72
    15
 73
    11
 74
     0
 42
0.000000001
 43
0.00000001
 40
0.0
 40
0.0
 40
0.0
 40
0.0
 40
0.1249430022509197
 40
0.2496352022177445
 40
0.3748520349016851
 40
0.4993969411251412
 40
0.6247263663172361
 40
0.7490552207327998
 40
0.8745414775023592
 40
1.0
 40
1.0
 40
1.0
 40
1.0
 10
562.1743051849433
 20
2484.935752534039
 30
0.0
 10
560.2581138817925
 20
2484.319866657895
 30
0.0
 10
556.4295777106408
 20
2483.089331194008
 30
0.0
 10
550.8856652873218
 20
2481.092433335195
 30
0.0
 10
545.6555730180097
 20
2479.060165321543
 30
0.0
 10
540.8513311873895
 20
2477.030510181615
 30
0.0
 10
536.595827342746
 20
2475.072654907542
 30
0.0
 10
533.0023333392568
 20
2473.24389891512
 30
0.0
 10
530.1010938427022
 20
2471.582499963986
 30
0.0
 10
528.9133492231382
 20
2470.684967408853
 30
0.0
 10
528.3195425477803
 20
2470.236250728675
 30
0.0
  0
SPLINE
  5
1D2
330
1F
100
AcDbEntity
  8
0
  6
Continuous
 62
     7
370
    15
100
AcDbSpline
210
0.0
220
0.0
230
1.0
 70
     8
 71
     3
 72
    22
 73
    18
 74
     0
 42
0.000000001
 43
0.00000001
 40
0.0
 40
0.0
 40
0.0
 40
0.0
 40
0.0718174611236709
 40
0.143283210380014
 40
0.2145315867288984
 40
0.2857413045503002
 40
0.3570579160394201
 40
0.4285906846491315
 40
0.5004007253996249
 40
0.5630750217338286
 40
0.6255221667201988
 40
0.6878146664845617
 40
0.7500233746647631
 40
0.8122349233248974
 40
0.8745615692943245
 40
0.9371279549050329
 40
1.0
 40
1.0
 40
1.0
 40
1.0
 10
922.1743051849433
 20
2484.934430998027
 30
0.0
 10
913.8008826511905
 20
2487.468602012264
 30
0.0
 10
897.0950447709234
 20
2492.524533437444
 30
0.0
 10
871.6907237060226
 20
2498.699464206627
 30
0.0
 10
846.0908502643374
 20
2503.603288281891
 30
0.0
 10
820.2975855918571
 20
2507.230635447244
 30
0.0
 10
794.3410622522523
 20
2509.754142072616
 30
0.0
 10
768.2329938679684
 20
2511.261708304388
 30
0.0
 10
743.1388791495266
 20
2511.745943811819
 30
0.0
 10
719.1519152852251
 20
2511.340819831144
 30
0.0
 10
696.3505560165274
 20
2510.177497815797
 30
0.0
 10
673.6579143155165
 20
2508.248766815924
 30
0.0
 10
651.0772317202883
 20
2505.506219559143
 30
0.0
 10
628.618623643633
 20
2501.86211406461
 30
0.0
 10
606.298685249191
 20
2497.228126303265
 30
0.0
 10
584.1238624423873
 20
2491.596825371104
 30
0.0
 10
569.5027002083064
 20
2487.159714159181
 30
0.0
 10
562.1743051849433
 20
2484.935752534039
 30
0.0
  0
SPLINE
  5
1D3
330
1F
100
AcDbEntity
  8
0
  6
Continuous
 62
     7
370
    15
100
AcDbSpline
210
0.0
220
0.0
230
1.0
 70
     8
 71
     3
 72
    15
 73
    11
 74
     0
 42
0.000000001
 43
0.00000001
 40
0.0
 40
0.0
 40
0.0
 40
0.0
 40
0.1248989672041086
 40
0.2497209348632229
 40
0.3747959911725162
 40
0.4996340419898636
 40
0.6247435487825099
 40
0.7493677115542018
 40
0.8747833569161491
 40
1.0
 40
1.0
 40
1.0
 40
1.0
 10
956.0290678221061
 20
2470.238098368322
 30
0.0
 10
955.4399734845537
 20
2470.683967256056
 30
0.0
 10
954.262147982956
 20
2471.57543015574
 30
0.0
 10
951.3647862884849
 20
2473.232290345631
 30
0.0
 10
947.7809351314256
 20
2475.055311334603
 30
0.0
 10
943.5188745536946
 20
2477.014956512516
 30
0.0
 10
938.7235104532972
 20
2479.041132303505
 30
0.0
 10
933.4867124980263
 20
2481.078011048033
 30
0.0
 10
927.9369777684336
 20
2483.07905746885
 30
0.0
 10
924.0941789841297
 20
2484.316300612384
 30
0.0
 10
922.1743051849431
 20
2484.934430998027
 30
0.0
  0
SPLINE
  5
1D4
330
1F
100
AcDbEntity
  8
0
  6
Continuous
 62
     7
370
    15
100
AcDbSpline
210
0.0
220
0.0
230
1.0
 70
     8
 71
     3
 72
    15
 73
    11
 74
     0
 42
0.000000001
 43
0.00000001
 40
0.0
 40
0.0
 40
0.0
 40
0.0
 40
0.1253286913905742
 40
0.2497155426471104
 40
0.3739506633389578
 40
0.498798051735244
 40
0.6244876636984417
 40
0.7495670942348442
 40
0.8745111366372395
 40
1.0
 40
1.0
 40
1.0
 40
1.0
 10
953.2066509795673
 20
2460.511483617727
 30
0.0
 10
954.2416545825231
 20
2460.565106278965
 30
0.0
 10
956.3038837774995
 20
2460.671948629273
 30
0.0
 10
958.4646153988424
 20
2461.232342690245
 30
0.0
 10
959.9380725474668
 20
2462.079202647964
 30
0.0
 10
960.653216340977
 20
2463.227558865079
 30
0.0
 10
960.6294146956213
 20
2464.642830914741
 30
0.0
 10
959.8481648081121
 20
2466.301702974363
 30
0.0
 10
958.3904738671308
 20
2468.14622511923
 30
0.0
 10
956.8173439605579
 20
2469.539796705887
 30
0.0
 10
956.0290678221062
 20
2470.238098368322
 30
0.0
  0
SPLINE
  5
1D5
330
1F
100
AcDbEntity
  8
0
  6
Continuous
 62
     7
370
    15
100
AcDbSpline
210
0.0
220
0.0
230
1.0
 70
     8
 71
     3
 72
    15
 73
    11
 74
     0
 42
0.000000001
 43
0.00000001
 40
0.0
 40
0.0
 40
0.0
 40
0.0
 40
0.1250954691891243
 40
0.2496344123619166
 40
0.3751411620401947
 40
0.4995703591419636
 40
0.6245499351979202
 40
0.749646950036774
 40
0.8741733403233933
 40
1.0
 40
1.0
 40
1.0
 40
1.0
 10
925.1049828571582
 20
2466.795601730155
 30
0.0
 10
926.6505807008858
 20
2466.354280075372
 30
0.0
 10
929.7349003166779
 20
2465.473600122144
 30
0.0
 10
934.198297695469
 20
2464.264998462083
 30
0.0
 10
938.427750312245
 20
2463.173683762433
 30
0.0
 10
942.3442178233752
 20
2462.231634926618
 30
0.0
 10
945.8652910702612
 20
2461.46451147379
 30
0.0
 10
948.9000114925454
 20
2460.905247497934
 30
0.0
 10
951.443632852681
 20
2460.551877773083
 30
0.0
 10
952.6169469732886
 20
2460.524994877129
 30
0.0
 10
953.2066509795674
 20
2460.511483617727
 30
0.0
  0
SPLINE
  5
1D6
330
1F
100
AcDbEntity
  8
0
  6
Continuous
 62
     7
370
    15
100
AcDbSpline
210
0.0
220
0.0
230
1.0
 70
     8
 71
     3
 72
    11
 73
     7
 74
     0
 42
0.000000001
 43
0.00000001
 40
0.0
 40
0.0
 40
0.0
 40
0.0
 40
0.2501844504654327
 40
0.5000199957653734
 40
0.7498787045002163
 40
1.0
 40
1.0
 40
1.0
 40
1.0
 10
841.3768749792997
 20
2485.360323287706
 30
0.0
 10
848.4488805644309
 20
2484.261234951174
 30
0.0
 10
862.5830291741928
 20
2482.064591057612
 30
0.0
 10
883.5967562973319
 20
2477.708814930727
 30
0.0
 10
904.4446268650441
 20
2472.627138192451
 30
0.0
 10
918.2157866805032
 20
2468.740127696475
 30
0.0
 10
925.1049828571582
 20
2466.795601730155
 30
0.0
  0
SPLINE
  5
1D7
330
1F
100
AcDbEntity
  8
0
  6
Continuous
 62
     7
370
    15
100
AcDbSpline
210
0.0
220
0.0
230
1.0
 70
     8
 71
     3
 72
    15
 73
    11
 74
     0
 42
0.000000001
 43
0.00000001
 40
0.0
 40
0.0
 40
0.0
 40
0.0
 40
0.1248588076731485
 40
0.2499761431157676
 40
0.3745532304217309
 40
0.4998005208732759
 40
0.6242770335286003
 40
0.7495619611205688
 40
0.8741539404848943
 40
1.0
 40
1.0
 40
1.0
 40
1.0
 10
815.7527928992871
 20
2484.959136542509
 30
0.0
 10
815.7451567631189
 20
2485.177247854011
 30
0.0
 10
815.7298686796971
 20
2485.613922089773
 30
0.0
 10
817.0021422248627
 20
2486.143751397974
 30
0.0
 10
819.1887030924048
 20
2486.536787522416
 30
0.0
 10
822.3066488287726
 20
2486.749652903627
 30
0.0
 10
826.2337332147898
 20
2486.756266985828
 30
0.0
 10
830.8252517557204
 20
2486.532708923015
 30
0.0
 10
835.9243867782935
 20
2486.089170256155
 30
0.0
 10
839.5533215589536
 20
2485.604081977909
 30
0.0
 10
841.3768749792997
 20
2485.360323287706
 30
0.0
  0
SPLINE
  5
1D8
330
1F
100
AcDbEntity
  8
0
  6
Continuous
 62
     7
370
    15
100
AcDbSpline
210
0.0
220
0.0
230
1.0
 70
     8
 71
     3
 72
    12
 73
     8
 74
     0
 42
0.000000001
 43
0.00000001
 40
0.0
 40
0.0
 40
0.0
 40
0.0
 40
0.1667223754313849
 40
0.3333906914289282
 40
0.5000516854694865
 40
0.7500284522049658
 40
0.9999999999999999
 40
0.9999999999999999
 40
0.9999999999999999
 40
0.9999999999999999
 10
820.3986797379024
 20
2477.054634275957
 30
0.0
 10
820.1407010443264
 20
2477.609845843388
 30
0.0
 10
819.6248273063075
 20
2478.720088951885
 30
0.0
 10
818.8505293442468
 20
2479.841989282977
 30
0.0
 10
817.9472637713055
 20
2481.127372164901
 30
0.0
 10
816.9147099893607
 20
2482.652269865816
 30
0.0
 10
816.1400959005899
 20
2484.190186335028
 30
0.0
 10
815.7527928992871
 20
2484.959136542509
 30
0.0
  0
SPLINE
  5
1D9
330
1F
100
AcDbEntity
  8
0
  6
Continuous
 62
     7
370
    15
100
AcDbSpline
210
0.0
220
0.0
230
1.0
 70
     8
 71
     3
 72
    12
 73
     8
 74
     0
 42
0.000000001
 43
0.00000001
 40
0.0
 40
0.0
 40
0.0
 40
0.0
 40
0.2010946504065013
 40
0.4020259239636514
 40
0.6017330856143639
 40
0.8008024099074527
 40
1.0
 40
1.0
 40
1.0
 40
1.0
 10
823.2564951882292
 20
2464.254491081086
 30
0.0
 10
823.0443116805368
 20
2465.651213683437
 30
0.0
 10
822.6201170510058
 20
2468.44352413822
 30
0.0
 10
822.0239029302029
 20
2471.487365830938
 30
0.0
 10
821.4564445489269
 20
2473.890008508204
 30
0.0
 10
820.9150284596038
 20
2475.730236321519
 30
0.0
 10
820.5709415119691
 20
2476.61279728487
 30
0.0
 10
820.3988426298491
 20
2477.05421988529
 30
0.0
  0
SPLINE
  5
1DA
330
1F
100
AcDbEntity
  8
0
  6
Continuous
 62
     7
370
    15
100
AcDbSpline
210
0.0
220
0.0
230
1.0
 70
     8
 71
     3
 72
    10
 73
     6
 74
     0
 42
0.000000001
 43
0.00000001
 40
0.0
 40
0.0
 40
0.0
 40
0.0
 40
0.3330768012687974
 40
0.6654158796728645
 40
1.0
 40
1.0
 40
1.0
 40
1.0
 10
824.7145794915409
 20
2452.20923985847
 30
0.0
 10
824.5496340964246
 20
2453.736300131436
 30
0.0
 10
824.2201086393192
 20
2456.787038432569
 30
0.0
 10
823.7312583490831
 20
2460.827412305587
 30
0.0
 10
823.4151043281877
 20
2463.109570703999
 30
0.0
 10
823.2564951882292
 20
2464.254491081086
 30
0.0
  0
SPLINE
  5
1DB
330
1F
100
AcDbEntity
  8
0
  6
Continuous
 62
     7
370
    15
100
AcDbSpline
210
0.0
220
0.0
230
1.0
 70
     8
 71
     3
 72
    15
 73
    11
 74
     0
 42
0.000000001
 43
0.00000001
 40
0.0
 40
0.0
 40
0.0
 40
0.0
 40
0.1249075696527679
 40
0.2500099103251108
 40
0.3747959867367061
 40
0.5000718115166186
 40
0.6246669043886223
 40
0.7499715715637858
 40
0.8743952744043055
 40
1.0
 40
1.0
 40
1.0
 40
1.0
 10
852.1737010718824
 20
2429.457777793462
 30
0.0
 10
850.4154511838893
 20
2429.668405061178
 30
0.0
 10
846.8962097316036
 20
2430.089988032172
 30
0.0
 10
841.8980194388856
 20
2431.788783238448
 30
0.0
 10
837.2990536236912
 20
2434.160911929615
 30
0.0
 10
833.2510491730887
 20
2437.15894786058
 30
0.0
 10
829.8496571050318
 20
2440.629542865158
 30
0.0
 10
827.2319140171477
 20
2444.405721954821
 30
0.0
 10
825.3881395608942
 20
2448.353661164517
 30
0.0
 10
824.9398054248092
 20
2450.920006204123
 30
0.0
 10
824.7145794915408
 20
2452.20923985847
 30
0.0
  0
LINE
  5
1DC
330
1F
100
AcDbEntity
  8
0
  6
Continuous
 62
     7
370
    15
100
AcDbLine
 10
905.0085214664
 20
2425.7044163977
 30
0.0
 11
852.1737010719
 21
2429.4577777935
 31
0.0
  0
LINE
  5
1DD
330
1F
100
AcDbEntity
  8
0
  6
Continuous
 62
     7
370
    15
100
AcDbLine
 10
909.9479684861
 20
2425.0423091912
 30
0.0
 11
905.0085214664
 21
2425.7044163977
 31
0.0
  0
SPLINE
  5
1DE
330
1F
100
AcDbEntity
  8
0
  6
Continuous
 62
     7
370
    15
100
AcDbSpline
210
0.0
220
0.0
230
1.0
 70
     8
 71
     3
 72
    15
 73
    11
 74
     0
 42
0.000000001
 43
0.00000001
 40
0.0
 40
0.0
 40
0.0
 40
0.0
 40
0.1249601196645072
 40
0.2500127170096473
 40
0.3748707461875823
 40
0.4999965733265132
 40
0.6248208008781897
 40
0.7500496380514812
 40
0.8747641347936631
 40
1.0
 40
1.0
 40
1.0
 40
1.0
 10
942.1743051849431
 20
2385.804952515729
 30
0.0
 10
942.059343076648
 20
2388.10621214769
 30
0.0
 10
941.8293337814812
 20
2392.710434476187
 30
0.0
 10
939.9880515463357
 20
2399.405231939035
 30
0.0
 10
937.1132647790008
 20
2405.690386328631
 30
0.0
 10
933.1936843184419
 20
2411.367346766406
 30
0.0
 10
928.3800243914842
 20
2416.289191840394
 30
0.0
 10
922.8067159730084
 20
2420.283143622823
 30
0.0
 10
916.6402344414023
 20
2423.37219487259
 30
0.0
 10
912.1818237197064
 20
2424.484830807026
 30
0.0
 10
909.947968486115
 20
2425.042309191224
 30
0.0
  0
SPLINE
  5
1DF
330
1F
100
AcDbEntity
  8
0
  6
Continuous
 62
     7
370
    15
100
AcDbSpline
210
0.0
220
0.0
230
1.0
 70
     8
 71
     3
 72
    19
 73
    15
 74
     0
 42
0.000000001
 43
0.00000001
 40
0.0
 40
0.0
 40
0.0
 40
0.0
 40
0.055987938960383
 40
0.1119820318938523
 40
0.1679810327693693
 40
0.223983119359693
 40
0.2799840019010026
 40
0.3899869204237754
 40
0.4999906131888792
 40
0.5999905907325127
 40
0.6999938318798089
 40
0.7999941371733759
 40
0.899995500008683
 40
1.0
 40
1.0
 40
1.0
 40
1.0
 10
942.1743118700401
 20
2125.804952793404
 30
0.0
 10
942.1743116204574
 20
2130.608697163875
 30
0.0
 10
942.1743111212646
 20
2140.216713913421
 30
0.0
 10
942.1743103725496
 20
2154.761246902746
 30
0.0
 10
942.1743096238284
 20
2169.321289368408
 30
0.0
 10
942.1743088751358
 20
2183.892323709052
 30
0.0
 10
942.1743078857216
 20
2203.149112340312
 30
0.0
 10
942.1743066556695
 20
2227.091237228843
 30
0.0
 10
942.1743052295664
 20
2254.84964930112
 30
0.0
 10
942.1743038479186
 20
2281.736571619361
 30
0.0
 10
942.1743025109663
 20
2307.748089924034
 30
0.0
 10
942.1743011739123
 20
2333.761185389922
 30
0.0
 10
942.1742998368844
 20
2359.780161424306
 30
0.0
 10
942.1742989455616
 20
2377.129931084113
 30
0.0
 10
942.1742984998932
 20
2385.804951982363
 30
0.0
  0
SPLINE
  5
1E0
330
1F
100
AcDbEntity
  8
0
  6
Continuous
 62
     7
370
    15
100
AcDbSpline
210
0.0
220
0.0
230
1.0
 70
     8
 71
     3
 72
    20
 73
    16
 74
     0
 42
0.000000001
 43
0.00000001
 40
0.0
 40
0.0
 40
0.0
 40
0.0
 40
0.0626364884971816
 40
0.1247397382324264
 40
0.1872131023981178
 40
0.2500143218218205
 40
0.333279945711147
 40
0.4169341654700874
 40
0.5001350814568848
 40
0.5832027959985108
 40
0.6668265766459367
 40
0.7496640754664592
 40
0.8324243388566409
 40
0.916153135446807
 40
1.0
 40
1.0
 40
1.0
 40
1.0
 10
887.2962564044548
 20
2066.023972131455
 30
0.0
 10
889.2340726113756
 20
2066.244954580099
 30
0.0
 10
893.0932079523477
 20
2066.685038203225
 30
0.0
 10
898.668130280548
 20
2068.0312835149
 30
0.0
 10
904.01063085699
 20
2069.824000883342
 30
0.0
 10
909.6457168020365
 20
2072.334283192698
 30
0.0
 10
915.4416375861861
 20
2075.695207935136
 30
0.0
 10
921.2083906731469
 20
2080.048848977945
 30
0.0
 10
926.4005669032375
 20
2085.046116766651
 30
0.0
 10
930.9785676831895
 20
2090.650342134008
 30
0.0
 10
934.8765792473048
 20
2096.815528870194
 30
0.0
 10
938.0359599426807
 20
2103.487553759795
 30
0.0
 10
940.3672869384767
 20
2110.598038885379
 30
0.0
 10
941.8841186340642
 20
2118.06913719241
 30
0.0
 10
942.0775309108033
 20
2123.225136495562
 30
0.0
 10
942.1743051849431
 20
2125.804952515729
 30
0.0
  0
SPLINE
  5
1E1
330
1F
100
AcDbEntity
  8
0
  6
Continuous
 62
     7
370
    15
100
AcDbSpline
210
0.0
220
0.0
230
1.0
 70
     8
 71
     3
 72
    16
 73
    12
 74
     0
 42
0.000000001
 43
0.00000001
 40
0.0
 40
0.0
 40
0.0
 40
0.0
 40
0.1120327533868409
 40
0.2239667787226176
 40
0.335862665475669
 40
0.447807893447628
 40
0.5598943495341676
 40
0.6699569533385886
 40
0.7799385002248768
 40
0.8899328481650125
 40
1.0
 40
1.0
 40
1.0
 40
1.0
 10
597.0523539654315
 20
2066.023972131455
 30
0.0
 10
607.8500200578429
 20
2065.15880093826
 30
0.0
 10
629.4358368777648
 20
2063.429220977707
 30
0.0
 10
661.9021529027116
 20
2061.618255023516
 30
0.0
 10
694.4183326741514
 20
2060.383441189457
 30
0.0
 10
726.9961626744832
 20
2059.782329271708
 30
0.0
 10
759.411465707165
 20
2059.803800584481
 30
0.0
 10
791.6188307445424
 20
2060.435276347648
 30
0.0
 10
823.5773007837313
 20
2061.675390670179
 30
0.0
 10
855.4789113983772
 20
2063.471489133665
 30
0.0
 10
876.6881358227063
 20
2065.172956830894
 30
0.0
 10
887.2962564044549
 20
2066.023972131455
 30
0.0
  0
SPLINE
  5
1E2
330
1F
100
AcDbEntity
  8
0
  6
Continuous
 62
     7
370
    15
100
AcDbSpline
210
0.0
220
0.0
230
1.0
 70
     8
 71
     3
 72
    20
 73
    16
 74
     0
 42
0.000000001
 43
0.00000001
 40
0.0
 40
0.0
 40
0.0
 40
0.0
 40
0.0833308546512803
 40
0.166214991381031
 40
0.2498230163154906
 40
0.3329310723557968
 40
0.4161653192719567
 40
0.4996939864731084
 40
0.5826798997358726
 40
0.6660730570957991
 40
0.7494529990035697
 40
0.8117033275710662
 40
0.8743381284304494
 40
0.9371733381828651
 40
1.0
 40
1.0
 40
1.0
 40
1.0
 10
542.1743051849433
 20
2125.804952515729
 30
0.0
 10
542.2695950235225
 20
2123.240980074501
 30
0.0
 10
542.4596638733428
 20
2118.126780070152
 30
0.0
 10
543.9638259186167
 20
2110.668928720784
 30
0.0
 10
546.2871377316662
 20
2103.545644996867
 30
0.0
 10
549.4517410946424
 20
2096.85138775562
 30
0.0
 10
553.353516798838
 20
2090.676827592495
 30
0.0
 10
557.9241771916213
 20
2085.071016331757
 30
0.0
 10
563.113368963826
 20
2080.071257656261
 30
0.0
 10
568.8705527697304
 20
2075.721335330766
 30
0.0
 10
574.6448368146762
 20
2072.365322817499
 30
0.0
 10
580.2670534211775
 20
2069.850526413876
 30
0.0
 10
585.6161539521972
 20
2068.048753234775
 30
0.0
 10
591.2214621747514
 20
2066.690128337546
 30
0.0
 10
595.1088115119821
 20
2066.246014130114
 30
0.0
 10
597.0523539654309
 20
2066.023972131455
 30
0.0
  0
SPLINE
  5
1E3
330
1F
100
AcDbEntity
  8
0
  6
Continuous
 62
     7
370
    15
100
AcDbSpline
210
0.0
220
0.0
230
1.0
 70
     8
 71
     3
 72
    18
 73
    14
 74
     0
 42
0.000000001
 43
0.00000001
 40
0.0
 40
0.0
 40
0.0
 40
0.0
 40
0.1000045908815772
 40
0.2000060460520374
 40
0.3000064492623736
 40
0.4000097879873529
 40
0.5000098592901953
 40
0.6400147362234065
 40
0.7800161941969175
 40
0.8350185032647794
 40
0.890017073218679
 40
0.945011614635873
 40
1.0
 40
1.0
 40
1.0
 40
1.0
 10
542.1743317125802
 20
2385.804950401863
 30
0.0
 10
542.1743299440838
 20
2377.129928044234
 30
0.0
 10
542.1743264071464
 20
2359.78015534013
 30
0.0
 10
542.1743211015671
 20
2333.761179279613
 30
0.0
 10
542.1743157958853
 20
2307.748077265519
 30
0.0
 10
542.1743104906099
 20
2281.736575814607
 30
0.0
 10
542.1743044773701
 20
2252.247575662465
 30
0.0
 10
542.1742977574012
 20
2219.284316205461
 30
0.0
 10
542.1742918325658
 20
2190.223529320562
 30
0.0
 10
542.1742874115556
 20
2168.540885599608
 30
0.0
 10
542.174284493491
 20
2154.241502208332
 30
0.0
 10
542.1742815755424
 20
2139.958398279933
 30
0.0
 10
542.174279630022
 20
2130.522592454475
 30
0.0
 10
542.1742786573162
 20
2125.804953616013
 30
0.0
  0
SPLINE
  5
1E4
330
1F
100
AcDbEntity
  8
0
  6
Continuous
 62
     7
370
    15
100
AcDbSpline
210
0.0
220
0.0
230
1.0
 70
     8
 71
     3
 72
    15
 73
    11
 74
     0
 42
0.000000001
 43
0.00000001
 40
0.0
 40
0.0
 40
0.0
 40
0.0
 40
0.1245830995202468
 40
0.2498042776538784
 40
0.3745715279724091
 40
0.4996476993181723
 40
0.6243293983456993
 40
0.7493967363233955
 40
0.874153838697153
 40
1.0
 40
1.0
 40
1.0
 40
1.0
 10
574.3846738497859
 20
2425.039142244362
 30
0.0
 10
572.1640549628016
 20
2424.48224350058
 30
0.0
 10
567.7114438209709
 20
2423.365593738675
 30
0.0
 10
561.5523930778907
 20
2420.291585342142
 30
0.0
 10
555.9768489087271
 20
2416.295050468088
 30
0.0
 10
551.1705903009789
 20
2411.385865969351
 30
0.0
 10
547.2488110947063
 20
2405.712956006277
 30
0.0
 10
544.3737157482831
 20
2399.440887726826
 30
0.0
 10
542.5227022729862
 20
2392.735747055171
 30
0.0
 10
542.2907735156937
 20
2388.121900901598
 30
0.0
 10
542.1743051849433
 20
2385.804952515729
 30
0.0
  0
LINE
  5
1E5
330
1F
100
AcDbEntity
  8
0
  6
Continuous
 62
     7
370
    15
100
AcDbLine
 10
579.3400889034
 20
2425.7044163977
 30
0.0
 11
574.3846738498
 21
2425.0391422444
 31
0.0
  0
LINE
  5
1E6
330
1F
100
AcDbEntity
  8
0
  6
Continuous
 62
     7
370
    15
100
AcDbLine
 10
632.174909298
 20
2429.4574820688
 30
0.0
 11
579.3400889034
 21
2425.7044163977
 31
0.0
  0
SPLINE
  5
1E7
330
1F
100
AcDbEntity
  8
0
  6
Continuous
 62
     7
370
    15
100
AcDbSpline
210
0.0
220
0.0
230
1.0
 70
     8
 71
     3
 72
    15
 73
    11
 74
     0
 42
0.000000001
 43
0.00000001
 40
0.0
 40
0.0
 40
0.0
 40
0.0
 40
0.1249074390094517
 40
0.2500098619615485
 40
0.3747958436944946
 40
0.5000719097253559
 40
0.624666727450523
 40
0.7499715038175803
 40
0.874394895100755
 40
1.0
 40
1.0
 40
1.0
 40
1.0
 10
632.1749092980041
 20
2429.457482068848
 30
0.0
 10
633.9331665087782
 20
2429.66795396304
 30
0.0
 10
637.4524256181196
 20
2430.089226303832
 30
0.0
 10
642.4506319264685
 20
2431.787957038076
 30
0.0
 10
647.0495900659076
 20
2434.160148092673
 30
0.0
 10
651.097573628418
 20
2437.158305232173
 30
0.0
 10
654.498952871331
 20
2440.629016449191
 30
0.0
 10
657.1166898352893
 20
2444.405278038907
 30
0.0
 10
658.960468349632
 20
2448.353275108348
 30
0.0
 10
659.4088037106171
 20
2450.919633725865
 30
0.0
 10
659.6340308783456
 20
2452.208877745183
 30
0.0
  0
SPLINE
  5
1E8
330
1F
100
AcDbEntity
  8
0
  6
Continuous
 62
     7
370
    15
100
AcDbSpline
210
0.0
220
0.0
230
1.0
 70
     8
 71
     3
 72
    10
 73
     6
 74
     0
 42
0.000000001
 43
0.00000001
 40
0.0
 40
0.0
 40
0.0
 40
0.0
 40
0.333077074692651
 40
0.6654162208656147
 40
1.0
 40
1.0
 40
1.0
 40
1.0
 10
659.6340308783455
 20
2452.208877745183
 30
0.0
 10
659.7989706676568
 20
2453.735890914523
 30
0.0
 10
660.1284848240276
 20
2456.78653417267
 30
0.0
 10
660.6173185774824
 20
2460.826803594483
 30
0.0
 10
660.933462466027
 20
2463.108922253087
 30
0.0
 10
661.0920664260435
 20
2464.253821995253
 30
0.0
  0
SPLINE
  5
1E9
330
1F
100
AcDbEntity
  8
0
  6
Continuous
 62
     7
370
    15
100
AcDbSpline
210
0.0
220
0.0
230
1.0
 70
     8
 71
     3
 72
    12
 73
     8
 74
     0
 42
0.000000001
 43
0.00000001
 40
0.0
 40
0.0
 40
0.0
 40
0.0
 40
0.2010946341189831
 40
0.4020258790357041
 40
0.601732955057195
 40
0.8008022906970038
 40
0.9999999999999999
 40
0.9999999999999999
 40
0.9999999999999999
 40
0.9999999999999999
 10
661.0920664260435
 20
2464.253821995253
 30
0.0
 10
661.3042677319687
 20
2465.650679808228
 30
0.0
 10
661.7284979304566
 20
2468.443260488508
 30
0.0
 10
662.3247591832193
 20
2471.487322325737
 30
0.0
 10
662.8922605476384
 20
2473.890096659159
 30
0.0
 10
663.4337162778621
 20
2475.730385470114
 30
0.0
 10
663.777828208822
 20
2476.612959924406
 30
0.0
 10
663.9499396332079
 20
2477.054389391937
 30
0.0
  0
SPLINE
  5
1EA
330
1F
100
AcDbEntity
  8
0
  6
Continuous
 62
     7
370
    15
100
AcDbSpline
210
0.0
220
0.0
230
1.0
 70
     8
 71
     3
 72
    22
 73
    18
 74
     0
 42
0.000000001
 43
0.00000001
 40
0.0
 40
0.0
 40
0.0
 40
0.0
 40
0.0717110056959491
 40
0.1433468246910717
 40
0.2147726585048934
 40
0.2860567782925217
 40
0.3573137672900118
 40
0.4287223875583851
 40
0.5004006674301124
 40
0.5629643442333235
 40
0.6253103762336872
 40
0.6875261629780469
 40
0.7497358584494017
 40
0.8120612618539286
 40
0.8745642216251341
 40
0.9372451475071581
 40
1.0
 40
1.0
 40
1.0
 40
1.0
 10
925.1381266773421
 20
2494.400704616118
 30
0.0
 10
916.6394325819289
 20
2496.972705939808
 30
0.0
 10
899.650955000627
 20
2502.114011925887
 30
0.0
 10
873.7994514654521
 20
2508.398223130054
 30
0.0
 10
847.7268782213117
 20
2513.393330543926
 30
0.0
 10
821.4853549349988
 20
2517.083885872147
 30
0.0
 10
795.1148839425538
 20
2519.647152460686
 30
0.0
 10
768.6159264056463
 20
2521.176844100647
 30
0.0
 10
743.1540120421055
 20
2521.66794332698
 30
0.0
 10
718.8146237328211
 20
2521.2570665506
 30
0.0
 10
695.6734942069985
 20
2520.076708397822
 30
0.0
 10
672.62897565107
 20
2518.118748267093
 30
0.0
 10
649.6717894522303
 20
2515.330570494161
 30
0.0
 10
626.8078751540852
 20
2511.620218016751
 30
0.0
 10
604.071459316123
 20
2506.899232743457
 30
0.0
 10
581.5108700171106
 20
2501.169151794255
 30
0.0
 10
566.649210403362
 20
2496.659340751673
 30
0.0
 10
559.2140011756372
 20
2494.40310628321
 30
0.0
  0
SPLINE
  5
1EB
330
1F
100
AcDbEntity
  8
0
  6
Continuous
 62
     7
370
    15
100
AcDbSpline
210
0.0
220
0.0
230
1.0
 70
     8
 71
     3
 72
    15
 73
    11
 74
     0
 42
0.000000001
 43
0.00000001
 40
0.0
 40
0.0
 40
0.0
 40
0.0
 40
0.1243467712679925
 40
0.2485436876698303
 40
0.373082592925179
 40
0.4976496018787296
 40
0.6228026399349363
 40
0.7477918261391974
 40
0.8738744707275412
 40
1.0
 40
1.0
 40
1.0
 40
1.0
 10
959.277233228896
 20
2479.617986700779
 30
0.0
 10
958.6857166997288
 20
2480.064633595814
 30
0.0
 10
957.5033964997134
 20
2480.957389115288
 30
0.0
 10
954.590669260218
 20
2482.61837392908
 30
0.0
 10
950.984361095161
 20
2484.447291865808
 30
0.0
 10
946.6936578869024
 20
2486.415164050176
 30
0.0
 10
941.8597120729141
 20
2488.453124927462
 30
0.0
 10
936.5741420803395
 20
2490.505369085568
 30
0.0
 10
930.9657540916728
 20
2492.524975710037
 30
0.0
 10
927.0808893388444
 20
2493.77539077521
 30
0.0
 10
925.1381266773421
 20
2494.400704616118
 30
0.0
  0
SPLINE
  5
1EC
330
1F
100
AcDbEntity
  8
0
  6
Continuous
 62
     7
370
    15
100
AcDbSpline
210
0.0
220
0.0
230
1.0
 70
     8
 71
     3
 72
    15
 73
    11
 74
     0
 42
0.000000001
 43
0.00000001
 40
0.0
 40
0.0
 40
0.0
 40
0.0
 40
0.125832846739458
 40
0.2511921470831885
 40
0.3767980269738418
 40
0.5014173128094505
 40
0.6265014900135039
 40
0.7502912187933155
 40
0.8751231186951016
 40
0.9999999999999999
 40
0.9999999999999999
 40
0.9999999999999999
 40
0.9999999999999999
 10
559.2140011756372
 20
2494.40310628321
 30
0.0
 10
557.2749296922917
 20
2493.780045622299
 30
0.0
 10
553.4040840278217
 20
2492.536269062899
 30
0.0
 10
547.8005528004829
 20
2490.520508576003
 30
0.0
 10
542.5198473251123
 20
2488.472292131089
 30
0.0
 10
537.6744436562599
 20
2486.430010365019
 30
0.0
 10
533.3875392552542
 20
2484.463073121772
 30
0.0
 10
529.7704505057886
 20
2482.627989318104
 30
0.0
 10
526.8542770961843
 20
2480.962558555307
 30
0.0
 10
525.6626453948154
 20
2480.063942881235
 30
0.0
 10
525.0667222165761
 20
2479.614554107931
 30
0.0
  0
SPLINE
  5
1ED
330
1F
100
AcDbEntity
  8
0
  6
Continuous
 62
     7
370
    15
100
AcDbSpline
210
0.0
220
0.0
230
1.0
 70
     8
 71
     3
 72
    12
 73
     8
 74
     0
 42
0.000000001
 43
0.00000001
 40
0.0
 40
0.0
 40
0.0
 40
0.0
 40
0.2451401883681326
 40
0.488977367179434
 40
0.7322019807060891
 40
0.9761111410595462
 40
1.0
 40
1.0
 40
1.0
 40
1.0
 10
525.0667222165763
 20
2479.614554107931
 30
0.0
 10
524.2768512801239
 20
2478.915132126771
 30
0.0
 10
522.7013078594829
 20
2477.520005847512
 30
0.0
 10
521.2203900470988
 20
2475.668787053705
 30
0.0
 10
520.4914608013333
 20
2474.034326028373
 30
0.0
 10
520.3050517970339
 20
2472.985778344646
 30
0.0
 10
520.5813486880288
 20
2472.572124161396
 30
0.0
 10
520.6059956868083
 20
2472.535224237865
 30
0.0
  0
SPLINE
  5
1EE
330
1F
100
AcDbEntity
  8
0
  6
Continuous
 62
     7
370
    15
100
AcDbSpline
210
0.0
220
0.0
230
1.0
 70
     8
 71
     3
 72
    12
 73
     8
 74
     0
 42
0.000000001
 43
0.00000001
 40
0.0
 40
0.0
 40
0.0
 40
0.0
 40
0.0203815901588624
 40
0.2656600667087328
 40
0.5101327205323394
 40
0.7546832085385686
 40
1.0
 40
1.0
 40
1.0
 40
1.0
 10
963.7458373710989
 20
2472.533115043278
 30
0.0
 10
963.7670712783046
 20
2472.564542373136
 30
0.0
 10
964.0438407138969
 20
2472.9741760907
 30
0.0
 10
963.8609545445572
 20
2474.020972632302
 30
0.0
 10
963.1353554437038
 20
2475.661663756237
 30
0.0
 10
961.6490607784517
 20
2477.519598461366
 30
0.0
 10
960.0686664867216
 20
2478.917794884214
 30
0.0
 10
959.277233228896
 20
2479.617986700779
 30
0.0
  0
SPLINE
  5
1EF
330
1F
100
AcDbEntity
  8
0
  6
Continuous
 62
     7
370
    15
100
AcDbSpline
210
0.0
220
0.0
230
1.0
 70
     8
 71
     3
 72
    12
 73
     8
 74
     0
 42
0.000000001
 43
0.00000001
 40
0.0
 40
0.0
 40
0.0
 40
0.0
 40
0.2092194882706303
 40
0.4134277899921625
 40
0.6124851858282939
 40
0.8076435049411902
 40
1.0
 40
1.0
 40
1.0
 40
1.0
 10
823.2972152755286
 20
2472.947939177483
 30
0.0
 10
823.1106524138869
 20
2474.525451894234
 30
0.0
 10
822.7419952098151
 20
2477.642693034444
 30
0.0
 10
822.2276683851368
 20
2481.007314882947
 30
0.0
 10
821.7483265825576
 20
2483.606781452566
 30
0.0
 10
821.3027785898383
 20
2485.563760246393
 30
0.0
 10
821.0228195856029
 20
2486.491080158713
 30
0.0
 10
820.8838521684991
 20
2486.951387743375
 30
0.0
  0
SPLINE
  5
1F0
330
1F
100
AcDbEntity
  8
0
  6
Continuous
 62
     7
370
    15
100
AcDbSpline
210
0.0
220
0.0
230
1.0
 70
     8
 71
     3
 72
    12
 73
     8
 74
     0
 42
0.000000001
 43
0.00000001
 40
0.0
 40
0.0
 40
0.0
 40
0.0
 40
0.2092200106246001
 40
0.4134285028005745
 40
0.6124857577886095
 40
0.8076438517397715
 40
1.0
 40
1.0
 40
1.0
 40
1.0
 10
661.0510108564208
 20
2472.947222384043
 30
0.0
 10
661.2376024781122
 20
2474.524886949268
 30
0.0
 10
661.6063162285831
 20
2477.642425740971
 30
0.0
 10
662.1207176476955
 20
2481.007284728364
 30
0.0
 10
662.6001236517172
 20
2483.606885042059
 30
0.0
 10
663.0457269310767
 20
2485.563919778259
 30
0.0
 10
663.3257183318856
 20
2486.491248576835
 30
0.0
 10
663.4647017847212
 20
2486.951560422014
 30
0.0
  0
SPLINE
  5
1F1
330
1F
100
AcDbEntity
  8
0
  6
Continuous
 62
     7
370
    15
100
AcDbSpline
210
0.0
220
0.0
230
1.0
 70
     8
 71
     3
 72
    10
 73
     6
 74
     0
 42
0.000000001
 43
0.00000001
 40
0.0
 40
0.0
 40
0.0
 40
0.0
 40
0.3326757648338818
 40
0.6655400746263371
 40
1.0
 40
1.0
 40
1.0
 40
1.0
 10
824.6296328191079
 20
2459.210519705591
 30
0.0
 10
824.4747721965832
 20
2460.949418889557
 30
0.0
 10
824.1649631838255
 20
2464.428202783666
 30
0.0
 10
823.7209422092108
 20
2469.036450433956
 30
0.0
 10
823.4386825538112
 20
2471.642032890688
 30
0.0
 10
823.2972152755286
 20
2472.947939177483
 30
0.0
  0
SPLINE
  5
1F2
330
1F
100
AcDbEntity
  8
0
  6
Continuous
 62
     7
370
    15
100
AcDbSpline
210
0.0
220
0.0
230
1.0
 70
     8
 71
     3
 72
    10
 73
     6
 74
     0
 42
0.000000001
 43
0.00000001
 40
0.0
 40
0.0
 40
0.0
 40
0.0
 40
0.3326759744431008
 40
0.665540335267255
 40
1.0
 40
1.0
 40
1.0
 40
1.0
 10
659.7185532128691
 20
2459.210166150123
 30
0.0
 10
659.8734173818676
 20
2460.949010014786
 30
0.0
 10
660.1832334157089
 20
2464.427682409458
 30
0.0
 10
660.6272682728832
 20
2469.035806385766
 30
0.0
 10
660.9095383970498
 20
2471.641340788949
 30
0.0
 10
661.0510108564208
 20
2472.947222384043
 30
0.0
  0
SPLINE
  5
1F3
330
1F
100
AcDbEntity
  8
0
  6
Continuous
 62
     7
370
    15
100
AcDbSpline
210
0.0
220
0.0
230
1.0
 70
     8
 71
     3
 72
    15
 73
    11
 74
     0
 42
0.000000001
 43
0.00000001
 40
0.0
 40
0.0
 40
0.0
 40
0.0
 40
0.1181338605458867
 40
0.2376733715213818
 40
0.3586524211242587
 40
0.4822627935526931
 40
0.6076163585260499
 40
0.7362254930522922
 40
0.8664149649484667
 40
1.0
 40
1.0
 40
1.0
 40
1.0
 10
632.2645135845031
 20
2433.743592591662
 30
0.0
 10
634.0276307753944
 20
2433.983597291575
 30
0.0
 10
637.5748441248105
 20
2434.466462457799
 30
0.0
 10
642.5884077705196
 20
2436.361815154434
 30
0.0
 10
647.1994260184805
 20
2438.998818662759
 30
0.0
 10
651.25212152859
 20
2442.333457787656
 30
0.0
 10
654.6492116014427
 20
2446.202957027078
 30
0.0
 10
657.2538450928163
 20
2450.429226264072
 30
0.0
 10
659.0735874876773
 20
2454.869329441748
 30
0.0
 10
659.5017274923307
 20
2457.750855972434
 30
0.0
 10
659.7185532128691
 20
2459.210166150122
 30
0.0
  0
SPLINE
  5
1F4
330
1F
100
AcDbEntity
  8
0
  6
Continuous
 62
     7
370
    15
100
AcDbSpline
210
0.0
220
0.0
230
1.0
 70
     8
 71
     3
 72
    15
 73
    11
 74
     0
 42
0.000000001
 43
0.00000001
 40
0.0
 40
0.0
 40
0.0
 40
0.0
 40
0.118148996805848
 40
0.2376963773691024
 40
0.3586775137614815
 40
0.4822853599163761
 40
0.6076344043819618
 40
0.7362375140624844
 40
0.8664212733743544
 40
1.0
 40
1.0
 40
1.0
 40
1.0
 10
852.0857069315849
 20
2433.743882946164
 30
0.0
 10
850.3222887989028
 20
2433.984027963748
 30
0.0
 10
846.77458113098
 20
2434.467160298903
 30
0.0
 10
841.7603569288065
 20
2436.362547365901
 30
0.0
 10
837.1489023343237
 20
2438.999494789266
 30
0.0
 10
833.0959688746098
 20
2442.334034330284
 30
0.0
 10
829.6988115344585
 20
2446.203445900364
 30
0.0
 10
827.094215374338
 20
2450.429655107407
 30
0.0
 10
825.274557241908
 20
2454.869710519145
 30
0.0
 10
824.8464444169073
 20
2457.75122037968
 30
0.0
 10
824.6296328191077
 20
2459.210519705592
 30
0.0
  0
LINE
  5
1F5
330
1F
100
AcDbEntity
  8
0
  6
Continuous
 62
     7
370
    15
100
AcDbLine
 10
632.2645135845
 20
2433.7435925917
 30
0.0
 11
579.3371133959
 21
2429.2430150299
 31
0.0
  0
LINE
  5
1F6
330
1F
100
AcDbEntity
  8
0
  6
Continuous
 62
     7
370
    15
100
AcDbLine
 10
905.0120170533
 20
2429.2427102711
 30
0.0
 11
852.0857069316
 21
2433.7438829462
 31
0.0
  0
LINE
  5
1F7
330
1F
100
AcDbEntity
  8
0
  6
Continuous
 62
     7
370
    15
100
AcDbLine
 10
579.3371133959
 20
2429.2430150299
 30
0.0
 11
574.3600534512
 21
2428.4561042894
 31
0.0
  0
LINE
  5
1F8
330
1F
100
AcDbEntity
  8
0
  6
Continuous
 62
     7
370
    15
100
AcDbLine
 10
909.9740583469
 20
2428.4595390139
 30
0.0
 11
905.0120170533
 21
2429.2427102711
 31
0.0
  0
SPLINE
  5
1F9
330
1F
100
AcDbEntity
  8
0
  6
Continuous
 62
     7
370
    15
100
AcDbSpline
210
0.0
220
0.0
230
1.0
 70
     8
 71
     3
 72
    15
 73
    11
 74
     0
 42
0.000000001
 43
0.00000001
 40
0.0
 40
0.0
 40
0.0
 40
0.0
 40
0.121030163315869
 40
0.2447673344858543
 40
0.3701309165344863
 40
0.4972803983226344
 40
0.624313594258781
 40
0.7510113760346014
 40
0.8759071771452612
 40
1.0
 40
1.0
 40
1.0
 40
1.0
 10
574.3600534512304
 20
2428.456104289395
 30
0.0
 10
572.1171663052107
 20
2427.810188448696
 30
0.0
 10
567.5812267241736
 20
2426.503909961594
 30
0.0
 10
561.3612060167195
 20
2423.007181367774
 30
0.0
 10
555.7113305114275
 20
2418.522083048311
 30
0.0
 10
550.8244760049789
 20
2413.097197707124
 30
0.0
 10
546.8013916683411
 20
2406.945315219217
 30
0.0
 10
543.8117220955287
 20
2400.264503339803
 30
0.0
 10
541.8323162418385
 20
2393.238306500498
 30
0.0
 10
541.5210129524277
 20
2388.429008988576
 30
0.0
 10
541.3658632779899
 20
2386.032115127733
 30
0.0
  0
SPLINE
  5
1FA
330
1F
100
AcDbEntity
  8
0
  6
Continuous
 62
     7
370
    15
100
AcDbSpline
210
0.0
220
0.0
230
1.0
 70
     8
 71
     3
 72
    15
 73
    11
 74
     0
 42
0.000000001
 43
0.00000001
 40
0.0
 40
0.0
 40
0.0
 40
0.0
 40
0.1232164449738705
 40
0.2483985385992837
 40
0.374876193089599
 40
0.5023543033739063
 40
0.6292432743077706
 40
0.7550718364329144
 40
0.8783195516706588
 40
0.9999999999999999
 40
0.9999999999999999
 40
0.9999999999999999
 40
0.9999999999999999
 10
942.9818871630362
 20
2386.032245490374
 30
0.0
 10
942.8285744894031
 20
2388.412821628648
 30
0.0
 10
942.5195033740392
 20
2393.211950786259
 30
0.0
 10
940.550627236134
 20
2400.226987387735
 30
0.0
 10
937.5620037199999
 20
2406.921244243234
 30
0.0
 10
933.5420903046528
 20
2413.077164477499
 30
0.0
 10
928.6484173858647
 20
2418.515721204385
 30
0.0
 10
923.0007545501397
 20
2422.998144319577
 30
0.0
 10
916.7730156555873
 20
2426.510244813564
 30
0.0
 10
912.2306888423645
 20
2427.812552051455
 30
0.0
 10
909.9740583469502
 20
2428.459539013923
 30
0.0
  0
SPLINE
  5
1FB
330
1F
100
AcDbEntity
  8
0
  6
Continuous
 62
     7
370
    15
100
AcDbSpline
210
0.0
220
0.0
230
1.0
 70
     8
 71
     3
 72
    20
 73
    16
 74
     0
 42
0.000000001
 43
0.00000001
 40
0.0
 40
0.0
 40
0.0
 40
0.0
 40
0.0539528390076867
 40
0.1084850807084101
 40
0.1636877918662224
 40
0.2193813558346967
 40
0.275298991631782
 40
0.3855508593105526
 40
0.4957833022560189
 40
0.5791780437002543
 40
0.6627588731060625
 40
0.7466272889816538
 40
0.8306886980584846
 40
0.9148720559089073
 40
1.0
 40
1.0
 40
1.0
 40
1.0
 10
942.8526283834551
 20
2127.521093138446
 30
0.0
 10
942.9197610098545
 20
2132.122647897521
 30
0.0
 10
943.0547472038538
 20
2141.375173781308
 30
0.0
 10
943.2140333492633
 20
2155.465982499712
 30
0.0
 10
943.3479446967099
 20
2169.720502180958
 30
0.0
 10
943.4563695070805
 20
2184.105373079697
 30
0.0
 10
943.566879049498
 20
2203.239538047764
 30
0.0
 10
943.6391654493248
 20
2227.079081215521
 30
0.0
 10
943.678777264775
 20
2253.288197777447
 30
0.0
 10
943.677801883474
 20
2277.193649107456
 30
0.0
 10
943.6390024978355
 20
2298.820053536503
 30
0.0
 10
943.5675138755433
 20
2320.502235840147
 30
0.0
 10
943.4659980552726
 20
2342.239454735322
 30
0.0
 10
943.290709735046
 20
2364.088735663847
 30
0.0
 10
943.0852101804325
 20
2378.690587680889
 30
0.0
 10
942.9818871630362
 20
2386.032245490374
 30
0.0
  0
SPLINE
  5
1FC
330
1F
100
AcDbEntity
  8
0
  6
Continuous
 62
     7
370
    15
100
AcDbSpline
210
0.0
220
0.0
230
1.0
 70
     8
 71
     3
 72
    18
 73
    14
 74
     0
 42
0.000000001
 43
0.00000001
 40
0.0
 40
0.0
 40
0.0
 40
0.0
 40
0.1019739471809871
 40
0.2029513037794624
 40
0.3037249746435441
 40
0.4041314856238282
 40
0.5042172342909674
 40
0.6445467852682438
 40
0.7846025758580801
 40
0.8392836938246032
 40
0.8934716961428824
 40
0.9470139173699238
 40
1.0
 40
1.0
 40
1.0
 40
1.0
 10
541.3658632568549
 20
2386.032113714013
 30
0.0
 10
541.2447129261773
 20
2377.237516924606
 30
0.0
 10
541.0035962660492
 20
2359.734272870937
 30
0.0
 10
540.8313360036717
 20
2333.544120786872
 30
0.0
 10
540.7334908783996
 20
2307.494499875242
 30
0.0
 10
540.6712213342616
 20
2281.522889223223
 30
0.0
 10
540.6674149104161
 20
2252.132034390682
 30
0.0
 10
540.7199496610542
 20
2219.316742725448
 30
0.0
 10
540.8418083650249
 20
2190.416993345302
 30
0.0
 10
541.0068480342497
 20
2168.951934394914
 30
0.0
 10
541.1394524602927
 20
2154.958103645463
 30
0.0
 10
541.2967503584963
 20
2141.124823198384
 30
0.0
 10
541.4294271686463
 20
2132.039886340594
 30
0.0
 10
541.4954192493531
 20
2127.521132191635
 30
0.0
  0
SPLINE
  5
1FD
330
1F
100
AcDbEntity
  8
0
  6
Continuous
 62
     7
370
    15
100
AcDbSpline
210
0.0
220
0.0
230
1.0
 70
     8
 71
     3
 72
     9
 73
     5
 74
     0
 42
0.000000001
 43
0.00000001
 40
0.0
 40
0.0
 40
0.0
 40
0.0
 40
0.4720118849418146
 40
0.9999999999999999
 40
0.9999999999999999
 40
0.9999999999999999
 40
0.9999999999999999
 10
941.6592263700438
 20
2117.274159374073
 30
0.0
 10
941.9734772289206
 20
2118.861301429688
 30
0.0
 10
942.6392461828434
 20
2122.223805862833
 30
0.0
 10
942.7788953060982
 20
2125.690643872506
 30
0.0
 10
942.8526283834549
 20
2127.521093138446
 30
0.0
  0
SPLINE
  5
1FE
330
1F
100
AcDbEntity
  8
0
  6
Continuous
 62
     7
370
    15
100
AcDbSpline
210
0.0
220
0.0
230
1.0
 70
     8
 71
     3
 72
     9
 73
     5
 74
     0
 42
0.000000001
 43
0.00000001
 40
0.0
 40
0.0
 40
0.0
 40
0.0
 40
0.5252124187110213
 40
1.0
 40
1.0
 40
1.0
 40
1.0
 10
541.4954192819954
 20
2127.521130080112
 30
0.0
 10
541.5687627391155
 20
2125.69943510422
 30
0.0
 10
541.708408060717
 20
2122.230943288349
 30
0.0
 10
542.3712241621139
 20
2118.865797837865
 30
0.0
 10
542.6859210157354
 20
2117.268068568744
 30
0.0
  0
LINE
  5
1FF
330
1F
100
AcDbEntity
  8
0
  6
Continuous
 62
     7
370
    15
100
AcDbLine
 10
984.9751748759
 20
2125.8879249288
 30
0.0
 11
983.4261749092
 21
2120.0665990583
 31
0.0
  0
LINE
  5
200
330
1F
100
AcDbEntity
  8
0
  6
Continuous
 62
     7
370
    15
100
AcDbLine
 10
997.198938951
 20
2122.6352964783
 30
0.0
 11
996.8852973221
 21
2122.7187535607
 31
0.0
  0
LINE
  5
201
330
1F
100
AcDbEntity
  8
0
  6
Continuous
 62
     7
370
    15
100
AcDbLine
 10
985.2888165048
 20
2125.8044678464
 30
0.0
 11
984.9751748759
 21
2125.8879249288
 31
0.0
  0
LINE
  5
202
330
1F
100
AcDbEntity
  8
0
  6
Continuous
 62
     7
370
    15
100
AcDbLine
 10
997.198938951
 20
2122.6352964783
 30
0.0
 11
986.9132246653
 21
2083.9803604205
 31
0.0
  0
LINE
  5
203
330
1F
100
AcDbEntity
  8
0
  6
Continuous
 62
     7
370
    15
100
AcDbLine
 10
986.9132246653
 20
2083.9803604205
 30
0.0
 11
986.5995830364
 21
2084.0638175029
 31
0.0
  0
LINE
  5
204
330
1F
100
AcDbEntity
  8
0
  6
Continuous
 62
     7
370
    15
100
AcDbLine
 10
997.848633996
 20
2122.4624187481
 30
0.0
 11
997.198938951
 21
2122.6352964783
 31
0.0
  0
LINE
  5
205
330
1F
100
AcDbEntity
  8
0
  6
Continuous
 62
     7
370
    15
100
AcDbLine
 10
987.5629197103
 20
2083.8074826903
 30
0.0
 11
986.9132246653
 21
2083.9803604205
 31
0.0
  0
LINE
  5
206
330
1F
100
AcDbEntity
  8
0
  6
Continuous
 62
     7
370
    15
100
AcDbLine
 10
984.9751748759
 20
2125.8879249288
 30
0.0
 11
984.325479831
 21
2126.0608026589
 31
0.0
  0
LINE
  5
207
330
1F
100
AcDbEntity
  8
0
  6
Continuous
 62
     7
370
    15
100
AcDbLine
 10
997.8516707236
 20
2122.4616107035
 30
0.0
 11
987.5659564379
 21
2083.8066746457
 31
0.0
  0
LINE
  5
208
330
1F
100
AcDbEntity
  8
0
  6
Continuous
 62
     7
370
    15
100
AcDbLine
 10
987.5659564379
 20
2083.8066746457
 30
0.0
 11
987.5629197103
 21
2083.8074826903
 31
0.0
  0
LINE
  5
209
330
1F
100
AcDbEntity
  8
0
  6
Continuous
 62
     7
370
    15
100
AcDbLine
 10
997.8516707236
 20
2122.4616107035
 30
0.0
 11
997.848633996
 21
2122.4624187481
 31
0.0
  0
LINE
  5
20A
330
1F
100
AcDbEntity
  8
0
  6
Continuous
 62
     7
370
    15
100
AcDbLine
 10
984.3224431034
 20
2126.0616107035
 30
0.0
 11
983.344815251
 21
2122.3875691083
 31
0.0
  0
LINE
  5
20B
330
1F
100
AcDbEntity
  8
0
  6
Continuous
 62
     7
370
    15
100
AcDbLine
 10
984.325479831
 20
2126.0608026589
 30
0.0
 11
984.3224431034
 21
2126.0616107035
 31
0.0
  0
LINE
  5
20C
330
1F
100
AcDbEntity
  8
0
  6
Continuous
 62
     7
370
    15
100
AcDbLine
 10
994.2798790525
 20
2487.3418229476
 30
0.0
 11
994.9511977906
 21
2487.3497132548
 31
0.0
  0
LINE
  5
20D
330
1F
100
AcDbEntity
  8
0
  6
Continuous
 62
     7
370
    15
100
AcDbLine
 10
994.2798790525
 20
2487.3418229476
 30
0.0
 11
993.8097737611
 21
2527.3390603649
 31
0.0
  0
LINE
  5
20E
330
1F
100
AcDbEntity
  8
0
  6
Continuous
 62
     7
370
    15
100
AcDbLine
 10
993.8097737611
 20
2527.3390603649
 30
0.0
 11
994.4810924992
 21
2527.3469506721
 31
0.0
  0
LINE
  5
20F
330
1F
100
AcDbEntity
  8
0
  6
Continuous
 62
     7
370
    15
100
AcDbLine
 10
981.6316420172
 20
2487.1931626015
 30
0.0
 11
981.365100472
 21
2509.8709023746
 31
0.0
  0
LINE
  5
210
330
1F
100
AcDbEntity
  8
0
  6
Continuous
 62
     7
370
    15
100
AcDbLine
 10
980.960323279
 20
2487.1852722943
 30
0.0
 11
981.6316420172
 21
2487.1931626015
 31
0.0
  0
LINE
  5
211
330
1F
100
AcDbEntity
  8
0
  6
Continuous
 62
     7
370
    15
100
AcDbLine
 10
981.6316420172
 20
2487.1931626015
 30
0.0
 11
981.9561749222
 21
2487.1969769808
 31
0.0
  0
LINE
  5
212
330
1F
100
AcDbEntity
  8
0
  6
Continuous
 62
     7
370
    15
100
AcDbLine
 10
993.9553461474
 20
2487.3380085683
 30
0.0
 11
994.2798790525
 21
2487.3418229476
 31
0.0
  0
LINE
  5
213
330
1F
100
AcDbEntity
  8
0
  6
Continuous
 62
     7
370
    15
100
AcDbLine
 10
993.485240856
 20
2527.3352459856
 30
0.0
 11
993.8097737611
 21
2527.3390603649
 31
0.0
  0
LINE
  5
214
330
1F
100
AcDbEntity
  8
0
  6
Continuous
 62
     7
370
    15
100
AcDbLine
 10
994.9552770829
 20
2487.3497612006
 30
0.0
 11
994.4851717914
 21
2527.3469986178
 31
0.0
  0
LINE
  5
215
330
1F
100
AcDbEntity
  8
0
  6
Continuous
 62
     7
370
    15
100
AcDbLine
 10
994.9511977906
 20
2487.3497132548
 30
0.0
 11
994.9552770829
 21
2487.3497612006
 31
0.0
  0
LINE
  5
216
330
1F
100
AcDbEntity
  8
0
  6
Continuous
 62
     7
370
    15
100
AcDbLine
 10
994.4810924992
 20
2527.3469506721
 30
0.0
 11
994.4851717914
 21
2527.3469986178
 31
0.0
  0
LINE
  5
217
330
1F
100
AcDbEntity
  8
0
  6
Continuous
 62
     7
370
    15
100
AcDbLine
 10
980.9562439868
 20
2487.1852243486
 30
0.0
 11
980.7173789088
 21
2507.5082103014
 31
0.0
  0
LINE
  5
218
330
1F
100
AcDbEntity
  8
0
  6
Continuous
 62
     7
370
    15
100
AcDbLine
 10
980.9562439868
 20
2487.1852243486
 30
0.0
 11
980.960323279
 21
2487.1852722943
 31
0.0
  0
LINE
  5
219
330
1F
100
AcDbEntity
  8
0
  6
Continuous
 62
     7
370
    15
100
AcDbLine
 10
486.4999763739
 20
2122.4624187481
 30
0.0
 11
487.1496714189
 21
2122.6352964783
 31
0.0
  0
LINE
  5
21A
330
1F
100
AcDbEntity
  8
0
  6
Continuous
 62
     7
370
    15
100
AcDbLine
 10
487.1496714189
 20
2122.6352964783
 30
0.0
 11
497.4353857046
 21
2083.9803604205
 31
0.0
  0
LINE
  5
21B
330
1F
100
AcDbEntity
  8
0
  6
Continuous
 62
     7
370
    15
100
AcDbLine
 10
496.7856906596
 20
2083.8074826903
 30
0.0
 11
497.4353857046
 21
2083.9803604205
 31
0.0
  0
LINE
  5
21C
330
1F
100
AcDbEntity
  8
0
  6
Continuous
 62
     7
370
    15
100
AcDbLine
 10
487.1496714189
 20
2122.6352964783
 30
0.0
 11
487.4633130478
 21
2122.7187535607
 31
0.0
  0
LINE
  5
21D
330
1F
100
AcDbEntity
  8
0
  6
Continuous
 62
     7
370
    15
100
AcDbLine
 10
499.0597938651
 20
2125.8044678464
 30
0.0
 11
499.373435494
 21
2125.8879249288
 31
0.0
  0
LINE
  5
21E
330
1F
100
AcDbEntity
  8
0
  6
Continuous
 62
     7
370
    15
100
AcDbLine
 10
499.373435494
 20
2125.8879249288
 30
0.0
 11
500.9224354607
 21
2120.0665990583
 31
0.0
  0
LINE
  5
21F
330
1F
100
AcDbEntity
  8
0
  6
Continuous
 62
     7
370
    15
100
AcDbLine
 10
497.4353857046
 20
2083.9803604205
 30
0.0
 11
497.7490273335
 21
2084.0638175029
 31
0.0
  0
LINE
  5
220
330
1F
100
AcDbEntity
  8
0
  6
Continuous
 62
     7
370
    15
100
AcDbLine
 10
499.373435494
 20
2125.8879249288
 30
0.0
 11
500.0231305388
 21
2126.0608026589
 31
0.0
  0
LINE
  5
221
330
1F
100
AcDbEntity
  8
0
  6
Continuous
 62
     7
370
    15
100
AcDbLine
 10
486.4969396463
 20
2122.4616107035
 30
0.0
 11
496.782653932
 21
2083.8066746457
 31
0.0
  0
LINE
  5
222
330
1F
100
AcDbEntity
  8
0
  6
Continuous
 62
     7
370
    15
100
AcDbLine
 10
496.782653932
 20
2083.8066746457
 30
0.0
 11
496.7856906596
 21
2083.8074826903
 31
0.0
  0
LINE
  5
223
330
1F
100
AcDbEntity
  8
0
  6
Continuous
 62
     7
370
    15
100
AcDbLine
 10
486.4969396463
 20
2122.4616107035
 30
0.0
 11
486.4999763739
 21
2122.4624187481
 31
0.0
  0
LINE
  5
224
330
1F
100
AcDbEntity
  8
0
  6
Continuous
 62
     7
370
    15
100
AcDbLine
 10
500.0261672665
 20
2126.0616107035
 30
0.0
 11
501.0037951189
 21
2122.3875691083
 31
0.0
  0
LINE
  5
225
330
1F
100
AcDbEntity
  8
0
  6
Continuous
 62
     7
370
    15
100
AcDbLine
 10
500.0231305388
 20
2126.0608026589
 30
0.0
 11
500.0261672665
 21
2126.0616107035
 31
0.0
  0
LINE
  5
226
330
1F
100
AcDbEntity
  8
0
  6
Continuous
 62
     7
370
    15
100
AcDbLine
 10
503.3882870908
 20
2487.1852722943
 30
0.0
 11
502.7169683527
 21
2487.1931626015
 31
0.0
  0
LINE
  5
227
330
1F
100
AcDbEntity
  8
0
  6
Continuous
 62
     7
370
    15
100
AcDbLine
 10
502.7169683527
 20
2487.1931626015
 30
0.0
 11
502.9835098979
 21
2509.8709023746
 31
0.0
  0
LINE
  5
228
330
1F
100
AcDbEntity
  8
0
  6
Continuous
 62
     7
370
    15
100
AcDbLine
 10
502.7169683527
 20
2487.1931626015
 30
0.0
 11
502.3924354477
 21
2487.1969769808
 31
0.0
  0
LINE
  5
229
330
1F
100
AcDbEntity
  8
0
  6
Continuous
 62
     7
370
    15
100
AcDbLine
 10
490.3932642225
 20
2487.3380085683
 30
0.0
 11
490.0687313174
 21
2487.3418229476
 31
0.0
  0
LINE
  5
22A
330
1F
100
AcDbEntity
  8
0
  6
Continuous
 62
     7
370
    15
100
AcDbLine
 10
490.0687313174
 20
2487.3418229476
 30
0.0
 11
490.5388366088
 21
2527.3390603649
 31
0.0
  0
LINE
  5
22B
330
1F
100
AcDbEntity
  8
0
  6
Continuous
 62
     7
370
    15
100
AcDbLine
 10
490.8633695139
 20
2527.3352459856
 30
0.0
 11
490.5388366088
 21
2527.3390603649
 31
0.0
  0
LINE
  5
22C
330
1F
100
AcDbEntity
  8
0
  6
Continuous
 62
     7
370
    15
100
AcDbLine
 10
490.0687313174
 20
2487.3418229476
 30
0.0
 11
489.3974125793
 21
2487.3497132548
 31
0.0
  0
LINE
  5
22D
330
1F
100
AcDbEntity
  8
0
  6
Continuous
 62
     7
370
    15
100
AcDbLine
 10
490.5388366088
 20
2527.3390603649
 30
0.0
 11
489.8675178707
 21
2527.3469506721
 31
0.0
  0
LINE
  5
22E
330
1F
100
AcDbEntity
  8
0
  6
Continuous
 62
     7
370
    15
100
AcDbLine
 10
503.3923663831
 20
2487.1852243486
 30
0.0
 11
503.631231461
 21
2507.5082103014
 31
0.0
  0
LINE
  5
22F
330
1F
100
AcDbEntity
  8
0
  6
Continuous
 62
     7
370
    15
100
AcDbLine
 10
503.3923663831
 20
2487.1852243486
 30
0.0
 11
503.3882870908
 21
2487.1852722943
 31
0.0
  0
LINE
  5
230
330
1F
100
AcDbEntity
  8
0
  6
Continuous
 62
     7
370
    15
100
AcDbLine
 10
489.393333287
 20
2487.3497612006
 30
0.0
 11
489.8634385785
 21
2527.3469986178
 31
0.0
  0
LINE
  5
231
330
1F
100
AcDbEntity
  8
0
  6
Continuous
 62
     7
370
    15
100
AcDbLine
 10
489.3974125793
 20
2487.3497132548
 30
0.0
 11
489.393333287
 21
2487.3497612006
 31
0.0
  0
LINE
  5
232
330
1F
100
AcDbEntity
  8
0
  6
Continuous
 62
     7
370
    15
100
AcDbLine
 10
489.8675178707
 20
2527.3469506721
 30
0.0
 11
489.8634385785
 21
2527.3469986178
 31
0.0
  0
LINE
  5
233
330
1F
100
AcDbEntity
  8
0
  6
Continuous
 62
     7
370
    15
100
AcDbLine
 10
956.4255851696
 20
2136.7076662821
 30
0.0
 11
956.4773271413
 21
2136.5516320155
 31
0.0
  0
LINE
  5
234
330
1F
100
AcDbEntity
  8
0
  6
Continuous
 62
     7
370
    15
100
AcDbLine
 10
527.9230663201
 20
2136.7077847537
 30
0.0
 11
527.8712832286
 21
2136.5516320155
 31
0.0
  0
LWPOLYLINE
  5
235
330
1F
100
AcDbEntity
  8
0
  6
Continuous
 62
     7
370
    15
100
AcDbPolyline
 90
        3
 70
   128
 43
0.0
 10
967.8608055205
 20
2060.7794161892
 10
967.8472216275
 20
2060.8179155761
 10
967.7921933751
 20
2060.9833926514
  0
LWPOLYLINE
  5
236
330
1F
100
AcDbEntity
  8
0
  6
Continuous
 62
     7
370
    15
100
AcDbPolyline
 90
        3
 70
   128
 43
0.0
 10
516.4882434613
 20
2060.7806462143
 10
516.5013887424
 20
2060.8179155761
 10
516.5564169948
 20
2060.9833926514
  0
LINE
  5
237
330
1F
100
AcDbEntity
  8
0
  6
Continuous
 62
     7
370
    15
100
AcDbLine
 10
522.9473822245
 20
2496.4901261458
 30
0.0
 11
522.9315920612
 21
2496.5061048852
 31
0.0
  0
ARC
  5
238
330
1F
100
AcDbEntity
  8
0
  6
Continuous
 62
     7
370
    15
100
AcDbCircle
 10
517.3625896101
 20
2504.873030889
 30
0.0
 40
2.035448726737024
100
AcDbArc
 50
87.8894302618
 51
120.8912728458
  0
ARC
  5
239
330
1F
100
AcDbEntity
  8
0
  6
Continuous
 62
     7
370
    15
100
AcDbCircle
 10
966.9860207597
 20
2504.873030889
 30
0.0
 40
2.03544872673657
100
AcDbArc
 50
59.1087271542
 51
92.1105697382
  0
ENDSEC
  0
SECTION
  2
OBJECTS
  0
DICTIONARY
  5
C
330
0
100
AcDbDictionary
281
     1
  3
ACAD_DETAILVIEWSTYLE
350
241
  3
ACAD_GROUP
350
D
  3
ACAD_LAYOUT
350
1A
  3
ACAD_MATERIAL
350
43
  3
ACAD_MLEADERSTYLE
350
6B
  3
ACAD_MLINESTYLE
350
17
  3
ACAD_PLOTSETTINGS
350
19
  3
ACAD_PLOTSTYLENAME
350
E
  3
ACAD_SCALELIST
350
47
  3
ACAD_SECTIONVIEWSTYLE
350
242
  3
ACAD_TABLESTYLE
350
69
  3
ACAD_VISUALSTYLE
350
2A
  3
ACDB_RECOMPOSE_DATA
350
23E
  3
AcDbVariableDictionary
350
23A
  0
SUN
  5
6D
330
29
100
AcDbSun
 90
        1
290
     0
 63
     7
421
 16777215
 40
1.0
291
     1
 91
  2455826
 92
 54000000
292
     0
 70
     2
 71
   256
280
     1
  0
DICTIONARY
  5
241
102
{ACAD_REACTORS
330
C
102
}
330
C
100
AcDbDictionary
281
     1
  0
DICTIONARY
  5
D
102
{ACAD_REACTORS
330
C
102
}
330
C
100
AcDbDictionary
281
     1
  0
DICTIONARY
  5
1A
102
{ACAD_REACTORS
330
C
102
}
330
C
100
AcDbDictionary
281
     1
  3
Layout1
350
1E
  3
Layout2
350
26
  3
Model
350
22
  0
DICTIONARY
  5
43
102
{ACAD_REACTORS
330
C
102
}
330
C
100
AcDbDictionary
281
     1
  3
ByBlock
350
45
  3
ByLayer
350
44
  3
Global
350
46
  0
DICTIONARY
  5
6B
102
{ACAD_REACTORS
330
C
102
}
330
C
100
AcDbDictionary
281
     1
  3
Standard
350
6C
  0
DICTIONARY
  5
17
102
{ACAD_REACTORS
330
C
102
}
330
C
100
AcDbDictionary
281
     1
  3
Standard
350
18
  0
DICTIONARY
  5
19
102
{ACAD_REACTORS
330
C
102
}
330
C
100
AcDbDictionary
281
     1
  0
ACDBDICTIONARYWDFLT
  5
E
102
{ACAD_REACTORS
330
C
102
}
330
C
100
AcDbDictionary
281
     1
  3
Normal
350
F
100
AcDbDictionaryWithDefault
340
F
  0
DICTIONARY
  5
47
102
{ACAD_REACTORS
330
C
102
}
330
C
100
AcDbDictionary
281
     1
  3
A0
350
48
  3
A1
350
49
  3
A2
350
4A
  3
A3
350
4B
  3
A4
350
4C
  3
A5
350
4D
  3
A6
350
4E
  3
A7
350
4F
  3
A8
350
50
  3
A9
350
51
  3
B0
350
52
  3
B1
350
53
  3
B2
350
54
  3
B3
350
55
  3
B4
350
56
  3
B5
350
57
  3
B6
350
58
  3
B7
350
59
  3
B8
350
5A
  3
B9
350
5B
  3
C0
350
5C
  3
C1
350
5D
  3
C2
350
5E
  3
C3
350
5F
  3
C4
350
60
  3
C5
350
61
  3
C6
350
62
  3
C7
350
63
  3
C8
350
64
  3
C9
350
65
  3
D0
350
66
  3
D1
350
67
  3
D2
350
68
  0
DICTIONARY
  5
242
102
{ACAD_REACTORS
330
C
102
}
330
C
100
AcDbDictionary
281
     1
  0
DICTIONARY
  5
69
102
{ACAD_REACTORS
330
C
102
}
330
C
100
AcDbDictionary
281
     1
  3
Standard
350
6A
  0
DICTIONARY
  5
2A
102
{ACAD_REACTORS
330
C
102
}
330
C
100
AcDbDictionary
281
     1
  3
2dWireframe
350
2F
  3
Basic
350
32
  3
Brighten
350
36
  3
ColorChange
350
3A
  3
Conceptual
350
34
  3
Dim
350
35
  3
EdgeColorOff
350
3D
  3
Facepattern
350
39
  3
Flat
350
2B
  3
FlatWithEdges
350
2C
  3
Gouraud
350
2D
  3
GouraudWithEdges
350
2E
  3
Hidden
350
31
  3
JitterOff
350
3B
  3
Linepattern
350
38
  3
OverhangOff
350
3C
  3
Realistic
350
33
  3
Shaded
350
42
  3
Shaded with edges
350
41
  3
Shades of Gray
350
3E
  3
Sketchy
350
3F
  3
Thicken
350
37
  3
Wireframe
350
30
  3
X-Ray
350
40
  0
XRECORD
  5
23E
102
{ACAD_REACTORS
330
C
102
}
330
C
100
AcDbXrecord
280
     1
 90
        1
330
6A
  0
DICTIONARY
  5
23A
102
{ACAD_REACTORS
330
C
102
}
330
C
100
AcDbDictionary
281
     1
  3
CANNOSCALE
350
23B
  3
CMLEADERSTYLE
350
240
  3
CTABLESTYLE
350
23F
  0
LAYOUT
  5
1E
102
{ACAD_REACTORS
330
1A
102
}
330
1A
100
AcDbPlotSettings
  1

  2
none_device
  4

  6

 40
0.0
 41
0.0
 42
0.0
 43
0.0
 44
0.0
 45
0.0
 46
0.0
 47
0.0
 48
0.0
 49
0.0
140
0.0
141
0.0
142
1.0
143
1.0
 70
   688
 72
     1
 73
     0
 74
     5
  7

 75
    16
 76
     0
 77
     2
 78
   300
147
1.0
148
0.0
149
0.0
100
AcDbLayout
  1
Layout1
 70
     1
 71
     1
 10
0.0
 20
0.0
 11
420.0
 21
297.0
 12
0.0
 22
0.0
 32
0.0
 14
1.0000000000E+20
 24
1.0000000000E+20
 34
1.0000000000E+20
 15
-1.0000000000E+20
 25
-1.0000000000E+20
 35
-1.0000000000E+20
146
0.0
 13
0.0
 23
0.0
 33
0.0
 16
1.0
 26
0.0
 36
0.0
 17
0.0
 27
1.0
 37
0.0
 76
     0
330
1B
  0
LAYOUT
  5
26
102
{ACAD_REACTORS
330
1A
102
}
330
1A
100
AcDbPlotSettings
  1

  2
none_device
  4

  6

 40
0.0
 41
0.0
 42
0.0
 43
0.0
 44
0.0
 45
0.0
 46
0.0
 47
0.0
 48
0.0
 49
0.0
140
0.0
141
0.0
142
1.0
143
1.0
 70
   688
 72
     1
 73
     0
 74
     5
  7

 75
    16
 76
     0
 77
     2
 78
   300
147
1.0
148
0.0
149
0.0
100
AcDbLayout
  1
Layout2
 70
     1
 71
     2
 10
0.0
 20
0.0
 11
0.0
 21
0.0
 12
0.0
 22
0.0
 32
0.0
 14
0.0
 24
0.0
 34
0.0
 15
0.0
 25
0.0
 35
0.0
146
0.0
 13
0.0
 23
0.0
 33
0.0
 16
1.0
 26
0.0
 36
0.0
 17
0.0
 27
1.0
 37
0.0
 76
     0
330
23
  0
LAYOUT
  5
22
102
{ACAD_REACTORS
330
1A
102
}
330
1A
100
AcDbPlotSettings
  1

  2
none_device
  4
Letter_(8.50_x_11.00_Inches)
  6

 40
6.35
 41
6.35
 42
6.35000508
 43
6.35000508
 44
215.9
 45
279.4
 46
0.0
 47
0.0
 48
0.0
 49
0.0
140
0.0
141
0.0
142
1.0
143
1.0
 70
  1712
 72
     1
 73
     0
 74
     0
  7

 75
     0
 76
     0
 77
     2
 78
   300
147
1.0
148
0.0
149
0.0
100
AcDbLayout
  1
Model
 70
     1
 71
     0
 10
0.0
 20
0.0
 11
3000.0
 21
3000.0
 12
0.0
 22
0.0
 32
0.0
 14
0.0
 24
0.0
 34
0.0
 15
3000.0
 25
3000.0
 35
0.0
146
0.0
 13
0.0
 23
0.0
 33
0.0
 16
1.0
 26
0.0
 36
0.0
 17
0.0
 27
1.0
 37
0.0
 76
     0
330
1F
331
29
  0
MATERIAL
  5
45
102
{ACAD_REACTORS
330
43
102
}
330
43
100
AcDbMaterial
  1
ByBlock
 72
     1
 94
      127
  0
MATERIAL
  5
44
102
{ACAD_REACTORS
330
43
102
}
330
43
100
AcDbMaterial
  1
ByLayer
 72
     1
 94
      127
  0
MATERIAL
  5
46
102
{ACAD_REACTORS
330
43
102
}
330
43
100
AcDbMaterial
  1
Global
 72
     1
 94
      127
  0
MLEADERSTYLE
  5
6C
102
{ACAD_REACTORS
330
6B
102
}
330
6B
100
AcDbMLeaderStyle
179
     2
170
     2
171
     1
172
     0
 90
        2
 40
0.0
 41
0.0
173
     1
 91
-1056964608
340
14
 92
       -2
290
     1
 42
2.0
291
     1
 43
8.0
  3
Standard
341
0
 44
4.0
300

342
11
174
     1
178
     6
175
     1
176
     0
 93
-1056964608
 45
4.0
292
     0
297
     0
 46
4.0
343
0
 94
-1056964608
 47
1.0
 49
1.0
140
1.0
293
     1
141
0.0
294
     1
177
     0
142
1.0
295
     0
296
     0
143
3.75
271
     0
272
     9
273
     9
  0
MLINESTYLE
  5
18
102
{ACAD_REACTORS
330
17
102
}
330
17
100
AcDbMlineStyle
  2
Standard
 70
     0
  3

 62
   256
 51
90.0
 52
90.0
 71
     2
 49
0.5
 62
   256
  6
BYLAYER
 49
-0.5
 62
   256
  6
BYLAYER
  0
ACDBPLACEHOLDER
  5
F
102
{ACAD_REACTORS
330
E
102
}
330
E
  0
SCALE
  5
48
102
{ACAD_REACTORS
330
47
102
}
330
47
100
AcDbScale
 70
     0
300
1:1
140
1.0
141
1.0
290
     1
  0
SCALE
  5
49
102
{ACAD_REACTORS
330
47
102
}
330
47
100
AcDbScale
 70
     0
300
1:2
140
1.0
141
2.0
290
     0
  0
SCALE
  5
4A
102
{ACAD_REACTORS
330
47
102
}
330
47
100
AcDbScale
 70
     0
300
1:4
140
1.0
141
4.0
290
     0
  0
SCALE
  5
4B
102
{ACAD_REACTORS
330
47
102
}
330
47
100
AcDbScale
 70
     0
300
1:5
140
1.0
141
5.0
290
     0
  0
SCALE
  5
4C
102
{ACAD_REACTORS
330
47
102
}
330
47
100
AcDbScale
 70
     0
300
1:8
140
1.0
141
8.0
290
     0
  0
SCALE
  5
4D
102
{ACAD_REACTORS
330
47
102
}
330
47
100
AcDbScale
 70
     0
300
1:10
140
1.0
141
10.0
290
     0
  0
SCALE
  5
4E
102
{ACAD_REACTORS
330
47
102
}
330
47
100
AcDbScale
 70
     0
300
1:16
140
1.0
141
16.0
290
     0
  0
SCALE
  5
4F
102
{ACAD_REACTORS
330
47
102
}
330
47
100
AcDbScale
 70
     0
300
1:20
140
1.0
141
20.0
290
     0
  0
SCALE
  5
50
102
{ACAD_REACTORS
330
47
102
}
330
47
100
AcDbScale
 70
     0
300
1:30
140
1.0
141
30.0
290
     0
  0
SCALE
  5
51
102
{ACAD_REACTORS
330
47
102
}
330
47
100
AcDbScale
 70
     0
300
1:40
140
1.0
141
40.0
290
     0
  0
SCALE
  5
52
102
{ACAD_REACTORS
330
47
102
}
330
47
100
AcDbScale
 70
     0
300
1:50
140
1.0
141
50.0
290
     0
  0
SCALE
  5
53
102
{ACAD_REACTORS
330
47
102
}
330
47
100
AcDbScale
 70
     0
300
1:100
140
1.0
141
100.0
290
     0
  0
SCALE
  5
54
102
{ACAD_REACTORS
330
47
102
}
330
47
100
AcDbScale
 70
     0
300
2:1
140
2.0
141
1.0
290
     0
  0
SCALE
  5
55
102
{ACAD_REACTORS
330
47
102
}
330
47
100
AcDbScale
 70
     0
300
4:1
140
4.0
141
1.0
290
     0
  0
SCALE
  5
56
102
{ACAD_REACTORS
330
47
102
}
330
47
100
AcDbScale
 70
     0
300
8:1
140
8.0
141
1.0
290
     0
  0
SCALE
  5
57
102
{ACAD_REACTORS
330
47
102
}
330
47
100
AcDbScale
 70
     0
300
10:1
140
10.0
141
1.0
290
     0
  0
SCALE
  5
58
102
{ACAD_REACTORS
330
47
102
}
330
47
100
AcDbScale
 70
     0
300
100:1
140
100.0
141
1.0
290
     0
  0
SCALE
  5
59
102
{ACAD_REACTORS
330
47
102
}
330
47
100
AcDbScale
 70
     0
300
1/128" = 1'-0"
140
0.0078125
141
12.0
290
     0
  0
SCALE
  5
5A
102
{ACAD_REACTORS
330
47
102
}
330
47
100
AcDbScale
 70
     0
300
1/64" = 1'-0"
140
0.015625
141
12.0
290
     0
  0
SCALE
  5
5B
102
{ACAD_REACTORS
330
47
102
}
330
47
100
AcDbScale
 70
     0
300
1/32" = 1'-0"
140
0.03125
141
12.0
290
     0
  0
SCALE
  5
5C
102
{ACAD_REACTORS
330
47
102
}
330
47
100
AcDbScale
 70
     0
300
1/16" = 1'-0"
140
0.0625
141
12.0
290
     0
  0
SCALE
  5
5D
102
{ACAD_REACTORS
330
47
102
}
330
47
100
AcDbScale
 70
     0
300
3/32" = 1'-0"
140
0.09375
141
12.0
290
     0
  0
SCALE
  5
5E
102
{ACAD_REACTORS
330
47
102
}
330
47
100
AcDbScale
 70
     0
300
1/8" = 1'-0"
140
0.125
141
12.0
290
     0
  0
SCALE
  5
5F
102
{ACAD_REACTORS
330
47
102
}
330
47
100
AcDbScale
 70
     0
300
3/16" = 1'-0"
140
0.1875
141
12.0
290
     0
  0
SCALE
  5
60
102
{ACAD_REACTORS
330
47
102
}
330
47
100
AcDbScale
 70
     0
300
1/4" = 1'-0"
140
0.25
141
12.0
290
     0
  0
SCALE
  5
61
102
{ACAD_REACTORS
330
47
102
}
330
47
100
AcDbScale
 70
     0
300
3/8" = 1'-0"
140
0.375
141
12.0
290
     0
  0
SCALE
  5
62
102
{ACAD_REACTORS
330
47
102
}
330
47
100
AcDbScale
 70
     0
300
1/2" = 1'-0"
140
0.5
141
12.0
290
     0
  0
SCALE
  5
63
102
{ACAD_REACTORS
330
47
102
}
330
47
100
AcDbScale
 70
     0
300
3/4" = 1'-0"
140
0.75
141
12.0
290
     0
  0
SCALE
  5
64
102
{ACAD_REACTORS
330
47
102
}
330
47
100
AcDbScale
 70
     0
300
1" = 1'-0"
140
1.0
141
12.0
290
     0
  0
SCALE
  5
65
102
{ACAD_REACTORS
330
47
102
}
330
47
100
AcDbScale
 70
     0
300
1-1/2" = 1'-0"
140
1.5
141
12.0
290
     0
  0
SCALE
  5
66
102
{ACAD_REACTORS
330
47
102
}
330
47
100
AcDbScale
 70
     0
300
3" = 1'-0"
140
3.0
141
12.0
290
     0
  0
SCALE
  5
67
102
{ACAD_REACTORS
330
47
102
}
330
47
100
AcDbScale
 70
     0
300
6" = 1'-0"
140
6.0
141
12.0
290
     0
  0
SCALE
  5
68
102
{ACAD_REACTORS
330
47
102
}
330
47
100
AcDbScale
 70
     0
300
1'-0" = 1'-0"
140
12.0
141
12.0
290
     0
  0
TABLESTYLE
  5
6A
102
{ACAD_REACTORS
330
69
102
}
102
{ACAD_XDICTIONARY
360
23C
102
}
330
69
100
AcDbTableStyle
  3
Standard
 70
     0
 71
     0
 40
0.06
 41
0.06
280
     0
281
     0
  7
Standard
140
4.5
170
     2
 62
     0
 63
   257
283
     0
 90
        4
 91
        0
  1

274
    -2
284
     1
 64
     0
275
    -2
285
     1
 65
     0
276
    -2
286
     1
 66
     0
277
    -2
287
     1
 67
     0
278
    -2
288
     1
 68
     0
279
    -2
289
     1
 69
     0
  7
Standard
140
6.0
170
     5
 62
     0
 63
   257
283
     0
 90
        4
 91
        0
  1

274
    -2
284
     1
 64
     0
275
    -2
285
     1
 65
     0
276
    -2
286
     1
 66
     0
277
    -2
287
     1
 67
     0
278
    -2
288
     1
 68
     0
279
    -2
289
     1
 69
     0
  7
Standard
140
4.5
170
     5
 62
     0
 63
   257
283
     0
 90
        4
 91
        0
  1

274
    -2
284
     1
 64
     0
275
    -2
285
     1
 65
     0
276
    -2
286
     1
 66
     0
277
    -2
287
     1
 67
     0
278
    -2
288
     1
 68
     0
279
    -2
289
     1
 69
     0
  0
VISUALSTYLE
  5
2F
102
{ACAD_REACTORS
330
2A
102
}
330
2A
100
AcDbVisualStyle
  2
2dWireframe
 70
     4
177
     2
291
     0
 71
     0
176
     1
 72
     2
176
     1
 73
     0
176
     1
 90
        0
176
     1
 40
0.6
176
     1
 41
30.0
176
     1
 62
     5
 63
     7
421
 16777215
176
     1
 74
     1
176
     1
 91
        4
176
     1
 64
     7
176
     1
 65
   257
176
     1
 75
     1
176
     1
175
     1
176
     1
 42
1.0
176
     1
 92
        0
176
     1
 66
   257
176
     1
 43
1.0
176
     1
 76
     1
176
     1
 77
     6
176
     1
 78
     2
176
     1
 67
     7
176
     1
 79
     5
176
     1
170
     0
176
     1
171
     0
176
     1
290
     0
176
     1
 93
        1
176
     1
 44
0.0
176
     1
173
     0
176
     1
  0
VISUALSTYLE
  5
32
102
{ACAD_REACTORS
330
2A
102
}
330
2A
100
AcDbVisualStyle
  2
Basic
 70
     7
177
     2
291
     1
 71
     1
176
     1
 72
     0
176
     1
 73
     1
176
     1
 90
        0
176
     1
 40
0.6
176
     1
 41
30.0
176
     1
 62
     5
 63
     7
421
 16777215
176
     1
 74
     0
176
     1
 91
        4
176
     1
 64
     7
176
     1
 65
   257
176
     1
 75
     1
176
     1
175
     1
176
     1
 42
1.0
176
     1
 92
        8
176
     1
 66
     7
176
     1
 43
1.0
176
     1
 76
     1
176
     1
 77
     6
176
     1
 78
     2
176
     1
 67
     7
176
     1
 79
     5
176
     1
170
     0
176
     1
171
     0
176
     1
290
     0
176
     1
 93
        1
176
     1
 44
0.0
176
     1
173
     0
176
     1
  0
VISUALSTYLE
  5
36
102
{ACAD_REACTORS
330
2A
102
}
330
2A
100
AcDbVisualStyle
  2
Brighten
 70
    12
177
     2
291
     1
 71
     2
176
     1
 72
     2
176
     1
 73
     0
176
     1
 90
        0
176
     1
 40
0.6
176
     1
 41
30.0
176
     1
 62
     5
 63
     7
421
 16777215
176
     1
 74
     1
176
     1
 91
        4
176
     1
 64
     7
176
     1
 65
   257
176
     1
 75
     1
176
     1
175
     1
176
     1
 42
1.0
176
     1
 92
        8
176
     1
 66
     7
176
     1
 43
1.0
176
     1
 76
     1
176
     1
 77
     6
176
     1
 78
     2
176
     1
 67
     7
176
     1
 79
     5
176
     1
170
     0
176
     1
171
     0
176
     1
290
     0
176
     1
 93
        1
176
     1
 44
50.0
176
     1
173
     0
176
     1
  0
VISUALSTYLE
  5
3A
102
{ACAD_REACTORS
330
2A
102
}
330
2A
100
AcDbVisualStyle
  2
ColorChange
 70
    16
177
     2
291
     1
 71
     2
176
     1
 72
     2
176
     1
 73
     3
176
     1
 90
        0
176
     1
 40
0.6
176
     1
 41
30.0
176
     1
 62
     5
 63
     8
421
  8421504
176
     1
 74
     1
176
     1
 91
        4
176
     1
 64
     7
176
     1
 65
   257
176
     1
 75
     1
176
     1
175
     1
176
     1
 42
1.0
176
     1
 92
        8
176
     1
 66
     8
424
  8421504
176
     1
 43
1.0
176
     1
 76
     1
176
     1
 77
     6
176
     1
 78
     2
176
     1
 67
     7
176
     1
 79
     5
176
     1
170
     0
176
     1
171
     0
176
     1
290
     0
176
     1
 93
        1
176
     1
 44
0.0
176
     1
173
     0
176
     1
  0
VISUALSTYLE
  5
34
102
{ACAD_REACTORS
330
2A
102
}
330
2A
100
AcDbVisualStyle
  2
Conceptual
 70
     9
177
     2
291
     0
 71
     3
176
     1
 72
     2
176
     1
 73
     0
176
     1
 90
        0
176
     1
 40
0.6
176
     1
 41
30.0
176
     1
 62
     5
 63
     7
421
 16777215
176
     1
 74
     2
176
     1
 91
        2
176
     1
 64
     7
176
     1
 65
   257
176
     1
 75
     1
176
     1
175
     1
176
     1
 42
179.0
176
     1
 92
        8
176
     1
 66
     7
176
     1
 43
1.0
176
     1
 76
     1
176
     1
 77
     6
176
     1
 78
     2
176
     1
 67
     7
176
     1
 79
     3
176
     1
170
     0
176
     1
171
     0
176
     1
290
     0
176
     1
 93
        1
176
     1
 44
0.0
176
     1
173
     0
176
     1
  0
VISUALSTYLE
  5
35
102
{ACAD_REACTORS
330
2A
102
}
330
2A
100
AcDbVisualStyle
  2
Dim
 70
    11
177
     2
291
     1
 71
     2
176
     1
 72
     2
176
     1
 73
     0
176
     1
 90
        0
176
     1
 40
0.6
176
     1
 41
30.0
176
     1
 62
     5
 63
     7
421
 16777215
176
     1
 74
     1
176
     1
 91
        4
176
     1
 64
     7
176
     1
 65
   257
176
     1
 75
     1
176
     1
175
     1
176
     1
 42
1.0
176
     1
 92
        8
176
     1
 66
     7
176
     1
 43
1.0
176
     1
 76
     1
176
     1
 77
     6
176
     1
 78
     2
176
     1
 67
     7
176
     1
 79
     5
176
     1
170
     0
176
     1
171
     0
176
     1
290
     0
176
     1
 93
        1
176
     1
 44
-50.0
176
     1
173
     0
176
     1
  0
VISUALSTYLE
  5
3D
102
{ACAD_REACTORS
330
2A
102
}
330
2A
100
AcDbVisualStyle
  2
EdgeColorOff
 70
    22
177
     2
291
     1
 71
     2
176
     0
 72
     2
176
     0
 73
     0
176
     0
 90
        0
176
     0
 40
0.6
176
     0
 41
30.0
176
     0
 62
     5
 63
     7
421
 16777215
176
     0
 74
     1
176
     0
 91
        4
176
     0
 64
     7
176
     0
 65
   257
176
     0
 75
     1
176
     0
175
     1
176
     0
 42
1.0
176
     0
 92
        8
176
     2
 66
     7
176
     0
 43
1.0
176
     0
 76
     1
176
     0
 77
     6
176
     0
 78
     2
176
     0
 67
     7
176
     0
 79
     5
176
     0
170
     0
176
     0
171
     0
176
     0
290
     0
176
     0
 93
        1
176
     0
 44
0.0
176
     0
173
     0
176
     0
  0
VISUALSTYLE
  5
39
102
{ACAD_REACTORS
330
2A
102
}
330
2A
100
AcDbVisualStyle
  2
Facepattern
 70
    15
177
     2
291
     1
 71
     2
176
     1
 72
     2
176
     1
 73
     0
176
     1
 90
        0
176
     1
 40
0.6
176
     1
 41
30.0
176
     1
 62
     5
 63
     7
421
 16777215
176
     1
 74
     1
176
     1
 91
        4
176
     1
 64
     7
176
     1
 65
   257
176
     1
 75
     1
176
     1
175
     1
176
     1
 42
1.0
176
     1
 92
        8
176
     1
 66
     7
176
     1
 43
1.0
176
     1
 76
     1
176
     1
 77
     6
176
     1
 78
     2
176
     1
 67
     7
176
     1
 79
     5
176
     1
170
     0
176
     1
171
     0
176
     1
290
     0
176
     1
 93
        1
176
     1
 44
0.0
176
     1
173
     0
176
     1
  0
VISUALSTYLE
  5
2B
102
{ACAD_REACTORS
330
2A
102
}
330
2A
100
AcDbVisualStyle
  2
Flat
 70
     0
177
     2
291
     1
 71
     2
176
     1
 72
     1
176
     1
 73
     1
176
     1
 90
        2
176
     1
 40
0.6
176
     1
 41
30.0
176
     1
 62
     5
 63
     7
421
 16777215
176
     1
 74
     0
176
     1
 91
        0
176
     1
 64
     7
176
     1
 65
   257
176
     1
 75
     1
176
     1
175
     1
176
     1
 42
1.0
176
     1
 92
        8
176
     1
 66
     7
176
     1
 43
1.0
176
     1
 76
     1
176
     1
 77
     6
176
     1
 78
     2
176
     1
 67
     7
176
     1
 79
     5
176
     1
170
     0
176
     1
171
     0
176
     1
290
     0
176
     1
 93
       13
176
     1
 44
0.0
176
     1
173
     0
176
     1
  0
VISUALSTYLE
  5
2C
102
{ACAD_REACTORS
330
2A
102
}
330
2A
100
AcDbVisualStyle
  2
FlatWithEdges
 70
     1
177
     2
291
     1
 71
     2
176
     1
 72
     1
176
     1
 73
     1
176
     1
 90
        2
176
     1
 40
0.6
176
     1
 41
30.0
176
     1
 62
     5
 63
     7
421
 16777215
176
     1
 74
     1
176
     1
 91
        0
176
     1
 64
     7
176
     1
 65
   257
176
     1
 75
     1
176
     1
175
     1
176
     1
 42
1.0
176
     1
 92
        0
176
     1
 66
   257
176
     1
 43
1.0
176
     1
 76
     1
176
     1
 77
     6
176
     1
 78
     2
176
     1
 67
     7
176
     1
 79
     5
176
     1
170
     0
176
     1
171
     0
176
     1
290
     0
176
     1
 93
       13
176
     1
 44
0.0
176
     1
173
     0
176
     1
  0
VISUALSTYLE
  5
2D
102
{ACAD_REACTORS
330
2A
102
}
330
2A
100
AcDbVisualStyle
  2
Gouraud
 70
     2
177
     2
291
     1
 71
     2
176
     1
 72
     2
176
     1
 73
     1
176
     1
 90
        2
176
     1
 40
0.6
176
     1
 41
30.0
176
     1
 62
     5
 63
     7
421
 16777215
176
     1
 74
     0
176
     1
 91
        0
176
     1
 64
     7
176
     1
 65
   257
176
     1
 75
     1
176
     1
175
     1
176
     1
 42
1.0
176
     1
 92
        0
176
     1
 66
     7
176
     1
 43
1.0
176
     1
 76
     1
176
     1
 77
     6
176
     1
 78
     2
176
     1
 67
     7
176
     1
 79
     5
176
     1
170
     0
176
     1
171
     0
176
     1
290
     0
176
     1
 93
       13
176
     1
 44
0.0
176
     1
173
     0
176
     1
  0
VISUALSTYLE
  5
2E
102
{ACAD_REACTORS
330
2A
102
}
330
2A
100
AcDbVisualStyle
  2
GouraudWithEdges
 70
     3
177
     2
291
     1
 71
     2
176
     1
 72
     2
176
     1
 73
     1
176
     1
 90
        2
176
     1
 40
0.6
176
     1
 41
30.0
176
     1
 62
     5
 63
     7
421
 16777215
176
     1
 74
     1
176
     1
 91
        0
176
     1
 64
     7
176
     1
 65
   257
176
     1
 75
     1
176
     1
175
     1
176
     1
 42
1.0
176
     1
 92
        0
176
     1
 66
   257
176
     1
 43
1.0
176
     1
 76
     1
176
     1
 77
     6
176
     1
 78
     2
176
     1
 67
     7
176
     1
 79
     5
176
     1
170
     0
176
     1
171
     0
176
     1
290
     0
176
     1
 93
       13
176
     1
 44
0.0
176
     1
173
     0
176
     1
  0
VISUALSTYLE
  5
31
102
{ACAD_REACTORS
330
2A
102
}
330
2A
100
AcDbVisualStyle
  2
Hidden
 70
     6
177
     2
291
     0
 71
     1
176
     1
 72
     2
176
     1
 73
     2
176
     1
 90
        0
176
     1
 40
0.6
176
     1
 41
30.0
176
     1
 62
     5
 63
     7
421
 16777215
176
     1
 74
     2
176
     1
 91
        2
176
     1
 64
     7
176
     1
 65
   257
176
     1
 75
     2
176
     1
175
     1
176
     1
 42
40.0
176
     1
 92
        0
176
     1
 66
   257
176
     1
 43
1.0
176
     1
 76
     1
176
     1
 77
     6
176
     1
 78
     2
176
     1
 67
     7
176
     1
 79
     3
176
     1
170
     0
176
     1
171
     0
176
     1
290
     0
176
     1
 93
        1
176
     1
 44
0.0
176
     1
173
     0
176
     1
  0
VISUALSTYLE
  5
3B
102
{ACAD_REACTORS
330
2A
102
}
330
2A
100
AcDbVisualStyle
  2
JitterOff
 70
    20
177
     2
291
     1
 71
     2
176
     0
 72
     2
176
     0
 73
     0
176
     0
 90
        0
176
     0
 40
0.6
176
     0
 41
30.0
176
     0
 62
     5
 63
     7
421
 16777215
176
     0
 74
     1
176
     0
 91
        4
176
     0
 64
     7
176
     0
 65
   257
176
     0
 75
     1
176
     0
175
     1
176
     0
 42
1.0
176
     0
 92
       10
176
     2
 66
     7
176
     0
 43
1.0
176
     0
 76
     1
176
     0
 77
     6
176
     0
 78
     2
176
     0
 67
     7
176
     0
 79
     5
176
     0
170
     0
176
     0
171
     0
176
     0
290
     0
176
     0
 93
        1
176
     0
 44
0.0
176
     0
173
     0
176
     0
  0
VISUALSTYLE
  5
38
102
{ACAD_REACTORS
330
2A
102
}
330
2A
100
AcDbVisualStyle
  2
Linepattern
 70
    14
177
     2
291
     1
 71
     2
176
     1
 72
     2
176
     1
 73
     0
176
     1
 90
        0
176
     1
 40
0.6
176
     1
 41
30.0
176
     1
 62
     5
 63
     7
421
 16777215
176
     1
 74
     1
176
     1
 91
        4
176
     1
 64
     7
176
     1
 65
   257
176
     1
 75
     7
176
     1
175
     7
176
     1
 42
1.0
176
     1
 92
        8
176
     1
 66
     7
176
     1
 43
1.0
176
     1
 76
     1
176
     1
 77
     6
176
     1
 78
     2
176
     1
 67
     7
176
     1
 79
     5
176
     1
170
     0
176
     1
171
     0
176
     1
290
     0
176
     1
 93
        1
176
     1
 44
0.0
176
     1
173
     0
176
     1
  0
VISUALSTYLE
  5
3C
102
{ACAD_REACTORS
330
2A
102
}
330
2A
100
AcDbVisualStyle
  2
OverhangOff
 70
    21
177
     2
291
     1
 71
     2
176
     0
 72
     2
176
     0
 73
     0
176
     0
 90
        0
176
     0
 40
0.6
176
     0
 41
30.0
176
     0
 62
     5
 63
     7
421
 16777215
176
     0
 74
     1
176
     0
 91
        4
176
     0
 64
     7
176
     0
 65
   257
176
     0
 75
     1
176
     0
175
     1
176
     0
 42
1.0
176
     0
 92
        9
176
     2
 66
     7
176
     0
 43
1.0
176
     0
 76
     1
176
     0
 77
     6
176
     0
 78
     2
176
     0
 67
     7
176
     0
 79
     5
176
     0
170
     0
176
     0
171
     0
176
     0
290
     0
176
     0
 93
        1
176
     0
 44
0.0
176
     0
173
     0
176
     0
  0
VISUALSTYLE
  5
33
102
{ACAD_REACTORS
330
2A
102
}
330
2A
100
AcDbVisualStyle
  2
Realistic
 70
     8
177
     2
291
     0
 71
     2
176
     1
 72
     3
176
     1
 73
     0
176
     1
 90
        2
176
     1
 40
0.6
176
     1
 41
30.0
176
     1
 62
     5
 63
     7
421
 16777215
176
     1
 74
     0
176
     1
 91
        0
176
     1
 64
     7
176
     1
 65
   257
176
     1
 75
     1
176
     1
175
     1
176
     1
 42
1.0
176
     1
 92
        8
176
     1
 66
   257
176
     1
 43
1.0
176
     1
 76
     1
176
     1
 77
     6
176
     1
 78
     2
176
     1
 67
     7
176
     1
 79
     3
176
     1
170
     0
176
     1
171
     0
176
     1
290
     0
176
     1
 93
       13
176
     1
 44
0.0
176
     1
173
     0
176
     1
  0
VISUALSTYLE
  5
42
102
{ACAD_REACTORS
330
2A
102
}
330
2A
100
AcDbVisualStyle
  2
Shaded
 70
    27
177
     2
291
     0
 71
     2
176
     1
 72
     2
176
     1
 73
     1
176
     1
 90
        2
176
     1
 40
0.6
176
     1
 41
30.0
176
     1
 62
     5
 63
     7
421
 16777215
176
     1
 74
     0
176
     1
 91
        4
176
     1
 64
     7
176
     1
 65
   257
176
     1
 75
     1
176
     1
175
     1
176
     1
 42
1.0
176
     1
 92
        8
176
     1
 66
   257
176
     1
 43
1.0
176
     1
 76
     1
176
     1
 77
     6
176
     1
 78
     2
176
     1
 67
     8
425
  7895160
176
     1
 79
     3
176
     1
170
     0
176
     1
171
     0
176
     1
290
     0
176
     1
 93
        5
176
     1
 44
0.0
176
     1
173
     0
176
     1
  0
VISUALSTYLE
  5
41
102
{ACAD_REACTORS
330
2A
102
}
330
2A
100
AcDbVisualStyle
  2
Shaded with edges
 70
    26
177
     2
291
     0
 71
     2
176
     1
 72
     2
176
     1
 73
     1
176
     1
 90
        2
176
     1
 40
0.6
176
     1
 41
30.0
176
     1
 62
     5
 63
     7
421
 16777215
176
     1
 74
     1
176
     1
 91
       10
176
     1
 64
     7
176
     1
 65
   257
176
     1
 75
     2
176
     1
175
     1
176
     1
 42
1.0
176
     1
 92
        8
176
     1
 66
   257
176
     1
 43
1.0
176
     1
 76
     1
176
     1
 77
     6
176
     1
 78
     2
176
     1
 67
     7
176
     1
 79
     3
176
     1
170
     0
176
     1
171
     0
176
     1
290
     0
176
     1
 93
        5
176
     1
 44
0.0
176
     1
173
     0
176
     1
  0
VISUALSTYLE
  5
3E
102
{ACAD_REACTORS
330
2A
102
}
330
2A
100
AcDbVisualStyle
  2
Shades of Gray
 70
    23
177
     2
291
     0
 71
     2
176
     1
 72
     2
176
     1
 73
     3
176
     1
 90
        0
176
     1
 40
0.6
176
     1
 41
30.0
176
     1
 62
     5
 63
     7
421
 16777215
176
     1
 74
     2
176
     1
 91
        2
176
     1
 64
     7
176
     1
 65
     7
176
     1
 75
     1
176
     1
175
     1
176
     1
 42
40.0
176
     1
 92
        8
176
     1
 66
     7
176
     1
 43
1.0
176
     1
 76
     1
176
     1
 77
     6
176
     1
 78
     2
176
     1
 67
     7
176
     1
 79
     3
176
     1
170
     0
176
     1
171
     0
176
     1
290
     0
176
     1
 93
        1
176
     1
 44
0.0
176
     1
173
     0
176
     1
  0
VISUALSTYLE
  5
3F
102
{ACAD_REACTORS
330
2A
102
}
330
2A
100
AcDbVisualStyle
  2
Sketchy
 70
    24
177
     2
291
     0
 71
     1
176
     1
 72
     2
176
     1
 73
     2
176
     1
 90
        0
176
     1
 40
0.6
176
     1
 41
30.0
176
     1
 62
     5
 63
     7
421
 16777215
176
     1
 74
     2
176
     1
 91
        2
176
     1
 64
     7
176
     1
 65
     7
176
     1
 75
     1
176
     1
175
     1
176
     1
 42
40.0
176
     1
 92
       11
176
     1
 66
     7
176
     1
 43
1.0
176
     1
 76
     1
176
     1
 77
     6
176
     1
 78
     2
176
     1
 67
     7
176
     1
 79
     6
176
     1
170
     0
176
     1
171
     0
176
     1
290
     0
176
     1
 93
        1
176
     1
 44
0.0
176
     1
173
     0
176
     1
  0
VISUALSTYLE
  5
37
102
{ACAD_REACTORS
330
2A
102
}
330
2A
100
AcDbVisualStyle
  2
Thicken
 70
    13
177
     2
291
     1
 71
     2
176
     1
 72
     2
176
     1
 73
     0
176
     1
 90
        0
176
     1
 40
0.6
176
     1
 41
30.0
176
     1
 62
     5
 63
     7
421
 16777215
176
     1
 74
     1
176
     1
 91
        4
176
     1
 64
     7
176
     1
 65
   257
176
     1
 75
     1
176
     1
175
     1
176
     1
 42
1.0
176
     1
 92
       12
176
     1
 66
     7
176
     1
 43
1.0
176
     1
 76
     1
176
     1
 77
     6
176
     1
 78
     2
176
     1
 67
     7
176
     1
 79
     5
176
     1
170
     0
176
     1
171
     0
176
     1
290
     0
176
     1
 93
        1
176
     1
 44
0.0
176
     1
173
     0
176
     1
  0
VISUALSTYLE
  5
30
102
{ACAD_REACTORS
330
2A
102
}
330
2A
100
AcDbVisualStyle
  2
Wireframe
 70
     5
177
     2
291
     0
 71
     0
176
     1
 72
     2
176
     1
 73
     0
176
     1
 90
        0
176
     1
 40
0.6
176
     1
 41
30.0
176
     1
 62
     5
 63
     7
421
 16777215
176
     1
 74
     1
176
     1
 91
        4
176
     1
 64
     7
176
     1
 65
   257
176
     1
 75
     1
176
     1
175
     1
176
     1
 42
1.0
176
     1
 92
        0
176
     1
 66
   257
176
     1
 43
1.0
176
     1
 76
     1
176
     1
 77
     6
176
     1
 78
     2
176
     1
 67
     7
176
     1
 79
     3
176
     1
170
     0
176
     1
171
     0
176
     1
290
     0
176
     1
 93
        1
176
     1
 44
0.0
176
     1
173
     0
176
     1
  0
VISUALSTYLE
  5
40
102
{ACAD_REACTORS
330
2A
102
}
330
2A
100
AcDbVisualStyle
  2
X-Ray
 70
    25
177
     2
291
     0
 71
     2
176
     1
 72
     2
176
     1
 73
     1
176
     1
 90
        1
176
     1
 40
0.5
176
     1
 41
30.0
176
     1
 62
     5
 63
     7
421
 16777215
176
     1
 74
     1
176
     1
 91
        0
176
     1
 64
     7
176
     1
 65
   257
176
     1
 75
     1
176
     1
175
     1
176
     1
 42
1.0
176
     1
 92
        8
176
     1
 66
     7
176
     1
 43
1.0
176
     1
 76
     1
176
     1
 77
     6
176
     1
 78
     2
176
     1
 67
     7
176
     1
 79
     3
176
     1
170
     0
176
     1
171
     0
176
     1
290
     0
176
     1
 93
       13
176
     1
 44
0.0
176
     1
173
     0
176
     1
  0
DICTIONARYVAR
  5
23B
102
{ACAD_REACTORS
330
23A
102
}
330
23A
100
DictionaryVariables
280
     0
  1
1:1
  0
DICTIONARYVAR
  5
240
102
{ACAD_REACTORS
330
23A
102
}
330
23A
100
DictionaryVariables
280
     0
  1
Standard
  0
DICTIONARYVAR
  5
23F
102
{ACAD_REACTORS
330
23A
102
}
330
23A
100
DictionaryVariables
280
     0
  1
Standard
  0
DICTIONARY
  5
23C
330
6A
100
AcDbDictionary
280
     1
281
     1
  3
ACAD_ROUNDTRIP_2008_TABLESTYLE_CELLSTYLEMAP
360
23D
  0
CELLSTYLEMAP
  5
23D
102
{ACAD_REACTORS
330
23C
102
}
330
23C
100
AcDbCellStyleMap
 90
        3
300
CELLSTYLE
  1
TABLEFORMAT_BEGIN
 90
        5
170
     1
 91
        0
 92
    32768
 62
   257
 93
        1
300
CONTENTFORMAT
  1
CONTENTFORMAT_BEGIN
 90
        0
 91
        0
 92
        4
 93
        0
300

 40
0.0
140
1.0
 94
        5
 62
     0
340
11
144
6.0
309
CONTENTFORMAT_END
171
     1
301
MARGIN
  1
CELLMARGIN_BEGIN
 40
1.5
 40
1.5
 40
1.5
 40
1.5
 40
1.5
 40
1.5
309
CELLMARGIN_END
 94
        6
 95
        1
302
GRIDFORMAT
  1
GRIDFORMAT_BEGIN
 90
        0
 91
        1
 62
     0
 92
       -2
340
14
 93
        0
 40
0.045
309
GRIDFORMAT_END
 95
        2
302
GRIDFORMAT
  1
GRIDFORMAT_BEGIN
 90
        0
 91
        1
 62
     0
 92
       -2
340
14
 93
        0
 40
0.045
309
GRIDFORMAT_END
 95
        4
302
GRIDFORMAT
  1
GRIDFORMAT_BEGIN
 90
        0
 91
        1
 62
     0
 92
       -2
340
14
 93
        0
 40
0.045
309
GRIDFORMAT_END
 95
        8
302
GRIDFORMAT
  1
GRIDFORMAT_BEGIN
 90
        0
 91
        1
 62
     0
 92
       -2
340
14
 93
        0
 40
0.045
309
GRIDFORMAT_END
 95
       16
302
GRIDFORMAT
  1
GRIDFORMAT_BEGIN
 90
        0
 91
        1
 62
     0
 92
       -2
340
14
 93
        0
 40
0.045
309
GRIDFORMAT_END
 95
       32
302
GRIDFORMAT
  1
GRIDFORMAT_BEGIN
 90
        0
 91
        1
 62
     0
 92
       -2
340
14
 93
        0
 40
0.045
309
GRIDFORMAT_END
309
TABLEFORMAT_END
  1
CELLSTYLE_BEGIN
 90
        1
 91
        1
300
_TITLE
309
CELLSTYLE_END
300
CELLSTYLE
  1
TABLEFORMAT_BEGIN
 90
        5
170
     1
 91
        0
 92
        0
 62
   257
 93
        1
300
CONTENTFORMAT
  1
CONTENTFORMAT_BEGIN
 90
        0
 91
        0
 92
        4
 93
        0
300

 40
0.0
140
1.0
 94
        5
 62
     0
340
11
144
4.5
309
CONTENTFORMAT_END
171
     1
301
MARGIN
  1
CELLMARGIN_BEGIN
 40
1.5
 40
1.5
 40
1.5
 40
1.5
 40
1.5
 40
1.5
309
CELLMARGIN_END
 94
        6
 95
        1
302
GRIDFORMAT
  1
GRIDFORMAT_BEGIN
 90
        0
 91
        1
 62
     0
 92
       -2
340
14
 93
        0
 40
0.045
309
GRIDFORMAT_END
 95
        2
302
GRIDFORMAT
  1
GRIDFORMAT_BEGIN
 90
        0
 91
        1
 62
     0
 92
       -2
340
14
 93
        0
 40
0.045
309
GRIDFORMAT_END
 95
        4
302
GRIDFORMAT
  1
GRIDFORMAT_BEGIN
 90
        0
 91
        1
 62
     0
 92
       -2
340
14
 93
        0
 40
0.045
309
GRIDFORMAT_END
 95
        8
302
GRIDFORMAT
  1
GRIDFORMAT_BEGIN
 90
        0
 91
        1
 62
     0
 92
       -2
340
14
 93
        0
 40
0.045
309
GRIDFORMAT_END
 95
       16
302
GRIDFORMAT
  1
GRIDFORMAT_BEGIN
 90
        0
 91
        1
 62
     0
 92
       -2
340
14
 93
        0
 40
0.045
309
GRIDFORMAT_END
 95
       32
302
GRIDFORMAT
  1
GRIDFORMAT_BEGIN
 90
        0
 91
        1
 62
     0
 92
       -2
340
14
 93
        0
 40
0.045
309
GRIDFORMAT_END
309
TABLEFORMAT_END
  1
CELLSTYLE_BEGIN
 90
        2
 91
        1
300
_HEADER
309
CELLSTYLE_END
300
CELLSTYLE
  1
TABLEFORMAT_BEGIN
 90
        5
170
     1
 91
        0
 92
        0
 62
   257
 93
        1
300
CONTENTFORMAT
  1
CONTENTFORMAT_BEGIN
 90
        0
 91
        0
 92
        4
 93
        0
300

 40
0.0
140
1.0
 94
        2
 62
     0
340
11
144
4.5
309
CONTENTFORMAT_END
171
     1
301
MARGIN
  1
CELLMARGIN_BEGIN
 40
1.5
 40
1.5
 40
1.5
 40
1.5
 40
1.5
 40
1.5
309
CELLMARGIN_END
 94
        6
 95
        1
302
GRIDFORMAT
  1
GRIDFORMAT_BEGIN
 90
        0
 91
        1
 62
     0
 92
       -2
340
14
 93
        0
 40
0.045
309
GRIDFORMAT_END
 95
        2
302
GRIDFORMAT
  1
GRIDFORMAT_BEGIN
 90
        0
 91
        1
 62
     0
 92
       -2
340
14
 93
        0
 40
0.045
309
GRIDFORMAT_END
 95
        4
302
GRIDFORMAT
  1
GRIDFORMAT_BEGIN
 90
        0
 91
        1
 62
     0
 92
       -2
340
14
 93
        0
 40
0.045
309
GRIDFORMAT_END
 95
        8
302
GRIDFORMAT
  1
GRIDFORMAT_BEGIN
 90
        0
 91
        1
 62
     0
 92
       -2
340
14
 93
        0
 40
0.045
309
GRIDFORMAT_END
 95
       16
302
GRIDFORMAT
  1
GRIDFORMAT_BEGIN
 90
        0
 91
        1
 62
     0
 92
       -2
340
14
 93
        0
 40
0.045
309
GRIDFORMAT_END
 95
       32
302
GRIDFORMAT
  1
GRIDFORMAT_BEGIN
 90
        0
 91
        1
 62
     0
 92
       -2
340
14
 93
        0
 40
0.045
309
GRIDFORMAT_END
309
TABLEFORMAT_END
  1
CELLSTYLE_BEGIN
 90
        3
 91
        2
300
_DATA
309
CELLSTYLE_END
  0
ENDSEC
  0
EOF
