  0
SECTION
  2
HEADER
  9
$ACADVER
  1
AC1015
  9
$ACADMAINTVER
 70
     6
  9
$DWGCODEPAGE
  3
ANSI_1252
  9
$INSBASE
 10
0.0
 20
0.0
 30
0.0
  9
$EXTMIN
 10
0.0
 20
0.0
 30
0.0
  9
$EXTMAX
 10
1189.0
 20
841.0
 30
0.0
  9
$LIMMIN
 10
0.0
 20
0.0
  9
$LIMMAX
 10
1189.0
 20
841.0
  9
$ORTHOMODE
 70
     0
  9
$REGENMODE
 70
     1
  9
$FILLMODE
 70
     1
  9
$QTEXTMODE
 70
     0
  9
$MIRRTEXT
 70
     1
  9
$LTSCALE
 40
1.0
  9
$ATTMODE
 70
     1
  9
$TEXTSIZE
 40
3.5
  9
$TRACEWID
 40
1.0
  9
$TEXTSTYLE
  7
Standard
  9
$CLAYER
  8
0
  9
$CELTYPE
  6
ByLayer
  9
$CECOLOR
 62
   256
  9
$CELTSCALE
 40
1.0
  9
$DISPSILH
 70
     0
  9
$DIMSCALE
 40
1.0
  9
$DIMASZ
 40
3.302
  9
$DIMEXO
 40
1.0
  9
$DIMDLI
 40
3.75
  9
$DIMRND
 40
0.0
  9
$DIMDLE
 40
0.0
  9
$DIMEXE
 40
1.0
  9
$DIMTP
 40
0.0
  9
$DIMTM
 40
0.0
  9
$DIMTXT
 40
3.5
  9
$DIMCEN
 40
2.5
  9
$DIMTSZ
 40
0.0
  9
$DIMTOL
 70
     0
  9
$DIMLIM
 70
     0
  9
$DIMTIH
 70
     1
  9
$DIMTOH
 70
     1
  9
$DIMSE1
 70
     0
  9
$DIMSE2
 70
     0
  9
$DIMTAD
 70
     1
  9
$DIMZIN
 70
     0
  9
$DIMBLK
  1

  9
$DIMASO
 70
     1
  9
$DIMSHO
 70
     1
  9
$DIMPOST
  1

  9
$DIMAPOST
  1

  9
$DIMALT
 70
     0
  9
$DIMALTD
 70
     3
  9
$DIMALTF
 40
0.0393700787
  9
$DIMLFAC
 40
5.0
  9
$DIMTOFL
 70
     1
  9
$DIMTVP
 40
0.0
  9
$DIMTIX
 70
     0
  9
$DIMSOXD
 70
     0
  9
$DIMSAH
 70
     0
  9
$DIMBLK1
  1

  9
$DIMBLK2
  1

  9
$DIMSTYLE
  2
ISO-25
  9
$DIMCLRD
 70
     0
  9
$DIMCLRE
 70
     0
  9
$DIMCLRT
 70
     0
  9
$DIMTFAC
 40
1.0
  9
$DIMGAP
 40
1.524
  9
$DIMJUST
 70
     0
  9
$DIMSD1
 70
     0
  9
$DIMSD2
 70
     0
  9
$DIMTOLJ
 70
     0
  9
$DIMTZIN
 70
     0
  9
$DIMALTZ
 70
     0
  9
$DIMALTTZ
 70
     0
  9
$DIMUPT
 70
     0
  9
$DIMDEC
 70
     2
  9
$DIMTDEC
 70
     2
  9
$DIMALTU
 70
     2
  9
$DIMALTTD
 70
     3
  9
$DIMTXSTY
  7
Standard
  9
$DIMAUNIT
 70
     0
  9
$DIMADEC
 70
     2
  9
$DIMALTRND
 40
0.0
  9
$DIMAZIN
 70
     0
  9
$DIMDSEP
 70
    44
  9
$DIMATFIT
 70
     3
  9
$DIMFRAC
 70
     0
  9
$DIMLDRBLK
  1

  9
$DIMLUNIT
 70
     2
  9
$DIMLWD
 70
    -2
  9
$DIMLWE
 70
    -2
  9
$DIMTMOVE
 70
     0
  9
$LUNITS
 70
     2
  9
$LUPREC
 70
     2
  9
$SKETCHINC
 40
1.0
  9
$FILLETRAD
 40
10.0
  9
$AUNITS
 70
     0
  9
$AUPREC
 70
     2
  9
$MENU
  1
.
  9
$ELEVATION
 40
0.0
  9
$PELEVATION
 40
0.0
  9
$THICKNESS
 40
0.0
  9
$LIMCHECK
 70
     0
  9
$CHAMFERA
 40
0.0
  9
$CHAMFERB
 40
0.0
  9
$CHAMFERC
 40
0.0
  9
$CHAMFERD
 40
0.0
  9
$SKPOLY
 70
     0
  9
$TDCREATE
 40
2458054.734445625
  9
$TDUCREATE
 40
2458054.692778958
  9
$TDUPDATE
 40
2458054.734446076
  9
$TDUUPDATE
 40
2458054.69277941
  9
$TDINDWG
 40
0.0000000116
  9
$TDUSRTIMER
 40
0.0000000116
  9
$USRTIMER
 70
     1
  9
$ANGBASE
 50
0.0
  9
$ANGDIR
 70
     0
  9
$PDMODE
 70
     0
  9
$PDSIZE
 40
-1.0
  9
$PLINEWID
 40
0.0
  9
$SPLFRAME
 70
     0
  9
$SPLINETYPE
 70
     6
  9
$SPLINESEGS
 70
     8
  9
$HANDSEED
  5
3C9
  9
$SURFTAB1
 70
     6
  9
$SURFTAB2
 70
     6
  9
$SURFTYPE
 70
     6
  9
$SURFU
 70
     6
  9
$SURFV
 70
     6
  9
$UCSBASE
  2

  9
$UCSNAME
  2

  9
$UCSORG
 10
0.0
 20
0.0
 30
0.0
  9
$UCSXDIR
 10
1.0
 20
0.0
 30
0.0
  9
$UCSYDIR
 10
0.0
 20
1.0
 30
0.0
  9
$UCSORTHOREF
  2

  9
$UCSORTHOVIEW
 70
     0
  9
$UCSORGTOP
 10
0.0
 20
0.0
 30
0.0
  9
$UCSORGBOTTOM
 10
0.0
 20
0.0
 30
0.0
  9
$UCSORGLEFT
 10
0.0
 20
0.0
 30
0.0
  9
$UCSORGRIGHT
 10
0.0
 20
0.0
 30
0.0
  9
$UCSORGFRONT
 10
0.0
 20
0.0
 30
0.0
  9
$UCSORGBACK
 10
0.0
 20
0.0
 30
0.0
  9
$PUCSBASE
  2

  9
$PUCSNAME
  2

  9
$PUCSORG
 10
0.0
 20
0.0
 30
0.0
  9
$PUCSXDIR
 10
1.0
 20
0.0
 30
0.0
  9
$PUCSYDIR
 10
0.0
 20
1.0
 30
0.0
  9
$PUCSORTHOREF
  2

  9
$PUCSORTHOVIEW
 70
     0
  9
$PUCSORGTOP
 10
0.0
 20
0.0
 30
0.0
  9
$PUCSORGBOTTOM
 10
0.0
 20
0.0
 30
0.0
  9
$PUCSORGLEFT
 10
0.0
 20
0.0
 30
0.0
  9
$PUCSORGRIGHT
 10
0.0
 20
0.0
 30
0.0
  9
$PUCSORGFRONT
 10
0.0
 20
0.0
 30
0.0
  9
$PUCSORGBACK
 10
0.0
 20
0.0
 30
0.0
  9
$USERI1
 70
     0
  9
$USERI2
 70
     0
  9
$USERI3
 70
     0
  9
$USERI4
 70
     0
  9
$USERI5
 70
     0
  9
$USERR1
 40
0.0
  9
$USERR2
 40
0.0
  9
$USERR3
 40
0.0
  9
$USERR4
 40
0.0
  9
$USERR5
 40
0.0
  9
$WORLDVIEW
 70
     1
  9
$SHADEDGE
 70
     3
  9
$SHADEDIF
 70
    70
  9
$TILEMODE
 70
     1
  9
$MAXACTVP
 70
    64
  9
$PINSBASE
 10
0.0
 20
0.0
 30
0.0
  9
$PLIMCHECK
 70
     0
  9
$PEXTMIN
 10
1.0000000000E+20
 20
1.0000000000E+20
 30
1.0000000000E+20
  9
$PEXTMAX
 10
-1.0000000000E+20
 20
-1.0000000000E+20
 30
-1.0000000000E+20
  9
$PLIMMIN
 10
0.0
 20
0.0
  9
$PLIMMAX
 10
420.0
 20
297.0
  9
$UNITMODE
 70
     0
  9
$VISRETAIN
 70
     1
  9
$PLINEGEN
 70
     0
  9
$PSLTSCALE
 70
     1
  9
$TREEDEPTH
 70
  3020
  9
$CMLSTYLE
  2
Standard
  9
$CMLJUST
 70
     0
  9
$CMLSCALE
 40
20.0
  9
$PROXYGRAPHICS
 70
     1
  9
$MEASUREMENT
 70
     1
  9
$CELWEIGHT
370
    -1
  9
$ENDCAPS
280
     0
  9
$JOINSTYLE
280
     0
  9
$LWDISPLAY
290
     1
  9
$INSUNITS
 70
     4
  9
$HYPERLINKBASE
  1

  9
$STYLESHEET
  1

  9
$XEDIT
290
     1
  9
$CEPSNTYPE
380
     0
  9
$PSTYLEMODE
290
     1
  9
$FINGERPRINTGUID
  2
{1585DE35-E231-4728-AEAA-9D3C11D4C04A}
  9
$VERSIONGUID
  2
{FAEB1C32-E019-11D5-929B-00C0DF256EC4}
  9
$EXTNAMES
290
     1
  9
$PSVPSCALE
 40
0.0
  9
$OLESTARTUP
290
     0
  0
ENDSEC
  0
SECTION
  2
CLASSES
  0
CLASS
  1
ACDBDICTIONARYWDFLT
  2
AcDbDictionaryWithDefault
  3
ObjectDBX Classes
 90
        0
280
     0
281
     0
  0
CLASS
  1
VISUALSTYLE
  2
AcDbVisualStyle
  3
ObjectDBX Classes
 90
     4095
280
     0
281
     0
  0
CLASS
  1
MATERIAL
  2
AcDbMaterial
  3
ObjectDBX Classes
 90
     1153
280
     0
281
     0
  0
CLASS
  1
SCALE
  2
AcDbScale
  3
ObjectDBX Classes
 90
     1153
280
     0
281
     0
  0
CLASS
  1
TABLESTYLE
  2
AcDbTableStyle
  3
ObjectDBX Classes
 90
     4095
280
     0
281
     0
  0
CLASS
  1
MLEADERSTYLE
  2
AcDbMLeaderStyle
  3
ACDB_MLEADERSTYLE_CLASS
 90
     4095
280
     0
281
     0
  0
CLASS
  1
SUN
  2
AcDbSun
  3
SCENEOE
 90
     1153
280
     0
281
     0
  0
CLASS
  1
ACDBPLACEHOLDER
  2
AcDbPlaceHolder
  3
ObjectDBX Classes
 90
        0
280
     0
281
     0
  0
CLASS
  1
LAYOUT
  2
AcDbLayout
  3
ObjectDBX Classes
 90
        0
280
     0
281
     0
  0
ENDSEC
  0
SECTION
  2
TABLES
  0
TABLE
  2
VPORT
  5
8
330
0
100
AcDbSymbolTable
 70
     1
  0
VPORT
  5
29
330
8
100
AcDbSymbolTableRecord
100
AcDbViewportTableRecord
  2
*Active
 70
     0
 10
0.0
 20
0.0
 11
1.0
 21
1.0
 12
594.5
 22
420.5
 13
0.0
 23
0.0
 14
10.0
 24
10.0
 15
10.0
 25
10.0
 16
0.0
 26
0.0
 36
1.0
 17
0.0
 27
0.0
 37
0.0
 40
841.0
 41
1.4137931034
 42
50.0
 43
0.0
 44
0.0
 50
0.0
 51
0.0
 71
     0
 72
  2000
 73
     1
 74
     3
 75
     0
 76
     0
 77
     0
 78
     0
281
     0
 65
     1
110
0.0
120
0.0
130
0.0
111
1.0
121
0.0
131
0.0
112
0.0
122
1.0
132
0.0
 79
     0
146
0.0
  0
ENDTAB
  0
TABLE
  2
LTYPE
  5
5
330
0
100
AcDbSymbolTable
 70
     6
  0
LTYPE
  5
14
330
5
100
AcDbSymbolTableRecord
100
AcDbLinetypeTableRecord
  2
ByBlock
 70
     0
  3

 72
    65
 73
     0
 40
0.0
  0
LTYPE
  5
15
330
5
100
AcDbSymbolTableRecord
100
AcDbLinetypeTableRecord
  2
ByLayer
 70
     0
  3

 72
    65
 73
     0
 40
0.0
  0
LTYPE
  5
16
330
5
100
AcDbSymbolTableRecord
100
AcDbLinetypeTableRecord
  2
Continuous
 70
     0
  3
Solid line
 72
    65
 73
     0
 40
0.0
  0
LTYPE
  5
6E
330
5
100
AcDbSymbolTableRecord
100
AcDbLinetypeTableRecord
  2
HIDDEN
 70
     0
  3
Hidden __ __ __ __ __ __ __ __ __ __ __ __ __ __
 72
    65
 73
     2
 40
1.905
 49
1.27
 74
     0
 49
-0.635
 74
     0
  0
LTYPE
  5
6F
330
5
100
AcDbSymbolTableRecord
100
AcDbLinetypeTableRecord
  2
PHANTOM
 70
     0
  3
Phantom ______  __  __  ______  __  __  ______
 72
    65
 73
     6
 40
12.7
 49
6.35
 74
     0
 49
-1.27
 74
     0
 49
1.27
 74
     0
 49
-1.27
 74
     0
 49
1.27
 74
     0
 49
-1.27
 74
     0
  0
LTYPE
  5
70
330
5
100
AcDbSymbolTableRecord
100
AcDbLinetypeTableRecord
  2
CENTER
 70
     0
  3
Center ____ _ ____ _ ____ _ ____ _ ____ _ ____
 72
    65
 73
     4
 40
10.16
 49
6.35
 74
     0
 49
-1.27
 74
     0
 49
1.27
 74
     0
 49
-1.27
 74
     0
  0
LTYPE
  5
71
330
5
100
AcDbSymbolTableRecord
100
AcDbLinetypeTableRecord
  2
CENTERX2
 70
     0
  3
Center (2x) ________  __  ________  __  _____
 72
    65
 73
     4
 40
20.32
 49
12.7
 74
     0
 49
-2.54
 74
     0
 49
2.54
 74
     0
 49
-2.54
 74
     0
  0
LTYPE
  5
72
330
5
100
AcDbSymbolTableRecord
100
AcDbLinetypeTableRecord
  2
DOT2
 70
     0
  3
Dot (.5x) ........................................
 72
    65
 73
     2
 40
0.635
 49
0.0
 74
     0
 49
-0.635
 74
     0
  0
ENDTAB
  0
TABLE
  2
LAYER
  5
2
330
0
100
AcDbSymbolTable
 70
     2
  0
LAYER
  5
10
330
2
100
AcDbSymbolTableRecord
100
AcDbLayerTableRecord
  2
0
 70
     0
 62
     7
  6
Continuous
370
    -3
390
F
  0
LAYER
  5
73
330
2
100
AcDbSymbolTableRecord
100
AcDbLayerTableRecord
  2
FORMAT
 70
     0
 62
     7
  6
Continuous
370
    -3
390
F
  0
ENDTAB
  0
TABLE
  2
STYLE
  5
3
330
0
100
AcDbSymbolTable
 70
     1
  0
STYLE
  5
11
330
3
100
AcDbSymbolTableRecord
100
AcDbTextStyleTableRecord
  2
Standard
 70
     0
 40
0.0
 41
1.0
 50
0.0
 71
     0
 42
3.5
  3
txt
  4

  0
ENDTAB
  0
TABLE
  2
VIEW
  5
6
330
0
100
AcDbSymbolTable
 70
     0
  0
ENDTAB
  0
TABLE
  2
UCS
  5
7
330
0
100
AcDbSymbolTable
 70
     0
  0
ENDTAB
  0
TABLE
  2
APPID
  5
9
330
0
100
AcDbSymbolTable
 70
     1
  0
APPID
  5
12
330
9
100
AcDbSymbolTableRecord
100
AcDbRegAppTableRecord
  2
ACAD
 70
     0
  0
ENDTAB
  0
TABLE
  2
DIMSTYLE
  5
A
330
0
100
AcDbSymbolTable
 70
     1
100
AcDbDimStyleTable
  0
DIMSTYLE
105
27
330
A
100
AcDbSymbolTableRecord
100
AcDbDimStyleTableRecord
  2
ISO-25
 70
     0
 41
2.5
 42
0.625
 43
3.75
 44
1.25
 73
     0
 74
     0
 77
     1
 78
     8
140
2.5
141
2.5
143
0.0393700787
147
0.625
171
     3
172
     1
178
     0
271
     2
272
     2
274
     3
278
    44
283
     0
284
     8
340
11
  0
ENDTAB
  0
TABLE
  2
BLOCK_RECORD
  5
1
330
0
100
AcDbSymbolTable
 70
     1
  0
BLOCK_RECORD
  5
1F
330
1
100
AcDbSymbolTableRecord
100
AcDbBlockTableRecord
  2
*Model_Space
340
22
  0
BLOCK_RECORD
  5
1B
330
1
100
AcDbSymbolTableRecord
100
AcDbBlockTableRecord
  2
*Paper_Space
340
1E
  0
BLOCK_RECORD
  5
23
330
1
100
AcDbSymbolTableRecord
100
AcDbBlockTableRecord
  2
*Paper_Space0
340
26
  0
ENDTAB
  0
ENDSEC
  0
SECTION
  2
BLOCKS
  0
BLOCK
  5
20
330
1F
100
AcDbEntity
  8
0
100
AcDbBlockBegin
  2
*Model_Space
 70
     0
 10
0.0
 20
0.0
 30
0.0
  3
*Model_Space
  1

  0
ENDBLK
  5
21
330
1F
100
AcDbEntity
  8
0
100
AcDbBlockEnd
  0
BLOCK
  5
1C
330
1B
100
AcDbEntity
 67
     1
  8
0
100
AcDbBlockBegin
  2
*Paper_Space
 70
     0
 10
0.0
 20
0.0
 30
0.0
  3
*Paper_Space
  1

  0
ENDBLK
  5
1D
330
1B
100
AcDbEntity
 67
     1
  8
0
100
AcDbBlockEnd
  0
BLOCK
  5
24
330
23
100
AcDbEntity
  8
0
100
AcDbBlockBegin
  2
*Paper_Space0
 70
     0
 10
0.0
 20
0.0
 30
0.0
  3
*Paper_Space0
  1

  0
ENDBLK
  5
25
330
23
100
AcDbEntity
  8
0
100
AcDbBlockEnd
  0
ENDSEC
  0
SECTION
  2
ENTITIES
  0
LINE
  5
74
330
1F
100
AcDbEntity
  8
0
  6
Continuous
 62
     7
370
    15
100
AcDbLine
 10
393.3953865948
 20
344.3746117342
 30
0.0
 11
393.70022859
 21
346.9694403399
 31
0.0
  0
LINE
  5
75
330
1F
100
AcDbEntity
  8
0
  6
Continuous
 62
     7
370
    15
100
AcDbLine
 10
393.3953865948
 20
344.3746117342
 30
0.0
 11
390.614508051
 21
344.7013047922
 31
0.0
  0
LINE
  5
76
330
1F
100
AcDbEntity
  8
0
  6
Continuous
 62
     7
370
    15
100
AcDbLine
 10
390.9193500462
 20
347.2961333979
 30
0.0
 11
390.614508051
 21
344.7013047922
 31
0.0
  0
LINE
  5
77
330
1F
100
AcDbEntity
  8
0
  6
Continuous
 62
     7
370
    15
100
AcDbLine
 10
390.2470573368
 20
345.0017837275
 30
0.0
 11
390.614508051
 21
344.7013047922
 31
0.0
  0
LINE
  5
78
330
1F
100
AcDbEntity
  8
0
  6
Continuous
 62
     7
370
    15
100
AcDbLine
 10
390.2470573368
 20
345.0017837275
 30
0.0
 11
390.5220850888
 21
347.3428038348
 31
0.0
  0
LINE
  5
79
330
1F
100
AcDbEntity
  8
0
  6
Continuous
 62
     7
370
    15
100
AcDbLine
 10
394.0974935475
 20
346.922769903
 30
0.0
 11
393.822471756
 21
344.5817497958
 31
0.0
  0
LINE
  5
7A
330
1F
100
AcDbEntity
  8
0
  6
Continuous
 62
     7
370
    15
100
AcDbLine
 10
393.822471756
 20
344.5817497958
 30
0.0
 11
393.3953865948
 21
344.3746117342
 31
0.0
  0
LINE
  5
7B
330
1F
100
AcDbEntity
  8
0
  6
Continuous
 62
     7
370
    15
100
AcDbLine
 10
393.2792529049
 20
339.9578241099
 30
0.0
 11
392.8251429978
 21
339.5206598032
 31
0.0
  0
LINE
  5
7C
330
1F
100
AcDbEntity
  8
0
  6
Continuous
 62
     7
370
    15
100
AcDbLine
 10
392.8251429978
 20
339.5206598032
 30
0.0
 11
393.3953865948
 21
344.3746117342
 31
0.0
  0
LINE
  5
7D
330
1F
100
AcDbEntity
  8
0
  6
Continuous
 62
     7
370
    15
100
AcDbLine
 10
393.822471756
 20
344.5817497958
 30
0.0
 11
393.2792529049
 21
339.9578241099
 31
0.0
  0
LINE
  5
7E
330
1F
100
AcDbEntity
  8
0
  6
Continuous
 62
     7
370
    15
100
AcDbLine
 10
390.614508051
 20
344.7013047922
 30
0.0
 11
390.0442644539
 21
339.8473647822
 31
0.0
  0
LINE
  5
7F
330
1F
100
AcDbEntity
  8
0
  6
Continuous
 62
     7
370
    15
100
AcDbLine
 10
390.0442644539
 20
339.8473647822
 30
0.0
 11
389.7038384858
 21
340.3778699625
 31
0.0
  0
LINE
  5
80
330
1F
100
AcDbEntity
  8
0
  6
Continuous
 62
     7
370
    15
100
AcDbLine
 10
389.7038384858
 20
340.3778699625
 30
0.0
 11
390.2470573368
 21
345.0017837275
 31
0.0
  0
LINE
  5
81
330
1F
100
AcDbEntity
  8
0
  6
Continuous
 62
     7
370
    15
100
AcDbLine
 10
392.8251429978
 20
339.5206598032
 30
0.0
 11
390.0442644539
 21
339.8473647822
 31
0.0
  0
LINE
  5
82
330
1F
100
AcDbEntity
  8
0
  6
Continuous
 62
     7
370
    15
100
AcDbLine
 10
428.0397638264
 20
350.607540964
 30
0.0
 11
428.1565770092
 21
350.6211785067
 31
0.0
  0
LINE
  5
83
330
1F
100
AcDbEntity
  8
0
  6
Continuous
 62
     7
370
    15
100
AcDbLine
 10
428.1565770092
 20
350.6211785067
 30
0.0
 11
428.326849598
 21
350.4871753443
 31
0.0
  0
LINE
  5
84
330
1F
100
AcDbEntity
  8
0
  6
Continuous
 62
     7
370
    15
100
AcDbLine
 10
428.1565770092
 20
350.6211785067
 30
0.0
 11
415.5300303879
 21
352.8733638514
 31
0.0
  0
LINE
  5
85
330
1F
100
AcDbEntity
  8
0
  6
Continuous
 62
     7
370
    15
100
AcDbLine
 10
415.0279148999
 20
352.9050496806
 30
0.0
 11
414.9083777848
 21
352.9050496806
 31
0.0
  0
ARC
  5
86
330
1F
100
AcDbEntity
  8
0
  6
Continuous
 62
     7
370
    15
100
AcDbCircle
 10
415.0763633663
 20
349.6785205069
 30
0.0
 40
3.226892896059794
100
AcDbArc
 50
81.9180447565
 51
90.8602693181
  0
LINE
  5
87
330
1F
100
AcDbEntity
  8
0
  6
Continuous
 62
     7
370
    15
100
AcDbLine
 10
428.210137743
 20
350.473466276
 30
0.0
 11
429.6375020924
 21
350.6411460627
 31
0.0
  0
LINE
  5
88
330
1F
100
AcDbEntity
  8
0
  6
Continuous
 62
     7
370
    15
100
AcDbLine
 10
429.6375020924
 20
350.6411460627
 30
0.0
 11
429.6315118256
 21
350.2376941431
 31
0.0
  0
LINE
  5
89
330
1F
100
AcDbEntity
  8
0
  6
Continuous
 62
     7
370
    15
100
AcDbLine
 10
429.6315118256
 20
350.2376941431
 30
0.0
 11
428.5321637574
 21
350.1085427988
 31
0.0
  0
LINE
  5
8A
330
1F
100
AcDbEntity
  8
0
  6
Continuous
 62
     7
370
    15
100
AcDbLine
 10
449.2283507767
 20
349.3179348696
 30
0.0
 11
430.0575419846
 21
347.065737604
 31
0.0
  0
LINE
  5
8B
330
1F
100
AcDbEntity
  8
0
  6
Continuous
 62
     7
370
    15
100
AcDbLine
 10
430.0575419846
 20
347.065737604
 30
0.0
 11
429.9582108441
 21
347.4568155993
 31
0.0
  0
LINE
  5
8C
330
1F
100
AcDbEntity
  8
0
  6
Continuous
 62
     7
370
    15
100
AcDbLine
 10
429.9582108441
 20
347.4568155993
 30
0.0
 11
449.3991538468
 21
349.7407463778
 31
0.0
  0
LINE
  5
8D
330
1F
100
AcDbEntity
  8
0
  6
Continuous
 62
     7
370
    15
100
AcDbLine
 10
430.0575419846
 20
347.065737604
 30
0.0
 11
420.8911403599
 21
345.9888604868
 31
0.0
  0
LINE
  5
8E
330
1F
100
AcDbEntity
  8
0
  6
Continuous
 62
     7
370
    15
100
AcDbLine
 10
428.2999321404
 20
347.2620037783
 30
0.0
 11
429.9582108441
 21
347.4568155993
 31
0.0
  0
LINE
  5
8F
330
1F
100
AcDbEntity
  8
0
  6
Continuous
 62
     7
370
    15
100
AcDbLine
 10
449.0724488678
 20
352.5216249216
 30
0.0
 11
429.6315118256
 21
350.2376941431
 31
0.0
  0
LINE
  5
90
330
1F
100
AcDbEntity
  8
0
  6
Continuous
 62
     7
370
    15
100
AcDbLine
 10
429.9582108441
 20
347.4568155993
 30
0.0
 11
429.6315118256
 21
350.2376941431
 31
0.0
  0
LINE
  5
91
330
1F
100
AcDbEntity
  8
0
  6
Continuous
 62
     7
370
    15
100
AcDbLine
 10
429.6375020924
 20
350.6411460627
 30
0.0
 11
448.808316845
 21
352.8933433283
 31
0.0
  0
LWPOLYLINE
  5
92
330
1F
100
AcDbEntity
  8
0
  6
Continuous
 62
     7
370
    15
100
AcDbPolyline
 90
        9
 70
   128
 43
0.0
 10
449.521939415
 20
352.5744346369
 10
449.5143219414
 20
352.5735286463
 10
449.4915887299
 20
352.5708583582
 10
449.4540735665
 20
352.5664595354
 10
449.4023724976
 20
352.5603798617
 10
449.3372723046
 20
352.5527385462
 10
449.2597624245
 20
352.5436309565
 10
449.1710349503
 20
352.5332001437
 10
449.0724488678
 20
352.5216249216
  0
LINE
  5
93
330
1F
100
AcDbEntity
  8
0
  6
Continuous
 62
     7
370
    15
100
AcDbLine
 10
449.848644394
 20
349.7935560931
 30
0.0
 11
449.521939415
 21
352.5744346369
 31
0.0
  0
LWPOLYLINE
  5
94
330
1F
100
AcDbEntity
  8
0
  6
Continuous
 62
     7
370
    15
100
AcDbPolyline
 90
        9
 70
   128
 43
0.0
 10
449.3991538468
 20
349.7407463778
 10
449.4977280083
 20
349.7523335207
 10
449.5864554825
 20
349.7627524126
 10
449.6639653626
 20
349.7718600024
 10
449.7290774765
 20
349.7795013178
 10
449.7807785454
 20
349.7855809916
 10
449.8182817879
 20
349.7899917353
 10
449.8410269204
 20
349.7926620234
 10
449.848644394
 20
349.7935560931
  0
LINE
  5
95
330
1F
100
AcDbEntity
  8
0
  6
Continuous
 62
     7
370
    15
100
AcDbLine
 10
449.848644394
 20
349.7935560931
 30
0.0
 11
449.4980498734
 21
349.3496087778
 31
0.0
  0
LWPOLYLINE
  5
96
330
1F
100
AcDbEntity
  8
0
  6
Continuous
 62
     7
370
    15
100
AcDbPolyline
 90
        9
 70
   128
 43
0.0
 10
449.4980498734
 20
349.3496087778
 10
449.4934722367
 20
349.349072336
 10
449.4798346939
 20
349.3474749316
 10
449.4573279801
 20
349.3448284853
 10
449.426297802
 20
349.3411806811
 10
449.3872448387
 20
349.3366030444
 10
449.340729374
 20
349.331131338
 10
449.2875024262
 20
349.3248847712
 10
449.2283507767
 20
349.3179348696
  0
LINE
  5
97
330
1F
100
AcDbEntity
  8
0
  6
Continuous
 62
     7
370
    15
100
AcDbLine
 10
449.0780040207
 20
352.9250291575
 30
0.0
 11
449.521939415
 21
352.5744346369
 31
0.0
  0
LWPOLYLINE
  5
98
330
1F
100
AcDbEntity
  8
0
  6
Continuous
 62
     7
370
    15
100
AcDbPolyline
 90
        9
 70
   128
 43
0.0
 10
448.808316845
 20
352.8933433283
 10
448.8674565735
 20
352.9002932299
 10
448.9206954422
 20
352.9065397967
 10
448.9671989861
 20
352.9120115031
 10
449.0062638703
 20
352.9166010607
 10
449.0372821274
 20
352.920236944
 10
449.0597888413
 20
352.9228833903
 10
449.0734383049
 20
352.9244927157
 10
449.0780040207
 20
352.9250291575
  0
LINE
  5
99
330
1F
100
AcDbEntity
  8
0
  6
Continuous
 62
     7
370
    15
100
AcDbLine
 10
392.8608044567
 20
347.0680502642
 30
0.0
 11
373.7096890393
 21
349.3179348696
 31
0.0
  0
LINE
  5
9A
330
1F
100
AcDbEntity
  8
0
  6
Continuous
 62
     7
370
    15
100
AcDbLine
 10
373.5388859692
 20
349.7407463778
 30
0.0
 11
392.9601355973
 21
347.4591401804
 31
0.0
  0
LINE
  5
9B
330
1F
100
AcDbEntity
  8
0
  6
Continuous
 62
     7
370
    15
100
AcDbLine
 10
392.8608044567
 20
347.0680502642
 30
0.0
 11
392.9601355973
 21
347.4591401804
 31
0.0
  0
LINE
  5
9C
330
1F
100
AcDbEntity
  8
0
  6
Continuous
 62
     7
370
    15
100
AcDbLine
 10
394.2687972966
 20
350.1246479739
 30
0.0
 11
393.2868346157
 21
350.2400068034
 31
0.0
  0
LINE
  5
9D
330
1F
100
AcDbEntity
  8
0
  6
Continuous
 62
     7
370
    15
100
AcDbLine
 10
392.9601355973
 20
347.4591401804
 30
0.0
 11
394.4724902096
 21
347.2814587344
 31
0.0
  0
LINE
  5
9E
330
1F
100
AcDbEntity
  8
0
  6
Continuous
 62
     7
370
    15
100
AcDbLine
 10
392.9601355973
 20
347.4591401804
 30
0.0
 11
393.2868346157
 21
350.2400068034
 31
0.0
  0
LINE
  5
9F
330
1F
100
AcDbEntity
  8
0
  6
Continuous
 62
     7
370
    15
100
AcDbLine
 10
393.2868346157
 20
350.2400068034
 30
0.0
 11
393.2808443489
 21
350.6434587229
 31
0.0
  0
LINE
  5
A0
330
1F
100
AcDbEntity
  8
0
  6
Continuous
 62
     7
370
    15
100
AcDbLine
 10
393.2808443489
 20
350.6434587229
 30
0.0
 11
394.611190218
 21
350.4871753443
 31
0.0
  0
LINE
  5
A1
330
1F
100
AcDbEntity
  8
0
  6
Continuous
 62
     7
370
    15
100
AcDbLine
 10
393.2868346157
 20
350.2400068034
 30
0.0
 11
373.8655849877
 21
352.5216249216
 31
0.0
  0
LINE
  5
A2
330
1F
100
AcDbEntity
  8
0
  6
Continuous
 62
     7
370
    15
100
AcDbLine
 10
374.1297289315
 20
352.8933433283
 30
0.0
 11
393.2808443489
 21
350.6434587229
 31
0.0
  0
LINE
  5
A3
330
1F
100
AcDbEntity
  8
0
  6
Continuous
 62
     7
370
    15
100
AcDbLine
 10
401.942454237
 20
346.0011390437
 30
0.0
 11
392.8608044567
 21
347.0680502642
 31
0.0
  0
LWPOLYLINE
  5
A4
330
1F
100
AcDbEntity
  8
0
  6
Continuous
 62
     7
370
    15
100
AcDbPolyline
 90
        9
 70
   128
 43
0.0
 10
373.8655849877
 20
352.5216249216
 10
373.7670078459
 20
352.5332001437
 10
373.6782833519
 20
352.5436309565
 10
373.6007734719
 20
352.5527385462
 10
373.5356643381
 20
352.5603798617
 10
373.483960289
 20
352.5664595354
 10
373.4464510861
 20
352.5708702792
 10
373.4237148943
 20
352.5735405672
 10
373.4160944405
 20
352.5744346369
  0
LINE
  5
A5
330
1F
100
AcDbEntity
  8
0
  6
Continuous
 62
     7
370
    15
100
AcDbLine
 10
373.4160944405
 20
352.5744346369
 30
0.0
 11
373.8600357952
 21
352.9250291575
 31
0.0
  0
LWPOLYLINE
  5
A6
330
1F
100
AcDbEntity
  8
0
  6
Continuous
 62
     7
370
    15
100
AcDbPolyline
 90
        9
 70
   128
 43
0.0
 10
373.8600357952
 20
352.9250291575
 10
373.8646044913
 20
352.9244927157
 10
373.8782479945
 20
352.9228833903
 10
373.9007547083
 20
352.920248865
 10
373.9317759457
 20
352.9166010607
 10
373.9708408299
 20
352.9120115031
 10
374.017347354
 20
352.9065517176
 10
374.0705802622
 20
352.9002932299
 10
374.1297289315
 20
352.8933433283
  0
LWPOLYLINE
  5
A7
330
1F
100
AcDbEntity
  8
0
  6
Continuous
 62
     7
370
    15
100
AcDbPolyline
 90
        9
 70
   128
 43
0.0
 10
373.0893984022
 20
349.7935560931
 10
373.0970158759
 20
349.7926620234
 10
373.1197520676
 20
349.7899917353
 10
373.1572612706
 20
349.7855809916
 10
373.2089682999
 20
349.7795132388
 10
373.2740744534
 20
349.7718600024
 10
373.3515843335
 20
349.7627524126
 10
373.4403088274
 20
349.7523335207
 10
373.5388859692
 20
349.7407463778
  0
LINE
  5
A8
330
1F
100
AcDbEntity
  8
0
  6
Continuous
 62
     7
370
    15
100
AcDbLine
 10
373.0893984022
 20
349.7935560931
 30
0.0
 11
373.4160944405
 21
352.5744346369
 31
0.0
  0
LINE
  5
A9
330
1F
100
AcDbEntity
  8
0
  6
Continuous
 62
     7
370
    15
100
AcDbLine
 10
373.0893984022
 20
349.7935560931
 30
0.0
 11
373.4399929228
 21
349.3496206988
 31
0.0
  0
LWPOLYLINE
  5
AA
330
1F
100
AcDbEntity
  8
0
  6
Continuous
 62
     7
370
    15
100
AcDbPolyline
 90
        9
 70
   128
 43
0.0
 10
373.7096890393
 20
349.3179348696
 10
373.65054037
 20
349.3248847712
 10
373.5973074618
 20
349.331131338
 10
373.5508009377
 20
349.3366030444
 10
373.5117360535
 20
349.341192602
 10
373.4807118359
 20
349.3448284853
 10
373.4582081023
 20
349.3474749316
 10
373.4445645991
 20
349.349084257
 10
373.4399929228
 20
349.3496206988
  0
ARC
  5
AB
330
1F
100
AcDbEntity
  8
0
  6
Continuous
 62
     7
370
    15
100
AcDbCircle
 10
414.9844400978
 20
344.3929898991
 30
0.0
 40
5.381190788166591
100
AcDbArc
 50
81.9213934204
 51
90.8585123277
  0
ARC
  5
AC
330
1F
100
AcDbEntity
  8
0
  6
Continuous
 62
     7
370
    15
100
AcDbCircle
 10
414.952249443
 20
346.1029362701
 30
0.0
 40
3.227068487749749
100
AcDbArc
 50
81.9182885343
 51
90.8600255403
  0
ARC
  5
AD
330
1F
100
AcDbEntity
  8
0
  6
Continuous
 62
     7
370
    15
100
AcDbCircle
 10
414.9844308357
 20
347.174924331
 30
0.0
 40
5.380134879861989
100
AcDbArc
 50
81.9196976892
 51
90.8585821854
  0
LINE
  5
AE
330
1F
100
AcDbEntity
  8
0
  6
Continuous
 62
     7
370
    15
100
AcDbLine
 10
407.9101249161
 20
349.7735766161
 30
0.0
 11
414.903812069
 21
349.7735766161
 31
0.0
  0
LINE
  5
AF
330
1F
100
AcDbEntity
  8
0
  6
Continuous
 62
     7
370
    15
100
AcDbLine
 10
414.903812069
 20
349.3296412218
 30
0.0
 11
407.9101249161
 21
349.3296412218
 31
0.0
  0
LINE
  5
B0
330
1F
100
AcDbEntity
  8
0
  6
Continuous
 62
     7
370
    15
100
AcDbLine
 10
414.903812069
 20
352.55445516
 30
0.0
 11
407.9101249161
 21
352.55445516
 31
0.0
  0
ARC
  5
B1
330
1F
100
AcDbEntity
  8
0
  6
Continuous
 62
     7
370
    15
100
AcDbCircle
 10
407.8295002548
 20
344.3928511515
 30
0.0
 40
5.381329469773814
100
AcDbArc
 50
89.1415456563
 51
98.0784973071
  0
ARC
  5
B2
330
1F
100
AcDbEntity
  8
0
  6
Continuous
 62
     7
370
    15
100
AcDbCircle
 10
407.8616764497
 20
346.1031120481
 30
0.0
 40
3.226892896062477
100
AcDbArc
 50
89.1397306819
 51
98.0819552435
  0
ARC
  5
B3
330
1F
100
AcDbEntity
  8
0
  6
Continuous
 62
     7
370
    15
100
AcDbCircle
 10
407.8295095202
 20
347.1747855598
 30
0.0
 40
5.380273584982874
100
AcDbArc
 50
89.1414758517
 51
98.0801929738
  0
LINE
  5
B4
330
1F
100
AcDbEntity
  8
0
  6
Continuous
 62
     7
370
    15
100
AcDbLine
 10
407.9101249161
 20
352.9050496806
 30
0.0
 11
414.903812069
 21
352.9050496806
 31
0.0
  0
ARC
  5
B5
330
1F
100
AcDbEntity
  8
0
  6
Continuous
 62
     7
370
    15
100
AcDbCircle
 10
414.9521626553
 20
349.6757664199
 30
0.0
 40
3.229645206021182
100
AcDbArc
 50
81.9232243581
 51
90.8577994947
  0
ARC
  5
B6
330
1F
100
AcDbEntity
  8
0
  6
Continuous
 62
     7
370
    15
100
AcDbCircle
 10
407.8617632262
 20
349.6759424407
 30
0.0
 40
3.229469371199306
100
AcDbArc
 50
89.141956781
 51
98.0770193663
  0
LINE
  5
B7
330
1F
100
AcDbEntity
  8
0
  6
Continuous
 62
     7
370
    15
100
AcDbLine
 10
394.7814628067
 20
347.045770048
 30
0.0
 11
401.8633648339
 21
346.2194589365
 31
0.0
  0
LINE
  5
B8
330
1F
100
AcDbEntity
  8
0
  6
Continuous
 62
     7
370
    15
100
AcDbLine
 10
409.5690175476
 20
345.3203824747
 30
0.0
 11
409.6690222206
 21
345.3087118853
 31
0.0
  0
LINE
  5
B9
330
1F
100
AcDbEntity
  8
0
  6
Continuous
 62
     7
370
    15
100
AcDbLine
 10
407.4080094281
 20
349.2979553927
 30
0.0
 11
394.7814628067
 21
347.045770048
 31
0.0
  0
LINE
  5
BA
330
1F
100
AcDbEntity
  8
0
  6
Continuous
 62
     7
370
    15
100
AcDbLine
 10
428.0194982472
 20
347.0480827082
 30
0.0
 11
415.405927557
 21
349.2979553927
 31
0.0
  0
LINE
  5
BB
330
1F
100
AcDbEntity
  8
0
  6
Continuous
 62
     7
370
    15
100
AcDbLine
 10
420.9771915856
 20
346.2263969172
 30
0.0
 11
428.0194982472
 21
347.0480827082
 31
0.0
  0
LINE
  5
BC
330
1F
100
AcDbEntity
  8
0
  6
Continuous
 62
     7
370
    15
100
AcDbLine
 10
413.1690486851
 20
348.629572748
 30
0.0
 11
409.6690222206
 21
348.629572748
 31
0.0
  0
LINE
  5
BD
330
1F
100
AcDbEntity
  8
0
  6
Continuous
 62
     7
370
    15
100
AcDbLine
 10
409.6690222206
 20
348.629572748
 30
0.0
 11
409.6690222206
 21
348.5523012865
 31
0.0
  0
LINE
  5
BE
330
1F
100
AcDbEntity
  8
0
  6
Continuous
 62
     7
370
    15
100
AcDbLine
 10
409.6690222206
 20
347.328844427
 30
0.0
 11
401.4190837326
 21
347.3249939669
 31
0.0
  0
LINE
  5
BF
330
1F
100
AcDbEntity
  8
0
  6
Continuous
 62
     7
370
    15
100
AcDbLine
 10
401.4190837326
 20
347.3249939669
 30
0.0
 11
401.4330848637
 21
346.9166306246
 31
0.0
  0
LINE
  5
C0
330
1F
100
AcDbEntity
  8
0
  6
Continuous
 62
     7
370
    15
100
AcDbLine
 10
401.4330848637
 20
346.9166306246
 30
0.0
 11
401.6107782307
 21
346.9167140711
 31
0.0
  0
LINE
  5
C1
330
1F
100
AcDbEntity
  8
0
  6
Continuous
 62
     7
370
    15
100
AcDbLine
 10
421.2305828514
 20
346.9258693446
 30
0.0
 11
421.4329286995
 21
346.925964712
 31
0.0
  0
LINE
  5
C2
330
1F
100
AcDbEntity
  8
0
  6
Continuous
 62
     7
370
    15
100
AcDbLine
 10
421.4329286995
 20
346.925964712
 30
0.0
 11
421.4189275685
 21
347.3343280543
 31
0.0
  0
LINE
  5
C3
330
1F
100
AcDbEntity
  8
0
  6
Continuous
 62
     7
370
    15
100
AcDbLine
 10
421.4189275685
 20
347.3343280543
 30
0.0
 11
413.2690175953
 21
347.3305252779
 31
0.0
  0
LINE
  5
C4
330
1F
100
AcDbEntity
  8
0
  6
Continuous
 62
     7
370
    15
100
AcDbLine
 10
413.1690486851
 20
348.5648182619
 30
0.0
 11
413.1690486851
 21
348.629572748
 31
0.0
  0
LINE
  5
C5
330
1F
100
AcDbEntity
  8
0
  6
Continuous
 62
     7
370
    15
100
AcDbLine
 10
415.7406672421
 20
349.7207788218
 30
0.0
 11
428.5321637574
 21
347.4391607035
 31
0.0
  0
LINE
  5
C6
330
1F
100
AcDbEntity
  8
0
  6
Continuous
 62
     7
370
    15
100
AcDbLine
 10
428.0194982472
 20
347.0480827082
 30
0.0
 11
428.5321637574
 21
347.4391607035
 31
0.0
  0
LINE
  5
C7
330
1F
100
AcDbEntity
  8
0
  6
Continuous
 62
     7
370
    15
100
AcDbLine
 10
428.5321637574
 20
350.2200392474
 30
0.0
 11
415.7406672421
 21
352.5016454447
 31
0.0
  0
LINE
  5
C8
330
1F
100
AcDbEntity
  8
0
  6
Continuous
 62
     7
370
    15
100
AcDbLine
 10
428.5321637574
 20
347.4391607035
 30
0.0
 11
428.5321637574
 21
350.2200392474
 31
0.0
  0
LINE
  5
C9
330
1F
100
AcDbEntity
  8
0
  6
Continuous
 62
     7
370
    15
100
AcDbLine
 10
407.0732637825
 20
352.5016454447
 30
0.0
 11
394.2687972966
 21
350.2177265871
 31
0.0
  0
LINE
  5
CA
330
1F
100
AcDbEntity
  8
0
  6
Continuous
 62
     7
370
    15
100
AcDbLine
 10
394.2687972966
 20
347.4368480433
 30
0.0
 11
407.0732637825
 21
349.7207788218
 31
0.0
  0
LINE
  5
CB
330
1F
100
AcDbEntity
  8
0
  6
Continuous
 62
     7
370
    15
100
AcDbLine
 10
394.2687972966
 20
347.4368480433
 30
0.0
 11
394.2687972966
 21
350.2177265871
 31
0.0
  0
LINE
  5
CC
330
1F
100
AcDbEntity
  8
0
  6
Continuous
 62
     7
370
    15
100
AcDbLine
 10
394.7814628067
 20
347.045770048
 30
0.0
 11
394.2687972966
 21
347.4368480433
 31
0.0
  0
LINE
  5
CD
330
1F
100
AcDbEntity
  8
0
  6
Continuous
 62
     7
370
    15
100
AcDbLine
 10
428.5321637574
 20
350.2200392474
 30
0.0
 11
428.0194982472
 21
350.6234911669
 31
0.0
  0
LINE
  5
CE
330
1F
100
AcDbEntity
  8
0
  6
Continuous
 62
     7
370
    15
100
AcDbLine
 10
415.405927557
 20
352.8733757723
 30
0.0
 11
428.0194982472
 21
350.6234911669
 31
0.0
  0
LINE
  5
CF
330
1F
100
AcDbEntity
  8
0
  6
Continuous
 62
     7
370
    15
100
AcDbLine
 10
394.7814628067
 20
350.6211785067
 30
0.0
 11
394.2687972966
 21
350.2177265871
 31
0.0
  0
LINE
  5
D0
330
1F
100
AcDbEntity
  8
0
  6
Continuous
 62
     7
370
    15
100
AcDbLine
 10
394.7814628067
 20
350.6211785067
 30
0.0
 11
407.4080094281
 21
352.8733757723
 31
0.0
  0
LINE
  5
D1
330
1F
100
AcDbEntity
  8
0
  6
Continuous
 62
     7
370
    15
100
AcDbLine
 10
401.4330848637
 20
347.3250058878
 30
0.0
 11
401.4330848637
 21
346.9166306246
 31
0.0
  0
LINE
  5
D2
330
1F
100
AcDbEntity
  8
0
  6
Continuous
 62
     7
370
    15
100
AcDbLine
 10
410.0690170708
 20
312.3047260035
 30
0.0
 11
410.0690170708
 21
203.2254753102
 31
0.0
  0
LINE
  5
D3
330
1F
100
AcDbEntity
  8
0
  6
Continuous
 62
     7
370
    15
100
AcDbLine
 10
410.0690170708
 20
203.2254753102
 30
0.0
 11
409.6690222206
 21
203.6254761208
 31
0.0
  0
LINE
  5
D4
330
1F
100
AcDbEntity
  8
0
  6
Continuous
 62
     7
370
    15
100
AcDbLine
 10
409.6690222206
 20
203.6254761208
 30
0.0
 11
409.6690222206
 21
312.0769170512
 31
0.0
  0
LINE
  5
D5
330
1F
100
AcDbEntity
  8
0
  6
Continuous
 62
     7
370
    15
100
AcDbLine
 10
410.0690170708
 20
312.3047260035
 30
0.0
 11
409.6690222206
 21
312.0769170512
 31
0.0
  0
LINE
  5
D6
330
1F
100
AcDbEntity
  8
0
  6
Continuous
 62
     7
370
    15
100
AcDbLine
 10
412.8690227452
 20
203.2254753102
 30
0.0
 11
412.8690227452
 21
312.3047260035
 31
0.0
  0
LINE
  5
D7
330
1F
100
AcDbEntity
  8
0
  6
Continuous
 62
     7
370
    15
100
AcDbLine
 10
412.8690227452
 20
203.2254753102
 30
0.0
 11
410.0690170708
 21
203.2254753102
 31
0.0
  0
LINE
  5
D8
330
1F
100
AcDbEntity
  8
0
  6
Continuous
 62
     7
370
    15
100
AcDbLine
 10
412.8690227452
 20
312.3047260035
 30
0.0
 11
410.0690170708
 21
312.3047260035
 31
0.0
  0
LINE
  5
D9
330
1F
100
AcDbEntity
  8
0
  6
Continuous
 62
     7
370
    15
100
AcDbLine
 10
413.2690175953
 20
312.0769170512
 30
0.0
 11
413.2690175953
 21
203.6254761208
 31
0.0
  0
LINE
  5
DA
330
1F
100
AcDbEntity
  8
0
  6
Continuous
 62
     7
370
    15
100
AcDbLine
 10
413.2690175953
 20
312.0769170512
 30
0.0
 11
412.8690227452
 21
312.3047260035
 31
0.0
  0
LINE
  5
DB
330
1F
100
AcDbEntity
  8
0
  6
Continuous
 62
     7
370
    15
100
AcDbLine
 10
413.2690175953
 20
203.6254761208
 30
0.0
 11
412.8690227452
 21
203.2254753102
 31
0.0
  0
LINE
  5
DC
330
1F
100
AcDbEntity
  8
0
  6
Continuous
 62
     7
370
    15
100
AcDbLine
 10
410.0690170708
 20
321.3136461962
 30
0.0
 11
410.0690170708
 21
312.3047260035
 31
0.0
  0
LINE
  5
DD
330
1F
100
AcDbEntity
  8
0
  6
Continuous
 62
     7
370
    15
100
AcDbLine
 10
410.0690170708
 20
321.3136461962
 30
0.0
 11
409.6690222206
 21
321.0568574656
 31
0.0
  0
LINE
  5
DE
330
1F
100
AcDbEntity
  8
0
  6
Continuous
 62
     7
370
    15
100
AcDbLine
 10
409.6690222206
 20
312.0769170512
 30
0.0
 11
409.6690222206
 21
321.0568574656
 31
0.0
  0
LINE
  5
DF
330
1F
100
AcDbEntity
  8
0
  6
Continuous
 62
     7
370
    15
100
AcDbLine
 10
412.8690227452
 20
312.3047260035
 30
0.0
 11
412.8690227452
 21
321.3136461962
 31
0.0
  0
LINE
  5
E0
330
1F
100
AcDbEntity
  8
0
  6
Continuous
 62
     7
370
    15
100
AcDbLine
 10
412.8690227452
 20
321.3136461962
 30
0.0
 11
410.0690170708
 21
321.3136461962
 31
0.0
  0
LINE
  5
E1
330
1F
100
AcDbEntity
  8
0
  6
Continuous
 62
     7
370
    15
100
AcDbLine
 10
413.2690175953
 20
321.0568574656
 30
0.0
 11
412.8690227452
 21
321.3136461962
 31
0.0
  0
LINE
  5
E2
330
1F
100
AcDbEntity
  8
0
  6
Continuous
 62
     7
370
    15
100
AcDbLine
 10
413.2690175953
 20
321.0568574656
 30
0.0
 11
413.2690175953
 21
312.0769170512
 31
0.0
  0
LINE
  5
E3
330
1F
100
AcDbEntity
  8
0
  6
Continuous
 62
     7
370
    15
100
AcDbLine
 10
410.0690170708
 20
348.629572748
 30
0.0
 11
410.0690170708
 21
343.8254741419
 31
0.0
  0
LINE
  5
E4
330
1F
100
AcDbEntity
  8
0
  6
Continuous
 62
     7
370
    15
100
AcDbLine
 10
410.0690170708
 20
343.8254741419
 30
0.0
 11
409.6690222206
 21
344.0540460337
 31
0.0
  0
LINE
  5
E5
330
1F
100
AcDbEntity
  8
0
  6
Continuous
 62
     7
370
    15
100
AcDbLine
 10
409.6690222206
 20
344.0540460337
 30
0.0
 11
409.6690222206
 21
348.5523012865
 31
0.0
  0
LINE
  5
E6
330
1F
100
AcDbEntity
  8
0
  6
Continuous
 62
     7
370
    15
100
AcDbLine
 10
413.2690175953
 20
344.0540460337
 30
0.0
 11
412.8690227452
 21
343.8254741419
 31
0.0
  0
LINE
  5
E7
330
1F
100
AcDbEntity
  8
0
  6
Continuous
 62
     7
370
    15
100
AcDbLine
 10
412.8690227452
 20
343.8254741419
 30
0.0
 11
412.8690227452
 21
348.629572748
 31
0.0
  0
LINE
  5
E8
330
1F
100
AcDbEntity
  8
0
  6
Continuous
 62
     7
370
    15
100
AcDbLine
 10
413.2690175953
 20
348.5523012865
 30
0.0
 11
413.2690175953
 21
344.0540460337
 31
0.0
  0
LINE
  5
E9
330
1F
100
AcDbEntity
  8
0
  6
Continuous
 62
     7
370
    15
100
AcDbLine
 10
412.8690227452
 20
343.8254741419
 30
0.0
 11
410.0690170708
 21
343.8254741419
 31
0.0
  0
LINE
  5
EA
330
1F
100
AcDbEntity
  8
0
  6
Continuous
 62
     7
370
    15
100
AcDbLine
 10
410.0690170708
 20
343.8254741419
 30
0.0
 11
410.0690170708
 21
337.2254756678
 31
0.0
  0
LINE
  5
EB
330
1F
100
AcDbEntity
  8
0
  6
Continuous
 62
     7
370
    15
100
AcDbLine
 10
410.0690170708
 20
337.2254756678
 30
0.0
 11
409.6690222206
 21
337.3594669093
 31
0.0
  0
LINE
  5
EC
330
1F
100
AcDbEntity
  8
0
  6
Continuous
 62
     7
370
    15
100
AcDbLine
 10
409.6690222206
 20
337.3594669093
 30
0.0
 11
409.6690222206
 21
344.0540460337
 31
0.0
  0
LINE
  5
ED
330
1F
100
AcDbEntity
  8
0
  6
Continuous
 62
     7
370
    15
100
AcDbLine
 10
412.8690227452
 20
337.2254756678
 30
0.0
 11
412.8690227452
 21
343.8254741419
 31
0.0
  0
LINE
  5
EE
330
1F
100
AcDbEntity
  8
0
  6
Continuous
 62
     7
370
    15
100
AcDbLine
 10
412.8690227452
 20
337.2254756678
 30
0.0
 11
410.0690170708
 21
337.2254756678
 31
0.0
  0
LINE
  5
EF
330
1F
100
AcDbEntity
  8
0
  6
Continuous
 62
     7
370
    15
100
AcDbLine
 10
413.2690175953
 20
337.3594669093
 30
0.0
 11
412.8690227452
 21
337.2254756678
 31
0.0
  0
LINE
  5
F0
330
1F
100
AcDbEntity
  8
0
  6
Continuous
 62
     7
370
    15
100
AcDbLine
 10
413.2690175953
 20
344.0540460337
 30
0.0
 11
413.2690175953
 21
337.3594669093
 31
0.0
  0
LINE
  5
F1
330
1F
100
AcDbEntity
  8
0
  6
Continuous
 62
     7
370
    15
100
AcDbLine
 10
412.8690227452
 20
321.3136461962
 30
0.0
 11
412.8690227452
 21
337.2254756678
 31
0.0
  0
LINE
  5
F2
330
1F
100
AcDbEntity
  8
0
  6
Continuous
 62
     7
370
    15
100
AcDbLine
 10
413.2690175953
 20
337.3594669093
 30
0.0
 11
413.2690175953
 21
321.0568574656
 31
0.0
  0
LINE
  5
F3
330
1F
100
AcDbEntity
  8
0
  6
Continuous
 62
     7
370
    15
100
AcDbLine
 10
410.0690170708
 20
337.2254756678
 30
0.0
 11
410.0690170708
 21
321.3136461962
 31
0.0
  0
LINE
  5
F4
330
1F
100
AcDbEntity
  8
0
  6
Continuous
 62
     7
370
    15
100
AcDbLine
 10
409.6690222206
 20
321.0568574656
 30
0.0
 11
409.6690222206
 21
337.3594669093
 31
0.0
  0
LINE
  5
F5
330
1F
100
AcDbEntity
  8
0
  6
Continuous
 62
     7
370
    15
100
AcDbLine
 10
429.11556806
 20
344.5817497958
 30
0.0
 11
428.8405462685
 21
346.922769903
 31
0.0
  0
LINE
  5
F6
330
1F
100
AcDbEntity
  8
0
  6
Continuous
 62
     7
370
    15
100
AcDbLine
 10
429.2378112259
 20
346.9694403399
 30
0.0
 11
429.5426532212
 21
344.3746117342
 31
0.0
  0
LINE
  5
F7
330
1F
100
AcDbEntity
  8
0
  6
Continuous
 62
     7
370
    15
100
AcDbLine
 10
429.11556806
 20
344.5817497958
 30
0.0
 11
429.5426532212
 21
344.3746117342
 31
0.0
  0
LINE
  5
F8
330
1F
100
AcDbEntity
  8
0
  6
Continuous
 62
     7
370
    15
100
AcDbLine
 10
432.323531765
 20
344.7013047922
 30
0.0
 11
432.0186897698
 21
347.2961333979
 31
0.0
  0
LINE
  5
F9
330
1F
100
AcDbEntity
  8
0
  6
Continuous
 62
     7
370
    15
100
AcDbLine
 10
429.5426532212
 20
344.3746117342
 30
0.0
 11
432.323531765
 21
344.7013047922
 31
0.0
  0
LINE
  5
FA
330
1F
100
AcDbEntity
  8
0
  6
Continuous
 62
     7
370
    15
100
AcDbLine
 10
432.4159547272
 20
347.3428038348
 30
0.0
 11
432.6909824791
 21
345.0017837275
 31
0.0
  0
LINE
  5
FB
330
1F
100
AcDbEntity
  8
0
  6
Continuous
 62
     7
370
    15
100
AcDbLine
 10
432.6909824791
 20
345.0017837275
 30
0.0
 11
432.323531765
 21
344.7013047922
 31
0.0
  0
LINE
  5
FC
330
1F
100
AcDbEntity
  8
0
  6
Continuous
 62
     7
370
    15
100
AcDbLine
 10
429.5426532212
 20
344.3746117342
 30
0.0
 11
430.1128968182
 21
339.5206598032
 31
0.0
  0
LINE
  5
FD
330
1F
100
AcDbEntity
  8
0
  6
Continuous
 62
     7
370
    15
100
AcDbLine
 10
432.893775362
 20
339.8473647822
 30
0.0
 11
432.323531765
 21
344.7013047922
 31
0.0
  0
LINE
  5
FE
330
1F
100
AcDbEntity
  8
0
  6
Continuous
 62
     7
370
    15
100
AcDbLine
 10
430.1128968182
 20
339.5206598032
 30
0.0
 11
432.893775362
 21
339.8473647822
 31
0.0
  0
LINE
  5
FF
330
1F
100
AcDbEntity
  8
0
  6
Continuous
 62
     7
370
    15
100
AcDbLine
 10
433.2341953698
 20
340.3778699625
 30
0.0
 11
432.893775362
 21
339.8473647822
 31
0.0
  0
LINE
  5
100
330
1F
100
AcDbEntity
  8
0
  6
Continuous
 62
     7
370
    15
100
AcDbLine
 10
432.6909824791
 20
345.0017837275
 30
0.0
 11
433.2341953698
 21
340.3778699625
 31
0.0
  0
LINE
  5
101
330
1F
100
AcDbEntity
  8
0
  6
Continuous
 62
     7
370
    15
100
AcDbLine
 10
430.1128968182
 20
339.5206598032
 30
0.0
 11
429.658786911
 21
339.9578241099
 31
0.0
  0
LINE
  5
102
330
1F
100
AcDbEntity
  8
0
  6
Continuous
 62
     7
370
    15
100
AcDbLine
 10
429.658786911
 20
339.9578241099
 30
0.0
 11
429.11556806
 21
344.5817497958
 31
0.0
  0
LINE
  5
103
330
1F
100
AcDbEntity
  8
0
  6
Continuous
 62
     7
370
    15
100
AcDbLine
 10
389.8884698334
 20
345.8062437762
 30
0.0
 11
390.0751575413
 21
347.3953155268
 31
0.0
  0
LINE
  5
104
330
1F
100
AcDbEntity
  8
0
  6
Continuous
 62
     7
370
    15
100
AcDbLine
 10
390.4724224987
 20
347.3486450899
 30
0.0
 11
390.3324111882
 21
346.1568382967
 31
0.0
  0
LINE
  5
105
330
1F
100
AcDbEntity
  8
0
  6
Continuous
 62
     7
370
    15
100
AcDbLine
 10
389.8884698334
 20
345.8062437762
 30
0.0
 11
390.3324111882
 21
346.1568382967
 31
0.0
  0
LINE
  5
106
330
1F
100
AcDbEntity
  8
0
  6
Continuous
 62
     7
370
    15
100
AcDbLine
 10
357.9313203278
 20
203.6454496373
 30
0.0
 11
366.713879961
 21
203.6454496373
 31
0.0
  0
LINE
  5
107
330
1F
100
AcDbEntity
  8
0
  6
Continuous
 62
     7
370
    15
100
AcDbLine
 10
366.713879961
 20
203.6454496373
 30
0.0
 11
367.0384153309
 21
203.2454488266
 31
0.0
  0
LINE
  5
108
330
1F
100
AcDbEntity
  8
0
  6
Continuous
 62
     7
370
    15
100
AcDbLine
 10
367.0384153309
 20
203.2454488266
 30
0.0
 11
357.4818700137
 21
203.2454488266
 31
0.0
  0
LINE
  5
109
330
1F
100
AcDbEntity
  8
0
  6
Continuous
 62
     7
370
    15
100
AcDbLine
 10
357.9313203278
 20
203.6454496373
 30
0.0
 11
357.4818700137
 21
203.2454488266
 31
0.0
  0
LINE
  5
10A
330
1F
100
AcDbEntity
  8
0
  6
Continuous
 62
     7
370
    15
100
AcDbLine
 10
416.9426485482
 20
340.4454497088
 30
0.0
 11
414.637343544
 21
340.4454497088
 31
0.0
  0
LINE
  5
10B
330
1F
100
AcDbEntity
  8
0
  6
Continuous
 62
     7
370
    15
100
AcDbLine
 10
409.6690222206
 20
340.4454497088
 30
0.0
 11
409.5690175476
 21
340.4454497088
 31
0.0
  0
LINE
  5
10C
330
1F
100
AcDbEntity
  8
0
  6
Continuous
 62
     7
370
    15
100
AcDbLine
 10
408.2006975594
 20
340.4454497088
 30
0.0
 11
405.9953912678
 21
340.4454497088
 31
0.0
  0
LINE
  5
10D
330
1F
100
AcDbEntity
  8
0
  6
Continuous
 62
     7
370
    15
100
AcDbLine
 10
405.9953912678
 20
340.4454497088
 30
0.0
 11
406.2690183106
 21
340.8454445589
 31
0.0
  0
LINE
  5
10E
330
1F
100
AcDbEntity
  8
0
  6
Continuous
 62
     7
370
    15
100
AcDbLine
 10
406.2690183106
 20
340.8454445589
 30
0.0
 11
407.6213702145
 21
340.8454445589
 31
0.0
  0
LINE
  5
10F
330
1F
100
AcDbEntity
  8
0
  6
Continuous
 62
     7
370
    15
100
AcDbLine
 10
409.5690175476
 20
340.8454445589
 30
0.0
 11
409.6690222206
 21
340.8454445589
 31
0.0
  0
LINE
  5
110
330
1F
100
AcDbEntity
  8
0
  6
Continuous
 62
     7
370
    15
100
AcDbLine
 10
415.2166708889
 20
340.8454445589
 30
0.0
 11
416.6690215054
 21
340.8454445589
 31
0.0
  0
LINE
  5
111
330
1F
100
AcDbEntity
  8
0
  6
Continuous
 62
     7
370
    15
100
AcDbLine
 10
416.6690215054
 20
340.8454445589
 30
0.0
 11
416.9426485482
 21
340.4454497088
 31
0.0
  0
LINE
  5
112
330
1F
100
AcDbEntity
  8
0
  6
Continuous
 62
     7
370
    15
100
AcDbLine
 10
404.7154530468
 20
324.7404721964
 30
0.0
 11
409.26902141
 21
324.7404721964
 31
0.0
  0
LINE
  5
113
330
1F
100
AcDbEntity
  8
0
  6
Continuous
 62
     7
370
    15
100
AcDbLine
 10
403.2899841252
 20
320.7016376246
 30
0.0
 11
404.7154530468
 21
324.7404721964
 31
0.0
  0
LINE
  5
114
330
1F
100
AcDbEntity
  8
0
  6
Continuous
 62
     7
370
    15
100
AcDbLine
 10
397.768233675
 20
305.0566819895
 30
0.0
 11
403.2899841252
 21
320.7016376246
 31
0.0
  0
LINE
  5
115
330
1F
100
AcDbEntity
  8
0
  6
Continuous
 62
     7
370
    15
100
AcDbLine
 10
388.0707665863
 20
305.0566819895
 30
0.0
 11
397.768233675
 21
305.0566819895
 31
0.0
  0
LINE
  5
116
330
1F
100
AcDbEntity
  8
0
  6
Continuous
 62
     7
370
    15
100
AcDbLine
 10
377.7858003559
 20
256.2194493998
 30
0.0
 11
388.0707665863
 21
305.0566819895
 31
0.0
  0
LINE
  5
117
330
1F
100
AcDbEntity
  8
0
  6
Continuous
 62
     7
370
    15
100
AcDbLine
 10
375.7690205756
 20
256.2194493998
 30
0.0
 11
377.7858003559
 21
256.2194493998
 31
0.0
  0
LINE
  5
118
330
1F
100
AcDbEntity
  8
0
  6
Continuous
 62
     7
370
    15
100
AcDbLine
 10
375.7690205756
 20
251.8194464434
 30
0.0
 11
375.7690205756
 21
252.1994737376
 31
0.0
  0
LINE
  5
119
330
1F
100
AcDbEntity
  8
0
  6
Continuous
 62
     7
370
    15
100
AcDbLine
 10
375.7690205756
 20
255.7994750727
 30
0.0
 11
375.7690205756
 21
256.2194493998
 31
0.0
  0
LINE
  5
11A
330
1F
100
AcDbEntity
  8
0
  6
Continuous
 62
     7
370
    15
100
AcDbLine
 10
376.8591746273
 20
251.8194464434
 30
0.0
 11
375.7690205756
 21
251.8194464434
 31
0.0
  0
LINE
  5
11B
330
1F
100
AcDbEntity
  8
0
  6
Continuous
 62
     7
370
    15
100
AcDbLine
 10
366.713879961
 20
203.6454496373
 30
0.0
 11
376.8591746273
 21
251.8194464434
 31
0.0
  0
LINE
  5
11C
330
1F
100
AcDbEntity
  8
0
  6
Continuous
 62
     7
370
    15
100
AcDbLine
 10
370.6012084666
 20
312.0968965281
 30
0.0
 11
357.9313203278
 21
203.6454496373
 31
0.0
  0
LINE
  5
11D
330
1F
100
AcDbEntity
  8
0
  6
Continuous
 62
     7
370
    15
100
AcDbLine
 10
383.7866290989
 20
321.0768250216
 30
0.0
 11
370.6012084666
 21
312.0968965281
 31
0.0
  0
LINE
  5
11E
330
1F
100
AcDbEntity
  8
0
  6
Continuous
 62
     7
370
    15
100
AcDbLine
 10
389.5404919567
 20
337.3794463862
 30
0.0
 11
383.7866290989
 21
321.0768250216
 31
0.0
  0
LINE
  5
11F
330
1F
100
AcDbEntity
  8
0
  6
Continuous
 62
     7
370
    15
100
AcDbLine
 10
381.2229856434
 20
344.0740255106
 30
0.0
 11
389.5404919567
 21
337.3794463862
 31
0.0
  0
LINE
  5
120
330
1F
100
AcDbEntity
  8
0
  6
Continuous
 62
     7
370
    15
100
AcDbLine
 10
380.0567701044
 20
348.5722807635
 30
0.0
 11
381.2229856434
 21
344.0740255106
 31
0.0
  0
LINE
  5
121
330
1F
100
AcDbEntity
  8
0
  6
Continuous
 62
     7
370
    15
100
AcDbLine
 10
394.357733387
 20
345.2811864603
 30
0.0
 11
393.9108118
 21
345.3336981524
 31
0.0
  0
LINE
  5
122
330
1F
100
AcDbEntity
  8
0
  6
Continuous
 62
     7
370
    15
100
AcDbLine
 10
390.3353973809
 20
345.7537320841
 30
0.0
 11
389.8884698334
 21
345.8062437762
 31
0.0
  0
LINE
  5
123
330
1F
100
AcDbEntity
  8
0
  6
Continuous
 62
     7
370
    15
100
AcDbLine
 10
394.5444210949
 20
346.870258211
 30
0.0
 11
394.357733387
 21
345.2811864603
 31
0.0
  0
LINE
  5
124
330
1F
100
AcDbEntity
  8
0
  6
Continuous
 62
     7
370
    15
100
AcDbLine
 10
405.9953912678
 20
340.4454497088
 30
0.0
 11
405.1858886662
 21
342.5270227183
 31
0.0
  0
LINE
  5
125
330
1F
100
AcDbEntity
  8
0
  6
Continuous
 62
     7
370
    15
100
AcDbLine
 10
417.78885569
 20
342.6214126337
 30
0.0
 11
416.9426485482
 21
340.4454497088
 31
0.0
  0
LINE
  5
126
330
1F
100
AcDbEntity
  8
0
  6
Continuous
 62
     7
370
    15
100
AcDbLine
 10
428.5803064289
 20
345.2811864603
 30
0.0
 11
428.393618721
 21
346.870258211
 31
0.0
  0
LINE
  5
127
330
1F
100
AcDbEntity
  8
0
  6
Continuous
 62
     7
370
    15
100
AcDbLine
 10
433.0495699826
 20
345.8062437762
 30
0.0
 11
432.6026424351
 21
345.7537320841
 31
0.0
  0
LINE
  5
128
330
1F
100
AcDbEntity
  8
0
  6
Continuous
 62
     7
370
    15
100
AcDbLine
 10
429.0272280159
 20
345.3336981524
 30
0.0
 11
428.5803064289
 21
345.2811864603
 31
0.0
  0
LINE
  5
129
330
1F
100
AcDbEntity
  8
0
  6
Continuous
 62
     7
370
    15
100
AcDbLine
 10
432.8628822747
 20
347.3953155268
 30
0.0
 11
433.0495699826
 21
345.8062437762
 31
0.0
  0
LINE
  5
12A
330
1F
100
AcDbEntity
  8
0
  6
Continuous
 62
     7
370
    15
100
AcDbLine
 10
441.7150541726
 20
344.0740255106
 30
0.0
 11
442.8812667313
 21
348.5722688425
 31
0.0
  0
LINE
  5
12B
330
1F
100
AcDbEntity
  8
0
  6
Continuous
 62
     7
370
    15
100
AcDbLine
 10
433.3975478592
 20
337.3794463862
 30
0.0
 11
441.7150541726
 21
344.0740255106
 31
0.0
  0
LINE
  5
12C
330
1F
100
AcDbEntity
  8
0
  6
Continuous
 62
     7
370
    15
100
AcDbLine
 10
439.151410717
 20
321.0768250216
 30
0.0
 11
433.3975478592
 21
337.3794463862
 31
0.0
  0
LINE
  5
12D
330
1F
100
AcDbEntity
  8
0
  6
Continuous
 62
     7
370
    15
100
AcDbLine
 10
452.3368283692
 20
312.0968965281
 30
0.0
 11
439.151410717
 21
321.0768250216
 31
0.0
  0
LINE
  5
12E
330
1F
100
AcDbEntity
  8
0
  6
Continuous
 62
     7
370
    15
100
AcDbLine
 10
465.0067135277
 20
203.6454496373
 30
0.0
 11
452.3368283692
 21
312.0968965281
 31
0.0
  0
LINE
  5
12F
330
1F
100
AcDbEntity
  8
0
  6
Continuous
 62
     7
370
    15
100
AcDbLine
 10
456.2241598549
 20
203.6454496373
 30
0.0
 11
465.0067135277
 21
203.6454496373
 31
0.0
  0
LINE
  5
130
330
1F
100
AcDbEntity
  8
0
  6
Continuous
 62
     7
370
    15
100
AcDbLine
 10
446.0788651886
 20
251.8194464434
 30
0.0
 11
456.2241598549
 21
203.6454496373
 31
0.0
  0
LINE
  5
131
330
1F
100
AcDbEntity
  8
0
  6
Continuous
 62
     7
370
    15
100
AcDbLine
 10
447.1690222206
 20
251.8194464434
 30
0.0
 11
446.0788651886
 21
251.8194464434
 31
0.0
  0
LINE
  5
132
330
1F
100
AcDbEntity
  8
0
  6
Continuous
 62
     7
370
    15
100
AcDbLine
 10
447.1690222206
 20
256.2194493998
 30
0.0
 11
447.1690222206
 21
255.7994750727
 31
0.0
  0
LINE
  5
133
330
1F
100
AcDbEntity
  8
0
  6
Continuous
 62
     7
370
    15
100
AcDbLine
 10
447.1690222206
 20
252.1994737376
 30
0.0
 11
447.1690222206
 21
251.8194464434
 31
0.0
  0
LINE
  5
134
330
1F
100
AcDbEntity
  8
0
  6
Continuous
 62
     7
370
    15
100
AcDbLine
 10
445.15223946
 20
256.2194493998
 30
0.0
 11
447.1690222206
 21
256.2194493998
 31
0.0
  0
LINE
  5
135
330
1F
100
AcDbEntity
  8
0
  6
Continuous
 62
     7
370
    15
100
AcDbLine
 10
434.8672672692
 20
305.0566819895
 30
0.0
 11
445.15223946
 21
256.2194493998
 31
0.0
  0
LINE
  5
136
330
1F
100
AcDbEntity
  8
0
  6
Continuous
 62
     7
370
    15
100
AcDbLine
 10
425.1698061409
 20
305.0566819895
 30
0.0
 11
434.8672672692
 21
305.0566819895
 31
0.0
  0
LINE
  5
137
330
1F
100
AcDbEntity
  8
0
  6
Continuous
 62
     7
370
    15
100
AcDbLine
 10
418.2225867691
 20
324.7404721964
 30
0.0
 11
425.1698061409
 21
305.0566819895
 31
0.0
  0
LINE
  5
138
330
1F
100
AcDbEntity
  8
0
  6
Continuous
 62
     7
370
    15
100
AcDbLine
 10
413.6690184059
 20
324.7404721964
 30
0.0
 11
418.2225867691
 21
324.7404721964
 31
0.0
  0
LINE
  5
139
330
1F
100
AcDbEntity
  8
0
  6
Continuous
 62
     7
370
    15
100
AcDbLine
 10
413.6690184059
 20
332.9824713457
 30
0.0
 11
413.6690184059
 21
324.7404721964
 31
0.0
  0
LINE
  5
13A
330
1F
100
AcDbEntity
  8
0
  6
Continuous
 62
     7
370
    15
100
AcDbLine
 10
409.26902141
 20
332.9824713457
 30
0.0
 11
409.6690222206
 21
332.9824713457
 31
0.0
  0
LINE
  5
13B
330
1F
100
AcDbEntity
  8
0
  6
Continuous
 62
     7
370
    15
100
AcDbLine
 10
413.2690175953
 20
332.9824713457
 30
0.0
 11
413.6690184059
 21
332.9824713457
 31
0.0
  0
LINE
  5
13C
330
1F
100
AcDbEntity
  8
0
  6
Continuous
 62
     7
370
    15
100
AcDbLine
 10
409.26902141
 20
324.7404721964
 30
0.0
 11
409.26902141
 21
332.9824713457
 31
0.0
  0
LINE
  5
13D
330
1F
100
AcDbEntity
  8
0
  6
Continuous
 62
     7
370
    15
100
AcDbLine
 10
417.9395779553
 20
324.3404773463
 30
0.0
 11
413.2690175953
 21
324.3404773463
 31
0.0
  0
LINE
  5
13E
330
1F
100
AcDbEntity
  8
0
  6
Continuous
 62
     7
370
    15
100
AcDbLine
 10
413.2690175953
 20
324.3404773463
 30
0.0
 11
413.6690184059
 21
324.7404721964
 31
0.0
  0
LINE
  5
13F
330
1F
100
AcDbEntity
  8
0
  6
Continuous
 62
     7
370
    15
100
AcDbLine
 10
417.9395779553
 20
324.3404773463
 30
0.0
 11
418.2225867691
 21
324.7404721964
 31
0.0
  0
LINE
  5
140
330
1F
100
AcDbEntity
  8
0
  6
Continuous
 62
     7
370
    15
100
AcDbLine
 10
432.6056286278
 20
346.1568382967
 30
0.0
 11
432.4656173172
 21
347.348633169
 31
0.0
  0
LINE
  5
141
330
1F
100
AcDbEntity
  8
0
  6
Continuous
 62
     7
370
    15
100
AcDbLine
 10
432.6056286278
 20
346.1568382967
 30
0.0
 11
433.0495699826
 21
345.8062437762
 31
0.0
  0
LINE
  5
142
330
1F
100
AcDbEntity
  8
0
  6
Continuous
 62
     7
370
    15
100
AcDbLine
 10
376.8591746273
 20
251.8194464434
 30
0.0
 11
377.3275658074
 21
252.1994737376
 31
0.0
  0
LINE
  5
143
330
1F
100
AcDbEntity
  8
0
  6
Continuous
 62
     7
370
    15
100
AcDbLine
 10
377.3479803982
 20
252.1994737376
 30
0.0
 11
367.0384153309
 21
203.2454488266
 31
0.0
  0
LINE
  5
144
330
1F
100
AcDbEntity
  8
0
  6
Continuous
 62
     7
370
    15
100
AcDbLine
 10
428.9309009495
 20
345.7251218546
 30
0.0
 11
428.9805575791
 21
345.7309631098
 31
0.0
  0
LINE
  5
145
330
1F
100
AcDbEntity
  8
0
  6
Continuous
 62
     7
370
    15
100
AcDbLine
 10
432.5559719982
 20
346.1509970415
 30
0.0
 11
432.6056286278
 21
346.1568382967
 31
0.0
  0
LINE
  5
146
330
1F
100
AcDbEntity
  8
0
  6
Continuous
 62
     7
370
    15
100
AcDbLine
 10
428.9309009495
 20
345.7251218546
 30
0.0
 11
428.5803064289
 21
345.2811864603
 31
0.0
  0
LINE
  5
147
330
1F
100
AcDbEntity
  8
0
  6
Continuous
 62
     7
370
    15
100
AcDbLine
 10
390.3324111882
 20
346.1568382967
 30
0.0
 11
390.3820678177
 21
346.1510089625
 31
0.0
  0
LINE
  5
148
330
1F
100
AcDbEntity
  8
0
  6
Continuous
 62
     7
370
    15
100
AcDbLine
 10
393.9574822369
 20
345.7309631098
 30
0.0
 11
394.0071388665
 21
345.7251337756
 31
0.0
  0
LINE
  5
149
330
1F
100
AcDbEntity
  8
0
  6
Continuous
 62
     7
370
    15
100
AcDbLine
 10
394.357733387
 20
345.2811864603
 30
0.0
 11
394.0071388665
 21
345.7251337756
 31
0.0
  0
LINE
  5
14A
330
1F
100
AcDbEntity
  8
0
  6
Continuous
 62
     7
370
    15
100
AcDbLine
 10
465.4561683121
 20
203.2454488266
 30
0.0
 11
455.8996244851
 21
203.2454488266
 31
0.0
  0
LINE
  5
14B
330
1F
100
AcDbEntity
  8
0
  6
Continuous
 62
     7
370
    15
100
AcDbLine
 10
455.8996244851
 20
203.2454488266
 30
0.0
 11
456.2241598549
 21
203.6454496373
 31
0.0
  0
LINE
  5
14C
330
1F
100
AcDbEntity
  8
0
  6
Continuous
 62
     7
370
    15
100
AcDbLine
 10
465.4561683121
 20
203.2454488266
 30
0.0
 11
465.0067135277
 21
203.6454496373
 31
0.0
  0
LINE
  5
14D
330
1F
100
AcDbEntity
  8
0
  6
Continuous
 62
     7
370
    15
100
AcDbLine
 10
409.26902141
 20
332.9824713457
 30
0.0
 11
409.6690222206
 21
332.5824764956
 31
0.0
  0
LINE
  5
14E
330
1F
100
AcDbEntity
  8
0
  6
Continuous
 62
     7
370
    15
100
AcDbLine
 10
409.26902141
 20
324.7404721964
 30
0.0
 11
409.6690222206
 21
324.3404773463
 31
0.0
  0
LINE
  5
14F
330
1F
100
AcDbEntity
  8
0
  6
Continuous
 62
     7
370
    15
100
AcDbLine
 10
434.5427318993
 20
304.6566871394
 30
0.0
 11
424.8867973271
 21
304.6566871394
 31
0.0
  0
LINE
  5
150
330
1F
100
AcDbEntity
  8
0
  6
Continuous
 62
     7
370
    15
100
AcDbLine
 10
424.8867973271
 20
304.6566871394
 30
0.0
 11
425.1698061409
 21
305.0566819895
 31
0.0
  0
LINE
  5
151
330
1F
100
AcDbEntity
  8
0
  6
Continuous
 62
     7
370
    15
100
AcDbLine
 10
434.5427318993
 20
304.6566871394
 30
0.0
 11
434.8672672692
 21
305.0566819895
 31
0.0
  0
LINE
  5
152
330
1F
100
AcDbEntity
  8
0
  6
Continuous
 62
     7
370
    15
100
AcDbLine
 10
455.8996244851
 20
203.2454488266
 30
0.0
 11
445.5900594178
 21
252.1994737376
 31
0.0
  0
LINE
  5
153
330
1F
100
AcDbEntity
  8
0
  6
Continuous
 62
     7
370
    15
100
AcDbLine
 10
445.6104680481
 20
252.1994737376
 30
0.0
 11
446.0788651886
 21
251.8194464434
 31
0.0
  0
LINE
  5
154
330
1F
100
AcDbEntity
  8
0
  6
Continuous
 62
     7
370
    15
100
AcDbLine
 10
446.7690154496
 20
255.8194485892
 30
0.0
 11
444.8277040902
 21
255.8194485892
 31
0.0
  0
LINE
  5
155
330
1F
100
AcDbEntity
  8
0
  6
Continuous
 62
     7
370
    15
100
AcDbLine
 10
444.8277040902
 20
255.8194485892
 30
0.0
 11
445.15223946
 21
256.2194493998
 31
0.0
  0
LINE
  5
156
330
1F
100
AcDbEntity
  8
0
  6
Continuous
 62
     7
370
    15
100
AcDbLine
 10
446.7690154496
 20
255.8194485892
 30
0.0
 11
447.1690222206
 21
256.2194493998
 31
0.0
  0
LINE
  5
157
330
1F
100
AcDbEntity
  8
0
  6
Continuous
 62
     7
370
    15
100
AcDbLine
 10
413.2690175953
 20
332.5824764956
 30
0.0
 11
413.6690184059
 21
332.9824713457
 31
0.0
  0
LINE
  5
158
330
1F
100
AcDbEntity
  8
0
  6
Continuous
 62
     7
370
    15
100
AcDbLine
 10
444.8277040902
 20
255.8194485892
 30
0.0
 11
434.5427318993
 21
304.6566871394
 31
0.0
  0
LINE
  5
159
330
1F
100
AcDbEntity
  8
0
  6
Continuous
 62
     7
370
    15
100
AcDbLine
 10
405.7726129475
 20
342.1219257105
 30
0.0
 11
406.2690183106
 21
340.8454445589
 31
0.0
  0
LINE
  5
15A
330
1F
100
AcDbEntity
  8
0
  6
Continuous
 62
     7
370
    15
100
AcDbLine
 10
409.6690222206
 20
324.3404773463
 30
0.0
 11
404.9984618607
 21
324.3404773463
 31
0.0
  0
LINE
  5
15B
330
1F
100
AcDbEntity
  8
0
  6
Continuous
 62
     7
370
    15
100
AcDbLine
 10
404.7154530468
 20
324.7404721964
 30
0.0
 11
404.9984618607
 21
324.3404773463
 31
0.0
  0
LINE
  5
15C
330
1F
100
AcDbEntity
  8
0
  6
Continuous
 62
     7
370
    15
100
AcDbLine
 10
416.6690215054
 20
340.8454445589
 30
0.0
 11
417.2021314087
 21
342.216315626
 31
0.0
  0
LINE
  5
15D
330
1F
100
AcDbEntity
  8
0
  6
Continuous
 62
     7
370
    15
100
AcDbLine
 10
443.3074757042
 20
348.6223486651
 30
0.0
 11
442.069022316
 21
343.8454536188
 31
0.0
  0
LINE
  5
15E
330
1F
100
AcDbEntity
  8
0
  6
Continuous
 62
     7
370
    15
100
AcDbLine
 10
442.069022316
 20
343.8454536188
 30
0.0
 11
441.7150541726
 21
344.0740255106
 31
0.0
  0
LINE
  5
15F
330
1F
100
AcDbEntity
  8
0
  6
Continuous
 62
     7
370
    15
100
AcDbLine
 10
452.7129336777
 20
312.3247054804
 30
0.0
 11
465.4561683121
 21
203.2454488266
 31
0.0
  0
LINE
  5
160
330
1F
100
AcDbEntity
  8
0
  6
Continuous
 62
     7
370
    15
100
AcDbLine
 10
452.7129336777
 20
312.3247054804
 30
0.0
 11
452.3368283692
 21
312.0968965281
 31
0.0
  0
LINE
  5
161
330
1F
100
AcDbEntity
  8
0
  6
Continuous
 62
     7
370
    15
100
AcDbLine
 10
394.0071388665
 20
345.7251337756
 30
0.0
 11
394.147150177
 21
346.9169286478
 31
0.0
  0
LINE
  5
162
330
1F
100
AcDbEntity
  8
0
  6
Continuous
 62
     7
370
    15
100
AcDbLine
 10
428.7908896389
 20
346.9169286478
 30
0.0
 11
428.9309009495
 21
345.7251218546
 31
0.0
  0
LINE
  5
163
330
1F
100
AcDbEntity
  8
0
  6
Continuous
 62
     7
370
    15
100
AcDbLine
 10
383.7866290989
 20
321.0768250216
 30
0.0
 11
383.4530815068
 21
321.3336137522
 31
0.0
  0
LINE
  5
164
330
1F
100
AcDbEntity
  8
0
  6
Continuous
 62
     7
370
    15
100
AcDbLine
 10
383.4530815068
 20
321.3336137522
 30
0.0
 11
389.0690192166
 21
337.2454432238
 31
0.0
  0
LINE
  5
165
330
1F
100
AcDbEntity
  8
0
  6
Continuous
 62
     7
370
    15
100
AcDbLine
 10
389.5404919567
 20
337.3794463862
 30
0.0
 11
389.0690192166
 21
337.2454432238
 31
0.0
  0
LINE
  5
166
330
1F
100
AcDbEntity
  8
0
  6
Continuous
 62
     7
370
    15
100
AcDbLine
 10
424.8867973271
 20
304.6566871394
 30
0.0
 11
417.9395779553
 21
324.3404773463
 31
0.0
  0
LINE
  5
167
330
1F
100
AcDbEntity
  8
0
  6
Continuous
 62
     7
370
    15
100
AcDbLine
 10
389.0690192166
 20
337.2454432238
 30
0.0
 11
380.8690204802
 21
343.8454536188
 31
0.0
  0
LINE
  5
168
330
1F
100
AcDbEntity
  8
0
  6
Continuous
 62
     7
370
    15
100
AcDbLine
 10
381.2229856434
 20
344.0740255106
 30
0.0
 11
380.8690204802
 21
343.8454536188
 31
0.0
  0
LINE
  5
169
330
1F
100
AcDbEntity
  8
0
  6
Continuous
 62
     7
370
    15
100
AcDbLine
 10
446.7690154496
 20
255.7994750727
 30
0.0
 11
446.7690154496
 21
255.8194485892
 31
0.0
  0
LINE
  5
16A
330
1F
100
AcDbEntity
  8
0
  6
Continuous
 62
     7
370
    15
100
AcDbLine
 10
446.7889949265
 20
252.1994737376
 30
0.0
 11
447.1690222206
 21
251.8194464434
 31
0.0
  0
LINE
  5
16B
330
1F
100
AcDbEntity
  8
0
  6
Continuous
 62
     7
370
    15
100
AcDbLine
 10
388.0707665863
 20
305.0566819895
 30
0.0
 11
388.3953019562
 21
304.6566871394
 31
0.0
  0
LINE
  5
16C
330
1F
100
AcDbEntity
  8
0
  6
Continuous
 62
     7
370
    15
100
AcDbLine
 10
388.3953019562
 20
304.6566871394
 30
0.0
 11
378.1103357258
 21
255.8194485892
 31
0.0
  0
LINE
  5
16D
330
1F
100
AcDbEntity
  8
0
  6
Continuous
 62
     7
370
    15
100
AcDbLine
 10
377.7858003559
 20
256.2194493998
 30
0.0
 11
378.1103357258
 21
255.8194485892
 31
0.0
  0
LINE
  5
16E
330
1F
100
AcDbEntity
  8
0
  6
Continuous
 62
     7
370
    15
100
AcDbLine
 10
378.1103357258
 20
255.8194485892
 30
0.0
 11
376.1690184059
 21
255.8194485892
 31
0.0
  0
LINE
  5
16F
330
1F
100
AcDbEntity
  8
0
  6
Continuous
 62
     7
370
    15
100
AcDbLine
 10
375.7690205756
 20
256.2194493998
 30
0.0
 11
376.1690184059
 21
255.8194485892
 31
0.0
  0
LINE
  5
170
330
1F
100
AcDbEntity
  8
0
  6
Continuous
 62
     7
370
    15
100
AcDbLine
 10
397.768233675
 20
305.0566819895
 30
0.0
 11
398.0512424889
 21
304.6566871394
 31
0.0
  0
LINE
  5
171
330
1F
100
AcDbEntity
  8
0
  6
Continuous
 62
     7
370
    15
100
AcDbLine
 10
398.0512424889
 20
304.6566871394
 30
0.0
 11
388.3953019562
 21
304.6566871394
 31
0.0
  0
LINE
  5
172
330
1F
100
AcDbEntity
  8
0
  6
Continuous
 62
     7
370
    15
100
AcDbLine
 10
442.069022316
 20
343.8454536188
 30
0.0
 11
433.8690205994
 21
337.2454432238
 31
0.0
  0
LINE
  5
173
330
1F
100
AcDbEntity
  8
0
  6
Continuous
 62
     7
370
    15
100
AcDbLine
 10
433.8690205994
 20
337.2454432238
 30
0.0
 11
433.3975478592
 21
337.3794463862
 31
0.0
  0
LINE
  5
174
330
1F
100
AcDbEntity
  8
0
  6
Continuous
 62
     7
370
    15
100
AcDbLine
 10
357.4818700137
 20
203.2454488266
 30
0.0
 11
370.225103158
 21
312.3247054804
 31
0.0
  0
LINE
  5
175
330
1F
100
AcDbEntity
  8
0
  6
Continuous
 62
     7
370
    15
100
AcDbLine
 10
370.6012084666
 20
312.0968965281
 30
0.0
 11
370.225103158
 21
312.3247054804
 31
0.0
  0
LINE
  5
176
330
1F
100
AcDbEntity
  8
0
  6
Continuous
 62
     7
370
    15
100
AcDbLine
 10
439.4849583092
 20
321.3336137522
 30
0.0
 11
452.7129336777
 21
312.3247054804
 31
0.0
  0
LINE
  5
177
330
1F
100
AcDbEntity
  8
0
  6
Continuous
 62
     7
370
    15
100
AcDbLine
 10
439.4849583092
 20
321.3336137522
 30
0.0
 11
439.151410717
 21
321.0768250216
 31
0.0
  0
LINE
  5
178
330
1F
100
AcDbEntity
  8
0
  6
Continuous
 62
     7
370
    15
100
AcDbLine
 10
403.6671801987
 20
320.5685166109
 30
0.0
 11
398.0512424889
 21
304.6566871394
 31
0.0
  0
LINE
  5
179
330
1F
100
AcDbEntity
  8
0
  6
Continuous
 62
     7
370
    15
100
AcDbLine
 10
433.8690205994
 20
337.2454432238
 30
0.0
 11
439.4849583092
 21
321.3336137522
 31
0.0
  0
LINE
  5
17A
330
1F
100
AcDbEntity
  8
0
  6
Continuous
 62
     7
370
    15
100
AcDbLine
 10
375.7690205756
 20
251.8194464434
 30
0.0
 11
376.1490448895
 21
252.1994737376
 31
0.0
  0
LINE
  5
17B
330
1F
100
AcDbEntity
  8
0
  6
Continuous
 62
     7
370
    15
100
AcDbLine
 10
376.1690184059
 20
255.8194485892
 30
0.0
 11
376.1690184059
 21
255.7994750727
 31
0.0
  0
LINE
  5
17C
330
1F
100
AcDbEntity
  8
0
  6
Continuous
 62
     7
370
    15
100
AcDbLine
 10
404.9984618607
 20
324.3404773463
 30
0.0
 11
403.6671801987
 21
320.5685166109
 31
0.0
  0
LINE
  5
17D
330
1F
100
AcDbEntity
  8
0
  6
Continuous
 62
     7
370
    15
100
AcDbLine
 10
380.8690204802
 20
343.8454536188
 30
0.0
 11
379.6305641117
 21
348.6223486651
 31
0.0
  0
LINE
  5
17E
330
1F
100
AcDbEntity
  8
0
  6
Continuous
 62
     7
370
    15
100
AcDbLine
 10
370.225103158
 20
312.3247054804
 30
0.0
 11
383.4530815068
 21
321.3336137522
 31
0.0
  0
LINE
  5
17F
330
1F
100
AcDbEntity
  8
0
  6
Continuous
 62
     7
370
    15
100
AcDbLine
 10
417.1654268685
 20
342.1219257105
 30
0.0
 11
415.3166755619
 21
340.8454445589
 31
0.0
  0
LINE
  5
180
330
1F
100
AcDbEntity
  8
0
  6
Continuous
 62
     7
370
    15
100
AcDbLine
 10
413.2690175953
 20
255.7994750727
 30
0.0
 11
430.9527620259
 21
255.7994750727
 31
0.0
  0
LINE
  5
181
330
1F
100
AcDbEntity
  8
0
  6
Continuous
 62
     7
370
    15
100
AcDbLine
 10
430.9527620259
 20
255.7994750727
 30
0.0
 11
431.2415644112
 21
255.3994742621
 31
0.0
  0
LINE
  5
182
330
1F
100
AcDbEntity
  8
0
  6
Continuous
 62
     7
370
    15
100
AcDbLine
 10
431.2415644112
 20
255.3994742621
 30
0.0
 11
413.2690175953
 21
255.3994742621
 31
0.0
  0
LINE
  5
183
330
1F
100
AcDbEntity
  8
0
  6
Continuous
 62
     7
370
    15
100
AcDbLine
 10
413.2690175953
 20
252.5994745482
 30
0.0
 11
431.2415644112
 21
252.5994745482
 31
0.0
  0
LINE
  5
184
330
1F
100
AcDbEntity
  8
0
  6
Continuous
 62
     7
370
    15
100
AcDbLine
 10
431.2415644112
 20
252.5994745482
 30
0.0
 11
431.2415644112
 21
255.3994742621
 31
0.0
  0
LINE
  5
185
330
1F
100
AcDbEntity
  8
0
  6
Continuous
 62
     7
370
    15
100
AcDbLine
 10
430.9527620259
 20
252.1994737376
 30
0.0
 11
413.2690175953
 21
252.1994737376
 31
0.0
  0
LINE
  5
186
330
1F
100
AcDbEntity
  8
0
  6
Continuous
 62
     7
370
    15
100
AcDbLine
 10
430.9527620259
 20
252.1994737376
 30
0.0
 11
431.2415644112
 21
252.5994745482
 31
0.0
  0
LINE
  5
187
330
1F
100
AcDbEntity
  8
0
  6
Continuous
 62
     7
370
    15
100
AcDbLine
 10
409.6690222206
 20
252.1994737376
 30
0.0
 11
391.9852777901
 21
252.1994737376
 31
0.0
  0
LINE
  5
188
330
1F
100
AcDbEntity
  8
0
  6
Continuous
 62
     7
370
    15
100
AcDbLine
 10
391.9852777901
 20
252.1994737376
 30
0.0
 11
391.6964754048
 21
252.5994745482
 31
0.0
  0
LINE
  5
189
330
1F
100
AcDbEntity
  8
0
  6
Continuous
 62
     7
370
    15
100
AcDbLine
 10
391.6964754048
 20
252.5994745482
 30
0.0
 11
409.6690222206
 21
252.5994745482
 31
0.0
  0
LINE
  5
18A
330
1F
100
AcDbEntity
  8
0
  6
Continuous
 62
     7
370
    15
100
AcDbLine
 10
391.6964754048
 20
252.5994745482
 30
0.0
 11
391.6964754048
 21
255.3994742621
 31
0.0
  0
LINE
  5
18B
330
1F
100
AcDbEntity
  8
0
  6
Continuous
 62
     7
370
    15
100
AcDbLine
 10
409.6690222206
 20
255.3994742621
 30
0.0
 11
391.6964754048
 21
255.3994742621
 31
0.0
  0
LINE
  5
18C
330
1F
100
AcDbEntity
  8
0
  6
Continuous
 62
     7
370
    15
100
AcDbLine
 10
391.6964754048
 20
255.3994742621
 30
0.0
 11
391.9852777901
 21
255.7994750727
 31
0.0
  0
LINE
  5
18D
330
1F
100
AcDbEntity
  8
0
  6
Continuous
 62
     7
370
    15
100
AcDbLine
 10
391.9852777901
 20
255.7994750727
 30
0.0
 11
409.6690222206
 21
255.7994750727
 31
0.0
  0
LINE
  5
18E
330
1F
100
AcDbEntity
  8
0
  6
Continuous
 62
     7
370
    15
100
AcDbLine
 10
431.2415644112
 20
252.5994745482
 30
0.0
 11
458.5589095536
 21
252.5994745482
 31
0.0
  0
LINE
  5
18F
330
1F
100
AcDbEntity
  8
0
  6
Continuous
 62
     7
370
    15
100
AcDbLine
 10
458.5589095536
 20
252.5994745482
 30
0.0
 11
457.8311487618
 21
252.1994737376
 31
0.0
  0
LINE
  5
190
330
1F
100
AcDbEntity
  8
0
  6
Continuous
 62
     7
370
    15
100
AcDbLine
 10
457.8311487618
 20
252.1994737376
 30
0.0
 11
430.9527620259
 21
252.1994737376
 31
0.0
  0
LINE
  5
191
330
1F
100
AcDbEntity
  8
0
  6
Continuous
 62
     7
370
    15
100
AcDbLine
 10
458.5589095536
 20
255.3994742621
 30
0.0
 11
431.2415644112
 21
255.3994742621
 31
0.0
  0
LINE
  5
192
330
1F
100
AcDbEntity
  8
0
  6
Continuous
 62
     7
370
    15
100
AcDbLine
 10
457.8311487618
 20
255.7994750727
 30
0.0
 11
458.5589095536
 21
255.3994742621
 31
0.0
  0
LINE
  5
193
330
1F
100
AcDbEntity
  8
0
  6
Continuous
 62
     7
370
    15
100
AcDbLine
 10
430.9527620259
 20
255.7994750727
 30
0.0
 11
457.8311487618
 21
255.7994750727
 31
0.0
  0
LINE
  5
194
330
1F
100
AcDbEntity
  8
0
  6
Continuous
 62
     7
370
    15
100
AcDbLine
 10
458.5589095536
 20
252.5994745482
 30
0.0
 11
458.5589095536
 21
255.3994742621
 31
0.0
  0
LINE
  5
195
330
1F
100
AcDbEntity
  8
0
  6
Continuous
 62
     7
370
    15
100
AcDbLine
 10
391.6964754048
 20
255.3994742621
 30
0.0
 11
364.3791272822
 21
255.3994742621
 31
0.0
  0
LINE
  5
196
330
1F
100
AcDbEntity
  8
0
  6
Continuous
 62
     7
370
    15
100
AcDbLine
 10
364.3791272822
 20
255.3994742621
 30
0.0
 11
365.1068910542
 21
255.7994750727
 31
0.0
  0
LINE
  5
197
330
1F
100
AcDbEntity
  8
0
  6
Continuous
 62
     7
370
    15
100
AcDbLine
 10
365.1068910542
 20
255.7994750727
 30
0.0
 11
391.9852777901
 21
255.7994750727
 31
0.0
  0
LINE
  5
198
330
1F
100
AcDbEntity
  8
0
  6
Continuous
 62
     7
370
    15
100
AcDbLine
 10
365.1068910542
 20
252.1994737376
 30
0.0
 11
364.3791272822
 21
252.5994745482
 31
0.0
  0
LINE
  5
199
330
1F
100
AcDbEntity
  8
0
  6
Continuous
 62
     7
370
    15
100
AcDbLine
 10
364.3791272822
 20
252.5994745482
 30
0.0
 11
391.6964754048
 21
252.5994745482
 31
0.0
  0
LINE
  5
19A
330
1F
100
AcDbEntity
  8
0
  6
Continuous
 62
     7
370
    15
100
AcDbLine
 10
391.9852777901
 20
252.1994737376
 30
0.0
 11
365.1068910542
 21
252.1994737376
 31
0.0
  0
LINE
  5
19B
330
1F
100
AcDbEntity
  8
0
  6
Continuous
 62
     7
370
    15
100
AcDbLine
 10
364.3791272822
 20
252.5994745482
 30
0.0
 11
364.3791272822
 21
255.3994742621
 31
0.0
  0
LINE
  5
19C
330
1F
100
AcDbEntity
  8
0
  6
Continuous
 62
     7
370
    15
100
AcDbLine
 10
409.6690222206
 20
346.1310294855
 30
0.0
 11
409.5690175476
 21
346.1310294855
 31
0.0
  0
LINE
  5
19D
330
1F
100
AcDbEntity
  8
0
  6
Continuous
 62
     7
370
    15
100
AcDbLine
 10
409.5690175476
 20
346.1310294855
 30
0.0
 11
409.5690175476
 21
340.3578904856
 31
0.0
  0
LINE
  5
19E
330
1F
100
AcDbEntity
  8
0
  6
Continuous
 62
     7
370
    15
100
AcDbLine
 10
402.8720721188
 20
344.9818161715
 30
0.0
 11
409.5690175476
 21
340.3578904856
 31
0.0
  0
LINE
  5
19F
330
1F
100
AcDbEntity
  8
0
  6
Continuous
 62
     7
370
    15
100
AcDbLine
 10
402.0231291237
 20
347.3252800692
 30
0.0
 11
402.8720721188
 21
344.9818161715
 31
0.0
  0
LINE
  5
1A0
330
1F
100
AcDbEntity
  8
0
  6
Continuous
 62
     7
370
    15
100
AcDbLine
 10
419.9659689846
 20
344.9818161715
 30
0.0
 11
420.8180889073
 21
347.3340538729
 31
0.0
  0
LINE
  5
1A1
330
1F
100
AcDbEntity
  8
0
  6
Continuous
 62
     7
370
    15
100
AcDbLine
 10
413.2690175953
 20
340.3578904856
 30
0.0
 11
419.9659689846
 21
344.9818161715
 31
0.0
  0
LINE
  5
1A2
330
1F
100
AcDbEntity
  8
0
  6
Continuous
 62
     7
370
    15
100
AcDbLine
 10
419.9659689846
 20
344.9818161715
 30
0.0
 11
420.2991291466
 21
344.6813372362
 31
0.0
  0
LINE
  5
1A3
330
1F
100
AcDbEntity
  8
0
  6
Continuous
 62
     7
370
    15
100
AcDbLine
 10
420.2991291466
 20
344.6813372362
 30
0.0
 11
413.2690175953
 21
339.8273853052
 31
0.0
  0
LINE
  5
1A4
330
1F
100
AcDbEntity
  8
0
  6
Continuous
 62
     7
370
    15
100
AcDbLine
 10
409.5690175476
 20
339.8273853052
 30
0.0
 11
402.5389119568
 21
344.6813372362
 31
0.0
  0
LINE
  5
1A5
330
1F
100
AcDbEntity
  8
0
  6
Continuous
 62
     7
370
    15
100
AcDbLine
 10
402.8720721188
 20
344.9818161715
 30
0.0
 11
402.5389119568
 21
344.6813372362
 31
0.0
  0
LINE
  5
1A6
330
1F
100
AcDbEntity
  8
0
  6
Continuous
 62
     7
370
    15
100
AcDbLine
 10
409.5690175476
 20
340.3578904856
 30
0.0
 11
409.5690175476
 21
339.8273853052
 31
0.0
  0
LINE
  5
1A7
330
1F
100
AcDbEntity
  8
0
  6
Continuous
 62
     7
370
    15
100
AcDbLine
 10
413.2690175953
 20
339.5006922472
 30
0.0
 11
420.2991291466
 21
344.3546322573
 31
0.0
  0
LINE
  5
1A8
330
1F
100
AcDbEntity
  8
0
  6
Continuous
 62
     7
370
    15
100
AcDbLine
 10
420.2991291466
 20
344.3546322573
 30
0.0
 11
420.2991291466
 21
344.6813372362
 31
0.0
  0
LINE
  5
1A9
330
1F
100
AcDbEntity
  8
0
  6
Continuous
 62
     7
370
    15
100
AcDbLine
 10
402.5389119568
 20
344.3546322573
 30
0.0
 11
409.5690175476
 21
339.5006922472
 31
0.0
  0
LINE
  5
1AA
330
1F
100
AcDbEntity
  8
0
  6
Continuous
 62
     7
370
    15
100
AcDbLine
 10
402.5389119568
 20
344.3546322573
 30
0.0
 11
402.5389119568
 21
344.6813372362
 31
0.0
  0
LINE
  5
1AB
330
1F
100
AcDbEntity
  8
0
  6
Continuous
 62
     7
370
    15
100
AcDbLine
 10
409.5690175476
 20
339.5006922472
 30
0.0
 11
409.5690175476
 21
339.8273853052
 31
0.0
  0
LINE
  5
1AC
330
1F
100
AcDbEntity
  8
0
  6
Continuous
 62
     7
370
    15
100
AcDbLine
 10
421.2601765576
 20
347.3342565287
 30
0.0
 11
420.2991291466
 21
344.6813372362
 31
0.0
  0
LINE
  5
1AD
330
1F
100
AcDbEntity
  8
0
  6
Continuous
 62
     7
370
    15
100
AcDbLine
 10
402.5389119568
 20
344.6813372362
 30
0.0
 11
401.581190485
 21
347.3250774134
 31
0.0
  0
LINE
  5
1AE
330
1F
100
AcDbEntity
  8
0
  6
Continuous
 62
     7
370
    15
100
AcDbLine
 10
409.6690222206
 20
345.7109836329
 30
0.0
 11
409.5690175476
 21
345.7109836329
 31
0.0
  0
LINE
  5
1AF
330
1F
100
AcDbEntity
  8
0
  6
Continuous
 62
     7
370
    15
100
AcDbLine
 10
420.2991291466
 20
344.3546322573
 30
0.0
 11
421.3785454216
 21
347.3343161333
 31
0.0
  0
LINE
  5
1B0
330
1F
100
AcDbEntity
  8
0
  6
Continuous
 62
     7
370
    15
100
AcDbLine
 10
401.4628633442
 20
347.3250178088
 30
0.0
 11
402.5389119568
 21
344.3546322573
 31
0.0
  0
ARC
  5
1B1
330
1F
100
AcDbEntity
  8
0
  6
Continuous
 62
     7
370
    15
100
AcDbCircle
 10
415.0285868878
 20
628.6915609216
 30
0.0
 40
0.601015893813336
100
AcDbArc
 50
33.4542239792
 51
90.0640616641
  0
ARC
  5
1B2
330
1F
100
AcDbEntity
  8
0
  6
Continuous
 62
     7
370
    15
100
AcDbCircle
 10
415.0290227778
 20
628.7348014798
 30
0.0
 40
1.001716927356667
100
AcDbArc
 50
33.4548199605
 51
90.0633679476
  0
LINE
  5
1B3
330
1F
100
AcDbEntity
  8
0
  6
Continuous
 62
     7
370
    15
100
AcDbLine
 10
428.1565770092
 20
609.8520745114
 30
0.0
 11
415.5300303879
 21
629.0228833035
 31
0.0
  0
LINE
  5
1B4
330
1F
100
AcDbEntity
  8
0
  6
Continuous
 62
     7
370
    15
100
AcDbLine
 10
412.7960010949
 20
594.5964087323
 30
0.0
 11
428.1565770092
 21
609.8520745114
 31
0.0
  0
LINE
  5
1B5
330
1F
100
AcDbEntity
  8
0
  6
Continuous
 62
     7
370
    15
100
AcDbLine
 10
410.2989479485
 20
594.5964087323
 30
0.0
 11
412.7960010949
 21
594.5964087323
 31
0.0
  0
LINE
  5
1B6
330
1F
100
AcDbEntity
  8
0
  6
Continuous
 62
     7
370
    15
100
AcDbLine
 10
394.9185415688
 20
609.871767886
 30
0.0
 11
410.2989479485
 21
594.5964087323
 31
0.0
  0
LINE
  5
1B7
330
1F
100
AcDbEntity
  8
0
  6
Continuous
 62
     7
370
    15
100
AcDbLine
 10
407.5321122589
 20
629.0228833035
 30
0.0
 11
394.9185415688
 21
609.871767886
 31
0.0
  0
ARC
  5
1B8
330
1F
100
AcDbEntity
  8
0
  6
Continuous
 62
     7
370
    15
100
AcDbCircle
 10
408.033569166
 20
628.6915359606
 30
0.0
 40
0.6010408399377126
100
AcDbArc
 50
89.9372190418
 51
146.5444953149
  0
LINE
  5
1B9
330
1F
100
AcDbEntity
  8
0
  6
Continuous
 62
     7
370
    15
100
AcDbLine
 10
415.0279148999
 20
629.2925764397
 30
0.0
 11
408.034227747
 21
629.2925764397
 31
0.0
  0
LINE
  5
1BA
330
1F
100
AcDbEntity
  8
0
  6
Continuous
 62
     7
370
    15
100
AcDbLine
 10
408.034227747
 20
629.7365177945
 30
0.0
 11
415.0279148999
 21
629.7365177945
 31
0.0
  0
ARC
  5
1BB
330
1F
100
AcDbEntity
  8
0
  6
Continuous
 62
     7
370
    15
100
AcDbCircle
 10
408.0331161303
 20
628.734819523
 30
0.0
 40
1.001698888287529
100
AcDbArc
 50
89.9364170594
 51
146.5457352581
  0
LINE
  5
1BC
330
1F
100
AcDbEntity
  8
0
  6
Continuous
 62
     7
370
    15
100
AcDbLine
 10
394.4058760586
 20
609.8657835797
 30
0.0
 11
407.1973725739
 21
629.2870272473
 31
0.0
  0
LINE
  5
1BD
330
1F
100
AcDbEntity
  8
0
  6
Continuous
 62
     7
370
    15
100
AcDbLine
 10
394.4058760586
 20
609.8657835797
 30
0.0
 11
394.9185415688
 21
609.871767886
 31
0.0
  0
LINE
  5
1BE
330
1F
100
AcDbEntity
  8
0
  6
Continuous
 62
     7
370
    15
100
AcDbLine
 10
415.8647760334
 20
629.2870272473
 30
0.0
 11
428.6692425194
 21
609.8460782841
 31
0.0
  0
LINE
  5
1BF
330
1F
100
AcDbEntity
  8
0
  6
Continuous
 62
     7
370
    15
100
AcDbLine
 10
428.1565770092
 20
609.8520745114
 30
0.0
 11
428.6692425194
 21
609.8460782841
 31
0.0
  0
LINE
  5
1C0
330
1F
100
AcDbEntity
  8
0
  6
Continuous
 62
     7
370
    15
100
AcDbLine
 10
415.0279148999
 20
630.0632168129
 30
0.0
 11
408.034227747
 21
630.0632168129
 31
0.0
  0
ARC
  5
1C1
330
1F
100
AcDbEntity
  8
0
  6
Continuous
 62
     7
370
    15
100
AcDbCircle
 10
408.0331161303
 20
629.0615185415
 30
0.0
 40
1.001698888288665
100
AcDbArc
 50
89.9364170594
 51
146.5457352581
  0
ARC
  5
1C2
330
1F
100
AcDbEntity
  8
0
  6
Continuous
 62
     7
370
    15
100
AcDbCircle
 10
415.0290227778
 20
629.0615004982
 30
0.0
 40
1.001716927357803
100
AcDbArc
 50
33.4548199606
 51
90.0633679476
  0
LINE
  5
1C3
330
1F
100
AcDbEntity
  8
0
  6
Continuous
 62
     7
370
    15
100
AcDbLine
 10
394.4058760586
 20
610.1924766377
 30
0.0
 11
394.4058760586
 21
609.8657835797
 31
0.0
  0
LINE
  5
1C4
330
1F
100
AcDbEntity
  8
0
  6
Continuous
 62
     7
370
    15
100
AcDbLine
 10
407.1973725739
 20
629.6137262658
 30
0.0
 11
394.4058760586
 21
610.1924766377
 31
0.0
  0
LINE
  5
1C5
330
1F
100
AcDbEntity
  8
0
  6
Continuous
 62
     7
370
    15
100
AcDbLine
 10
428.6692425194
 20
610.1727832631
 30
0.0
 11
415.8647760334
 21
629.6137262658
 31
0.0
  0
LINE
  5
1C6
330
1F
100
AcDbEntity
  8
0
  6
Continuous
 62
     7
370
    15
100
AcDbLine
 10
428.6692425194
 20
610.1727832631
 30
0.0
 11
428.6692425194
 21
609.8460782841
 31
0.0
  0
LINE
  5
1C7
330
1F
100
AcDbEntity
  8
0
  6
Continuous
 62
     7
370
    15
100
AcDbLine
 10
410.1332589569
 20
594.2458142117
 30
0.0
 11
394.4058760586
 21
609.8657835797
 31
0.0
  0
LINE
  5
1C8
330
1F
100
AcDbEntity
  8
0
  6
Continuous
 62
     7
370
    15
100
AcDbLine
 10
410.1332589569
 20
594.2458142117
 30
0.0
 11
410.2989479485
 21
594.5964087323
 31
0.0
  0
LINE
  5
1C9
330
1F
100
AcDbEntity
  8
0
  6
Continuous
 62
     7
370
    15
100
AcDbLine
 10
428.6692425194
 20
609.8460782841
 30
0.0
 11
412.9616900864
 21
594.2458142117
 31
0.0
  0
LINE
  5
1CA
330
1F
100
AcDbEntity
  8
0
  6
Continuous
 62
     7
370
    15
100
AcDbLine
 10
412.7960010949
 20
594.5964087323
 30
0.0
 11
412.9616900864
 21
594.2458142117
 31
0.0
  0
LINE
  5
1CB
330
1F
100
AcDbEntity
  8
0
  6
Continuous
 62
     7
370
    15
100
AcDbLine
 10
412.9616900864
 20
594.2458142117
 30
0.0
 11
410.1332589569
 21
594.2458142117
 31
0.0
  0
LINE
  5
1CC
330
1F
100
AcDbEntity
  8
0
  6
Continuous
 62
     7
370
    15
100
AcDbLine
 10
429.6375020924
 20
574.9960292653
 30
0.0
 11
448.808316845
 21
587.6225818471
 31
0.0
  0
LINE
  5
1CD
330
1F
100
AcDbEntity
  8
0
  6
Continuous
 62
     7
370
    15
100
AcDbLine
 10
414.3818422737
 20
590.3566111401
 30
0.0
 11
429.6375020924
 21
574.9960292653
 31
0.0
  0
LINE
  5
1CE
330
1F
100
AcDbEntity
  8
0
  6
Continuous
 62
     7
370
    15
100
AcDbLine
 10
414.3818422737
 20
592.8536642865
 30
0.0
 11
414.3818422737
 21
590.3566111401
 31
0.0
  0
LINE
  5
1CF
330
1F
100
AcDbEntity
  8
0
  6
Continuous
 62
     7
370
    15
100
AcDbLine
 10
429.657195467
 20
608.2340706662
 30
0.0
 11
414.3818422737
 21
592.8536642865
 31
0.0
  0
LINE
  5
1D0
330
1F
100
AcDbEntity
  8
0
  6
Continuous
 62
     7
370
    15
100
AcDbLine
 10
448.808316845
 20
595.620499976
 30
0.0
 11
429.657195467
 21
608.2340706662
 31
0.0
  0
ARC
  5
1D1
330
1F
100
AcDbEntity
  8
0
  6
Continuous
 62
     7
370
    15
100
AcDbCircle
 10
448.4769482587
 20
595.1190387861
 30
0.0
 40
0.6010561246677941
100
AcDbArc
 50
359.9370607254
 51
56.5430308805
  0
LINE
  5
1D2
330
1F
100
AcDbEntity
  8
0
  6
Continuous
 62
     7
370
    15
100
AcDbLine
 10
449.0780040207
 20
588.1246913746
 30
0.0
 11
449.0780040207
 21
595.1183785275
 31
0.0
  0
ARC
  5
1D3
330
1F
100
AcDbEntity
  8
0
  6
Continuous
 62
     7
370
    15
100
AcDbCircle
 10
448.4769843465
 20
588.1240236384
 30
0.0
 40
0.6010200451559801
100
AcDbArc
 50
303.4551184222
 51
0.0636559051
  0
ARC
  5
1D4
330
1F
100
AcDbEntity
  8
0
  6
Continuous
 62
     7
370
    15
100
AcDbCircle
 10
448.5202520715
 20
588.1235679358
 30
0.0
 40
1.001687973483529
100
AcDbArc
 50
303.4539280583
 51
0.0642598498
  0
LINE
  5
1D5
330
1F
100
AcDbEntity
  8
0
  6
Continuous
 62
     7
370
    15
100
AcDbLine
 10
449.521939415
 20
595.1183785275
 30
0.0
 11
449.521939415
 21
588.1246913746
 31
0.0
  0
ARC
  5
1D6
330
1F
100
AcDbEntity
  8
0
  6
Continuous
 62
     7
370
    15
100
AcDbCircle
 10
448.5203019858
 20
595.1195287761
 30
0.0
 40
1.001638089663831
100
AcDbArc
 50
359.9342033783
 51
56.5476087136
  0
LINE
  5
1D7
330
1F
100
AcDbEntity
  8
0
  6
Continuous
 62
     7
370
    15
100
AcDbLine
 10
429.6512052002
 20
608.7467302159
 30
0.0
 11
449.0724488678
 21
595.9552396611
 31
0.0
  0
LINE
  5
1D8
330
1F
100
AcDbEntity
  8
0
  6
Continuous
 62
     7
370
    15
100
AcDbLine
 10
429.6512052002
 20
608.7467302159
 30
0.0
 11
429.657195467
 21
608.2340706662
 31
0.0
  0
LINE
  5
1D9
330
1F
100
AcDbEntity
  8
0
  6
Continuous
 62
     7
370
    15
100
AcDbLine
 10
449.0724488678
 20
587.2878302411
 30
0.0
 11
429.6315118256
 21
574.4833697156
 31
0.0
  0
LINE
  5
1DA
330
1F
100
AcDbEntity
  8
0
  6
Continuous
 62
     7
370
    15
100
AcDbLine
 10
429.6375020924
 20
574.9960292653
 30
0.0
 11
429.6315118256
 21
574.4833697156
 31
0.0
  0
LINE
  5
1DB
330
1F
100
AcDbEntity
  8
0
  6
Continuous
 62
     7
370
    15
100
AcDbLine
 10
449.848644394
 20
588.1246913746
 30
0.0
 11
449.848644394
 21
595.1183785275
 31
0.0
  0
ARC
  5
1DC
330
1F
100
AcDbEntity
  8
0
  6
Continuous
 62
     7
370
    15
100
AcDbCircle
 10
448.8469399446
 20
595.1194927785
 30
0.0
 40
1.001705069112668
100
AcDbArc
 50
359.9362667753
 51
56.5455453166
  0
ARC
  5
1DD
330
1F
100
AcDbEntity
  8
0
  6
Continuous
 62
     7
370
    15
100
AcDbCircle
 10
448.8468900218
 20
588.1236039379
 30
0.0
 40
1.001754962362531
100
AcDbArc
 50
303.4559915104
 51
0.0621963977
  0
LINE
  5
1DE
330
1F
100
AcDbEntity
  8
0
  6
Continuous
 62
     7
370
    15
100
AcDbLine
 10
429.9779042187
 20
608.7467302159
 30
0.0
 11
429.6512052002
 21
608.7467302159
 31
0.0
  0
LINE
  5
1DF
330
1F
100
AcDbEntity
  8
0
  6
Continuous
 62
     7
370
    15
100
AcDbLine
 10
449.3991538468
 20
595.9552396611
 30
0.0
 11
429.9779042187
 21
608.7467302159
 31
0.0
  0
LINE
  5
1E0
330
1F
100
AcDbEntity
  8
0
  6
Continuous
 62
     7
370
    15
100
AcDbLine
 10
429.9582108441
 20
574.4833697156
 30
0.0
 11
449.3991538468
 21
587.2878302411
 31
0.0
  0
LINE
  5
1E1
330
1F
100
AcDbEntity
  8
0
  6
Continuous
 62
     7
370
    15
100
AcDbLine
 10
429.9582108441
 20
574.4833697156
 30
0.0
 11
429.6315118256
 21
574.4833697156
 31
0.0
  0
LINE
  5
1E2
330
1F
100
AcDbEntity
  8
0
  6
Continuous
 62
     7
370
    15
100
AcDbLine
 10
414.0312417927
 20
593.019353278
 30
0.0
 11
429.6512052002
 21
608.7467302159
 31
0.0
  0
LINE
  5
1E3
330
1F
100
AcDbEntity
  8
0
  6
Continuous
 62
     7
370
    15
100
AcDbLine
 10
414.0312417927
 20
593.019353278
 30
0.0
 11
414.3818422737
 21
592.8536642865
 31
0.0
  0
LINE
  5
1E4
330
1F
100
AcDbEntity
  8
0
  6
Continuous
 62
     7
370
    15
100
AcDbLine
 10
429.6315118256
 20
574.4833697156
 30
0.0
 11
414.0312417927
 21
590.1909221486
 31
0.0
  0
LINE
  5
1E5
330
1F
100
AcDbEntity
  8
0
  6
Continuous
 62
     7
370
    15
100
AcDbLine
 10
414.3818422737
 20
590.3566111401
 30
0.0
 11
414.0312417927
 21
590.1909221486
 31
0.0
  0
LINE
  5
1E6
330
1F
100
AcDbEntity
  8
0
  6
Continuous
 62
     7
370
    15
100
AcDbLine
 10
414.0312417927
 20
590.1909221486
 30
0.0
 11
414.0312417927
 21
593.019353278
 31
0.0
  0
LINE
  5
1E7
330
1F
100
AcDbEntity
  8
0
  6
Continuous
 62
     7
370
    15
100
AcDbLine
 10
393.3005377236
 20
608.3711494282
 30
0.0
 11
374.1297289315
 21
595.7446087674
 31
0.0
  0
LINE
  5
1E8
330
1F
100
AcDbEntity
  8
0
  6
Continuous
 62
     7
370
    15
100
AcDbLine
 10
408.5561975422
 20
593.0105794743
 30
0.0
 11
393.3005377236
 21
608.3711494282
 31
0.0
  0
LINE
  5
1E9
330
1F
100
AcDbEntity
  8
0
  6
Continuous
 62
     7
370
    15
100
AcDbLine
 10
408.5561975422
 20
590.513514407
 30
0.0
 11
408.5561975422
 21
593.0105794743
 31
0.0
  0
LINE
  5
1EA
330
1F
100
AcDbEntity
  8
0
  6
Continuous
 62
     7
370
    15
100
AcDbLine
 10
393.2808443489
 20
575.1331080273
 30
0.0
 11
408.5561975422
 21
590.513514407
 31
0.0
  0
LINE
  5
1EB
330
1F
100
AcDbEntity
  8
0
  6
Continuous
 62
     7
370
    15
100
AcDbLine
 10
374.1297289315
 20
587.7466906384
 30
0.0
 11
393.2808443489
 21
575.1331080273
 31
0.0
  0
ARC
  5
1EC
330
1F
100
AcDbEntity
  8
0
  6
Continuous
 62
     7
370
    15
100
AcDbCircle
 10
374.4610228042
 20
588.2481188177
 30
0.0
 40
0.6009873951319535
100
AcDbArc
 50
179.9350429173
 51
236.547238485
  0
LINE
  5
1ED
330
1F
100
AcDbEntity
  8
0
  6
Continuous
 62
     7
370
    15
100
AcDbLine
 10
373.8600357952
 20
595.2424873189
 30
0.0
 11
373.8600357952
 21
588.248800166
 31
0.0
  0
ARC
  5
1EE
330
1F
100
AcDbEntity
  8
0
  6
Continuous
 62
     7
370
    15
100
AcDbCircle
 10
374.4610727637
 20
595.2431537381
 30
0.0
 40
0.6010373378835491
100
AcDbArc
 50
123.4553241497
 51
180.0635285287
  0
LINE
  5
1EF
330
1F
100
AcDbEntity
  8
0
  6
Continuous
 62
     7
370
    15
100
AcDbLine
 10
373.4160944405
 20
588.248800166
 30
0.0
 11
373.4160944405
 21
595.2424873189
 31
0.0
  0
ARC
  5
1F0
330
1F
100
AcDbEntity
  8
0
  6
Continuous
 62
     7
370
    15
100
AcDbCircle
 10
374.417786285
 20
595.2436083402
 30
0.0
 40
1.001692471754577
100
AcDbArc
 50
123.454066628
 51
180.0641212801
  0
ARC
  5
1F1
330
1F
100
AcDbEntity
  8
0
  6
Continuous
 62
     7
370
    15
100
AcDbCircle
 10
374.4178223323
 20
588.2476985062
 30
0.0
 40
1.001728497585763
100
AcDbArc
 50
179.936988448
 51
236.5448236438
  0
LINE
  5
1F2
330
1F
100
AcDbEntity
  8
0
  6
Continuous
 62
     7
370
    15
100
AcDbLine
 10
393.2868346157
 20
574.6204484776
 30
0.0
 11
373.8655849877
 21
587.4119390324
 31
0.0
  0
LINE
  5
1F3
330
1F
100
AcDbEntity
  8
0
  6
Continuous
 62
     7
370
    15
100
AcDbLine
 10
393.2868346157
 20
574.6204484776
 30
0.0
 11
393.2808443489
 21
575.1331080273
 31
0.0
  0
LINE
  5
1F4
330
1F
100
AcDbEntity
  8
0
  6
Continuous
 62
     7
370
    15
100
AcDbLine
 10
373.8655849877
 20
596.0793484524
 30
0.0
 11
393.3065279904
 21
608.8838089779
 31
0.0
  0
LINE
  5
1F5
330
1F
100
AcDbEntity
  8
0
  6
Continuous
 62
     7
370
    15
100
AcDbLine
 10
393.3005377236
 20
608.3711494282
 30
0.0
 11
393.3065279904
 21
608.8838089779
 31
0.0
  0
LINE
  5
1F6
330
1F
100
AcDbEntity
  8
0
  6
Continuous
 62
     7
370
    15
100
AcDbLine
 10
373.0893984022
 20
595.2424873189
 30
0.0
 11
373.0893984022
 21
588.248800166
 31
0.0
  0
ARC
  5
1F7
330
1F
100
AcDbEntity
  8
0
  6
Continuous
 62
     7
370
    15
100
AcDbCircle
 10
374.0911177856
 20
588.2476919696
 30
0.0
 40
1.001719996371472
100
AcDbArc
 50
179.9366140361
 51
236.5448813412
  0
ARC
  5
1F8
330
1F
100
AcDbEntity
  8
0
  6
Continuous
 62
     7
370
    15
100
AcDbCircle
 10
374.0910817395
 20
595.243614876
 30
0.0
 40
1.001683971850168
100
AcDbArc
 50
123.4540089516
 51
180.0644956712
  0
LINE
  5
1F9
330
1F
100
AcDbEntity
  8
0
  6
Continuous
 62
     7
370
    15
100
AcDbLine
 10
392.9601355973
 20
574.6204484776
 30
0.0
 11
393.2868346157
 21
574.6204484776
 31
0.0
  0
LINE
  5
1FA
330
1F
100
AcDbEntity
  8
0
  6
Continuous
 62
     7
370
    15
100
AcDbLine
 10
373.5388859692
 20
587.4119390324
 30
0.0
 11
392.9601355973
 21
574.6204484776
 31
0.0
  0
LINE
  5
1FB
330
1F
100
AcDbEntity
  8
0
  6
Continuous
 62
     7
370
    15
100
AcDbLine
 10
392.9798289719
 20
608.8838089779
 30
0.0
 11
373.5388859692
 21
596.0793484524
 31
0.0
  0
LINE
  5
1FC
330
1F
100
AcDbEntity
  8
0
  6
Continuous
 62
     7
370
    15
100
AcDbLine
 10
392.9798289719
 20
608.8838089779
 30
0.0
 11
393.3065279904
 21
608.8838089779
 31
0.0
  0
LINE
  5
1FD
330
1F
100
AcDbEntity
  8
0
  6
Continuous
 62
     7
370
    15
100
AcDbLine
 10
408.9067920628
 20
590.3478373364
 30
0.0
 11
393.2868346157
 21
574.6204484776
 31
0.0
  0
LINE
  5
1FE
330
1F
100
AcDbEntity
  8
0
  6
Continuous
 62
     7
370
    15
100
AcDbLine
 10
408.9067920628
 20
590.3478373364
 30
0.0
 11
408.5561975422
 21
590.513514407
 31
0.0
  0
LINE
  5
1FF
330
1F
100
AcDbEntity
  8
0
  6
Continuous
 62
     7
370
    15
100
AcDbLine
 10
393.3065279904
 20
608.8838089779
 30
0.0
 11
408.9067920628
 21
593.1762565449
 31
0.0
  0
LINE
  5
200
330
1F
100
AcDbEntity
  8
0
  6
Continuous
 62
     7
370
    15
100
AcDbLine
 10
408.5561975422
 20
593.0105794743
 30
0.0
 11
408.9067920628
 21
593.1762565449
 31
0.0
  0
LINE
  5
201
330
1F
100
AcDbEntity
  8
0
  6
Continuous
 62
     7
370
    15
100
AcDbLine
 10
408.9067920628
 20
593.1762565449
 30
0.0
 11
408.9067920628
 21
590.3478373364
 31
0.0
  0
LINE
  5
202
330
1F
100
AcDbEntity
  8
0
  6
Continuous
 62
     7
370
    15
100
AcDbLine
 10
394.7814628067
 20
573.5151041821
 30
0.0
 11
407.4080094281
 21
554.34429539
 31
0.0
  0
LINE
  5
203
330
1F
100
AcDbEntity
  8
0
  6
Continuous
 62
     7
370
    15
100
AcDbLine
 10
410.1420387211
 20
588.7707699612
 30
0.0
 11
394.7814628067
 21
573.5151041821
 31
0.0
  0
LINE
  5
204
330
1F
100
AcDbEntity
  8
0
  6
Continuous
 62
     7
370
    15
100
AcDbLine
 10
412.6390918675
 20
588.7707699612
 30
0.0
 11
410.1420387211
 21
588.7707699612
 31
0.0
  0
LINE
  5
205
330
1F
100
AcDbEntity
  8
0
  6
Continuous
 62
     7
370
    15
100
AcDbLine
 10
428.0194982472
 20
573.4954108075
 30
0.0
 11
412.6390918675
 21
588.7707699612
 31
0.0
  0
LINE
  5
206
330
1F
100
AcDbEntity
  8
0
  6
Continuous
 62
     7
370
    15
100
AcDbLine
 10
415.405927557
 20
554.34429539
 30
0.0
 11
428.0194982472
 21
573.4954108075
 31
0.0
  0
ARC
  5
207
330
1F
100
AcDbEntity
  8
0
  6
Continuous
 62
     7
370
    15
100
AcDbCircle
 10
414.9044734898
 20
554.6756507295
 30
0.0
 40
0.6010428791523197
100
AcDbArc
 50
269.9369485471
 51
326.543710087
  0
LINE
  5
208
330
1F
100
AcDbEntity
  8
0
  6
Continuous
 62
     7
370
    15
100
AcDbLine
 10
407.9101249161
 20
554.0746082142
 30
0.0
 11
414.903812069
 21
554.0746082142
 31
0.0
  0
ARC
  5
209
330
1F
100
AcDbEntity
  8
0
  6
Continuous
 62
     7
370
    15
100
AcDbCircle
 10
407.9094500888
 20
554.6756257686
 30
0.0
 40
0.6010179332195384
100
AcDbArc
 50
213.4550092351
 51
270.0643321308
  0
ARC
  5
20A
330
1F
100
AcDbEntity
  8
0
  6
Continuous
 62
     7
370
    15
100
AcDbCircle
 10
407.9089942006
 20
554.6323612608
 30
0.0
 40
1.001689079013973
100
AcDbArc
 50
213.4547787754
 51
270.0646759969
  0
LINE
  5
20B
330
1F
100
AcDbEntity
  8
0
  6
Continuous
 62
     7
370
    15
100
AcDbLine
 10
414.903812069
 20
553.63067282
 30
0.0
 11
407.9101249161
 21
553.63067282
 31
0.0
  0
ARC
  5
20C
330
1F
100
AcDbEntity
  8
0
  6
Continuous
 62
     7
370
    15
100
AcDbCircle
 10
414.9049465227
 20
554.6323432185
 30
0.0
 40
1.001671040935963
100
AcDbArc
 50
269.9351090139
 51
326.5457764345
  0
LINE
  5
20D
330
1F
100
AcDbEntity
  8
0
  6
Continuous
 62
     7
370
    15
100
AcDbLine
 10
428.5321637574
 20
573.5014070347
 30
0.0
 11
415.7406672421
 21
554.0801514462
 31
0.0
  0
LINE
  5
20E
330
1F
100
AcDbEntity
  8
0
  6
Continuous
 62
     7
370
    15
100
AcDbLine
 10
428.5321637574
 20
573.5014070347
 30
0.0
 11
428.0194982472
 21
573.4954108075
 31
0.0
  0
LINE
  5
20F
330
1F
100
AcDbEntity
  8
0
  6
Continuous
 62
     7
370
    15
100
AcDbLine
 10
407.0732637825
 20
554.0801514462
 30
0.0
 11
394.2687972966
 21
573.5211004094
 31
0.0
  0
LINE
  5
210
330
1F
100
AcDbEntity
  8
0
  6
Continuous
 62
     7
370
    15
100
AcDbLine
 10
394.7814628067
 20
573.5151041821
 30
0.0
 11
394.2687972966
 21
573.5211004094
 31
0.0
  0
LINE
  5
211
330
1F
100
AcDbEntity
  8
0
  6
Continuous
 62
     7
370
    15
100
AcDbLine
 10
407.9101249161
 20
553.303967841
 30
0.0
 11
414.903812069
 21
553.303967841
 31
0.0
  0
ARC
  5
212
330
1F
100
AcDbEntity
  8
0
  6
Continuous
 62
     7
370
    15
100
AcDbCircle
 10
414.904920378
 20
554.3056722707
 30
0.0
 40
1.001705042806
100
AcDbArc
 50
269.9366066436
 51
326.5455456739
  0
ARC
  5
213
330
1F
100
AcDbEntity
  8
0
  6
Continuous
 62
     7
370
    15
100
AcDbCircle
 10
407.9090203461
 20
554.3056903145
 30
0.0
 40
1.001723082476865
100
AcDbArc
 50
213.4550095567
 51
270.0631783514
  0
LINE
  5
214
330
1F
100
AcDbEntity
  8
0
  6
Continuous
 62
     7
370
    15
100
AcDbLine
 10
428.5321637574
 20
573.1747020558
 30
0.0
 11
428.5321637574
 21
573.5014070347
 31
0.0
  0
LINE
  5
215
330
1F
100
AcDbEntity
  8
0
  6
Continuous
 62
     7
370
    15
100
AcDbLine
 10
415.7406672421
 20
553.7534583882
 30
0.0
 11
428.5321637574
 21
573.1747020558
 31
0.0
  0
LINE
  5
216
330
1F
100
AcDbEntity
  8
0
  6
Continuous
 62
     7
370
    15
100
AcDbLine
 10
394.2687972966
 20
573.1944073514
 30
0.0
 11
407.0732637825
 21
553.7534583882
 31
0.0
  0
LINE
  5
217
330
1F
100
AcDbEntity
  8
0
  6
Continuous
 62
     7
370
    15
100
AcDbLine
 10
394.2687972966
 20
573.1944073514
 30
0.0
 11
394.2687972966
 21
573.5211004094
 31
0.0
  0
LINE
  5
218
330
1F
100
AcDbEntity
  8
0
  6
Continuous
 62
     7
370
    15
100
AcDbLine
 10
412.804780859
 20
589.1213644818
 30
0.0
 11
428.5321637574
 21
573.5014070347
 31
0.0
  0
LINE
  5
219
330
1F
100
AcDbEntity
  8
0
  6
Continuous
 62
     7
370
    15
100
AcDbLine
 10
412.804780859
 20
589.1213644818
 30
0.0
 11
412.6390918675
 21
588.7707699612
 31
0.0
  0
LINE
  5
21A
330
1F
100
AcDbEntity
  8
0
  6
Continuous
 62
     7
370
    15
100
AcDbLine
 10
394.2687972966
 20
573.5211004094
 30
0.0
 11
409.9763497296
 21
589.1213644818
 31
0.0
  0
LINE
  5
21B
330
1F
100
AcDbEntity
  8
0
  6
Continuous
 62
     7
370
    15
100
AcDbLine
 10
410.1420387211
 20
588.7707699612
 30
0.0
 11
409.9763497296
 21
589.1213644818
 31
0.0
  0
LINE
  5
21C
330
1F
100
AcDbEntity
  8
0
  6
Continuous
 62
     7
370
    15
100
AcDbLine
 10
409.9763497296
 20
589.1213644818
 30
0.0
 11
412.804780859
 21
589.1213644818
 31
0.0
  0
LINE
  5
21D
330
1F
100
AcDbEntity
  8
0
  6
Continuous
 62
     7
370
    15
100
AcDbLine
 10
413.2690175953
 20
593.8835967854
 30
0.0
 11
412.8690227452
 21
593.4835900143
 31
0.0
  0
LINE
  5
21E
330
1F
100
AcDbEntity
  8
0
  6
Continuous
 62
     7
370
    15
100
AcDbLine
 10
412.8690227452
 20
593.4835900143
 30
0.0
 11
412.8690227452
 21
594.2458142117
 31
0.0
  0
LINE
  5
21F
330
1F
100
AcDbEntity
  8
0
  6
Continuous
 62
     7
370
    15
100
AcDbLine
 10
413.2690175953
 20
594.5510495976
 30
0.0
 11
413.2690175953
 21
593.8835967854
 31
0.0
  0
LINE
  5
220
330
1F
100
AcDbEntity
  8
0
  6
Continuous
 62
     7
370
    15
100
AcDbLine
 10
412.8690227452
 20
593.4835900143
 30
0.0
 11
410.0690170708
 21
593.4835900143
 31
0.0
  0
LINE
  5
221
330
1F
100
AcDbEntity
  8
0
  6
Continuous
 62
     7
370
    15
100
AcDbLine
 10
410.0690170708
 20
594.3096150235
 30
0.0
 11
410.0690170708
 21
593.4835900143
 31
0.0
  0
LINE
  5
222
330
1F
100
AcDbEntity
  8
0
  6
Continuous
 62
     7
370
    15
100
AcDbLine
 10
410.0690170708
 20
593.4835900143
 30
0.0
 11
409.6690222206
 21
593.8835967854
 31
0.0
  0
LINE
  5
223
330
1F
100
AcDbEntity
  8
0
  6
Continuous
 62
     7
370
    15
100
AcDbLine
 10
409.6690222206
 20
593.8835967854
 30
0.0
 11
409.6690222206
 21
594.7068919018
 31
0.0
  0
LINE
  5
224
330
1F
100
AcDbEntity
  8
0
  6
Continuous
 62
     7
370
    15
100
AcDbLine
 10
410.0690170708
 20
589.8835886792
 30
0.0
 11
410.0690170708
 21
589.1213644818
 31
0.0
  0
LINE
  5
225
330
1F
100
AcDbEntity
  8
0
  6
Continuous
 62
     7
370
    15
100
AcDbLine
 10
410.0690170708
 20
589.8835886792
 30
0.0
 11
409.6690222206
 21
589.483593829
 31
0.0
  0
LINE
  5
226
330
1F
100
AcDbEntity
  8
0
  6
Continuous
 62
     7
370
    15
100
AcDbLine
 10
409.6690222206
 20
588.8161290959
 30
0.0
 11
409.6690222206
 21
589.483593829
 31
0.0
  0
LINE
  5
227
330
1F
100
AcDbEntity
  8
0
  6
Continuous
 62
     7
370
    15
100
AcDbLine
 10
412.8690227452
 20
589.05756367
 30
0.0
 11
412.8690227452
 21
589.8835886792
 31
0.0
  0
LINE
  5
228
330
1F
100
AcDbEntity
  8
0
  6
Continuous
 62
     7
370
    15
100
AcDbLine
 10
413.2690175953
 20
589.483593829
 30
0.0
 11
412.8690227452
 21
589.8835886792
 31
0.0
  0
LINE
  5
229
330
1F
100
AcDbEntity
  8
0
  6
Continuous
 62
     7
370
    15
100
AcDbLine
 10
413.2690175953
 20
589.483593829
 30
0.0
 11
413.2690175953
 21
588.6602987126
 31
0.0
  0
LINE
  5
22A
330
1F
100
AcDbEntity
  8
0
  6
Continuous
 62
     7
370
    15
100
AcDbLine
 10
412.8690227452
 20
589.8835886792
 30
0.0
 11
410.0690170708
 21
589.8835886792
 31
0.0
  0
LINE
  5
22B
330
1F
100
AcDbEntity
  8
0
  6
Continuous
 62
     7
370
    15
100
AcDbLine
 10
409.6690222206
 20
589.483593829
 30
0.0
 11
409.6690222206
 21
589.8835886792
 31
0.0
  0
LINE
  5
22C
330
1F
100
AcDbEntity
  8
0
  6
Continuous
 62
     7
370
    15
100
AcDbLine
 10
409.6690222206
 20
593.4835900143
 30
0.0
 11
409.6690222206
 21
593.8835967854
 31
0.0
  0
LINE
  5
22D
330
1F
100
AcDbEntity
  8
0
  6
Continuous
 62
     7
370
    15
100
AcDbLine
 10
413.2690175953
 20
593.8835967854
 30
0.0
 11
413.2690175953
 21
593.4835900143
 31
0.0
  0
LINE
  5
22E
330
1F
100
AcDbEntity
  8
0
  6
Continuous
 62
     7
370
    15
100
AcDbLine
 10
413.2690175953
 20
589.8835886792
 30
0.0
 11
413.2690175953
 21
589.483593829
 31
0.0
  0
LINE
  5
22F
330
1F
100
AcDbEntity
  8
0
  6
Continuous
 62
     7
370
    15
100
AcDbLine
 10
409.6690222206
 20
632.5514007882
 30
0.0
 11
410.0690170708
 21
632.9275060967
 31
0.0
  0
LINE
  5
230
330
1F
100
AcDbEntity
  8
0
  6
Continuous
 62
     7
370
    15
100
AcDbLine
 10
410.0690170708
 20
632.9275060967
 30
0.0
 11
410.0690170708
 21
630.0632168129
 31
0.0
  0
LINE
  5
231
330
1F
100
AcDbEntity
  8
0
  6
Continuous
 62
     7
370
    15
100
AcDbLine
 10
409.6690222206
 20
630.0632168129
 30
0.0
 11
409.6690222206
 21
632.5514007882
 31
0.0
  0
LINE
  5
232
330
1F
100
AcDbEntity
  8
0
  6
Continuous
 62
     7
370
    15
100
AcDbLine
 10
412.8690227452
 20
630.0632168129
 30
0.0
 11
412.8690227452
 21
632.9275060967
 31
0.0
  0
LINE
  5
233
330
1F
100
AcDbEntity
  8
0
  6
Continuous
 62
     7
370
    15
100
AcDbLine
 10
412.8690227452
 20
632.9275060967
 30
0.0
 11
413.2690175953
 21
632.5514007882
 31
0.0
  0
LINE
  5
234
330
1F
100
AcDbEntity
  8
0
  6
Continuous
 62
     7
370
    15
100
AcDbLine
 10
413.2690175953
 20
632.5514007882
 30
0.0
 11
413.2690175953
 21
630.0632168129
 31
0.0
  0
LINE
  5
235
330
1F
100
AcDbEntity
  8
0
  6
Continuous
 62
     7
370
    15
100
AcDbLine
 10
412.8690227452
 20
632.9275060967
 30
0.0
 11
410.0690170708
 21
632.9275060967
 31
0.0
  0
LINE
  5
236
330
1F
100
AcDbEntity
  8
0
  6
Continuous
 62
     7
370
    15
100
AcDbLine
 10
412.8690227452
 20
550.4396785573
 30
0.0
 11
412.8690227452
 21
553.303967841
 31
0.0
  0
LINE
  5
237
330
1F
100
AcDbEntity
  8
0
  6
Continuous
 62
     7
370
    15
100
AcDbLine
 10
412.8690227452
 20
550.4396785573
 30
0.0
 11
410.0690170708
 21
550.4396785573
 31
0.0
  0
LINE
  5
238
330
1F
100
AcDbEntity
  8
0
  6
Continuous
 62
     7
370
    15
100
AcDbLine
 10
410.0690170708
 20
553.303967841
 30
0.0
 11
410.0690170708
 21
550.4396785573
 31
0.0
  0
LINE
  5
239
330
1F
100
AcDbEntity
  8
0
  6
Continuous
 62
     7
370
    15
100
AcDbLine
 10
413.2690175953
 20
550.8157838658
 30
0.0
 11
412.8690227452
 21
550.4396785573
 31
0.0
  0
LINE
  5
23A
330
1F
100
AcDbEntity
  8
0
  6
Continuous
 62
     7
370
    15
100
AcDbLine
 10
413.2690175953
 20
553.303967841
 30
0.0
 11
413.2690175953
 21
550.8157838658
 31
0.0
  0
LINE
  5
23B
330
1F
100
AcDbEntity
  8
0
  6
Continuous
 62
     7
370
    15
100
AcDbLine
 10
410.0690170708
 20
550.4396785573
 30
0.0
 11
409.6690222206
 21
550.8157838658
 31
0.0
  0
LINE
  5
23C
330
1F
100
AcDbEntity
  8
0
  6
Continuous
 62
     7
370
    15
100
AcDbLine
 10
409.6690222206
 20
550.8157838658
 30
0.0
 11
409.6690222206
 21
553.303967841
 31
0.0
  0
LINE
  5
23D
330
1F
100
AcDbEntity
  8
0
  6
Continuous
 62
     7
370
    15
100
AcDbLine
 10
412.8690227452
 20
632.9275060967
 30
0.0
 11
412.8690227452
 21
645.6707407311
 31
0.0
  0
LINE
  5
23E
330
1F
100
AcDbEntity
  8
0
  6
Continuous
 62
     7
370
    15
100
AcDbLine
 10
410.0690170708
 20
645.6707407311
 30
0.0
 11
410.0690170708
 21
632.9275060967
 31
0.0
  0
LINE
  5
23F
330
1F
100
AcDbEntity
  8
0
  6
Continuous
 62
     7
370
    15
100
AcDbLine
 10
412.8690227452
 20
645.6707407311
 30
0.0
 11
410.0690170708
 21
645.6707407311
 31
0.0
  0
LINE
  5
240
330
1F
100
AcDbEntity
  8
0
  6
Continuous
 62
     7
370
    15
100
AcDbLine
 10
409.6690222206
 20
645.2212919072
 30
0.0
 11
410.0690170708
 21
645.6707407311
 31
0.0
  0
LINE
  5
241
330
1F
100
AcDbEntity
  8
0
  6
Continuous
 62
     7
370
    15
100
AcDbLine
 10
409.6690222206
 20
632.5514007882
 30
0.0
 11
409.6690222206
 21
645.2212919072
 31
0.0
  0
LINE
  5
242
330
1F
100
AcDbEntity
  8
0
  6
Continuous
 62
     7
370
    15
100
AcDbLine
 10
412.8690227452
 20
645.6707407311
 30
0.0
 11
413.2690175953
 21
645.2212919072
 31
0.0
  0
LINE
  5
243
330
1F
100
AcDbEntity
  8
0
  6
Continuous
 62
     7
370
    15
100
AcDbLine
 10
413.2690175953
 20
645.2212919072
 30
0.0
 11
413.2690175953
 21
632.5514007882
 31
0.0
  0
LINE
  5
244
330
1F
100
AcDbEntity
  8
0
  6
Continuous
 62
     7
370
    15
100
AcDbLine
 10
412.8690227452
 20
537.6964439229
 30
0.0
 11
412.8690227452
 21
550.4396785573
 31
0.0
  0
LINE
  5
245
330
1F
100
AcDbEntity
  8
0
  6
Continuous
 62
     7
370
    15
100
AcDbLine
 10
412.8690227452
 20
537.6964439229
 30
0.0
 11
410.0690170708
 21
537.6964439229
 31
0.0
  0
LINE
  5
246
330
1F
100
AcDbEntity
  8
0
  6
Continuous
 62
     7
370
    15
100
AcDbLine
 10
410.0690170708
 20
550.4396785573
 30
0.0
 11
410.0690170708
 21
537.6964439229
 31
0.0
  0
LINE
  5
247
330
1F
100
AcDbEntity
  8
0
  6
Continuous
 62
     7
370
    15
100
AcDbLine
 10
413.2690175953
 20
538.1458987073
 30
0.0
 11
412.8690227452
 21
537.6964439229
 31
0.0
  0
LINE
  5
248
330
1F
100
AcDbEntity
  8
0
  6
Continuous
 62
     7
370
    15
100
AcDbLine
 10
413.2690175953
 20
550.8157838658
 30
0.0
 11
413.2690175953
 21
538.1458987073
 31
0.0
  0
LINE
  5
249
330
1F
100
AcDbEntity
  8
0
  6
Continuous
 62
     7
370
    15
100
AcDbLine
 10
410.0690170708
 20
537.6964439229
 30
0.0
 11
409.6690222206
 21
538.1458987073
 31
0.0
  0
LINE
  5
24A
330
1F
100
AcDbEntity
  8
0
  6
Continuous
 62
     7
370
    15
100
AcDbLine
 10
409.6690222206
 20
538.1458987073
 30
0.0
 11
409.6690222206
 21
550.8157838658
 31
0.0
  0
LINE
  5
24B
330
1F
100
AcDbEntity
  8
0
  6
Continuous
 62
     7
370
    15
100
AcDbLine
 10
414.0950485649
 20
593.0835951642
 30
0.0
 11
408.9067920628
 21
593.0835951642
 31
0.0
  0
LINE
  5
24C
330
1F
100
AcDbEntity
  8
0
  6
Continuous
 62
     7
370
    15
100
AcDbLine
 10
408.6015626374
 20
593.4835900143
 30
0.0
 11
410.0690170708
 21
593.4835900143
 31
0.0
  0
LINE
  5
24D
330
1F
100
AcDbEntity
  8
0
  6
Continuous
 62
     7
370
    15
100
AcDbLine
 10
412.8690227452
 20
593.4835900143
 30
0.0
 11
414.4923135224
 21
593.4835900143
 31
0.0
  0
LINE
  5
24E
330
1F
100
AcDbEntity
  8
0
  6
Continuous
 62
     7
370
    15
100
AcDbLine
 10
408.842991251
 20
590.2835954503
 30
0.0
 11
414.0312417927
 21
590.2835954503
 31
0.0
  0
LINE
  5
24F
330
1F
100
AcDbEntity
  8
0
  6
Continuous
 62
     7
370
    15
100
AcDbLine
 10
414.3364771786
 20
589.8835886792
 30
0.0
 11
412.8690227452
 21
589.8835886792
 31
0.0
  0
LINE
  5
250
330
1F
100
AcDbEntity
  8
0
  6
Continuous
 62
     7
370
    15
100
AcDbLine
 10
410.0690170708
 20
589.8835886792
 30
0.0
 11
408.4457262936
 21
589.8835886792
 31
0.0
  0
LINE
  5
251
330
1F
100
AcDbEntity
  8
0
  6
Continuous
 62
     7
370
    15
100
AcDbLine
 10
452.3368283692
 20
593.4835900143
 30
0.0
 11
452.7129336777
 21
593.0835951642
 31
0.0
  0
LINE
  5
252
330
1F
100
AcDbEntity
  8
0
  6
Continuous
 62
     7
370
    15
100
AcDbLine
 10
452.7129336777
 20
593.0835951642
 30
0.0
 11
449.848644394
 21
593.0835951642
 31
0.0
  0
LINE
  5
253
330
1F
100
AcDbEntity
  8
0
  6
Continuous
 62
     7
370
    15
100
AcDbLine
 10
449.848644394
 20
593.4835900143
 30
0.0
 11
452.3368283692
 21
593.4835900143
 31
0.0
  0
LINE
  5
254
330
1F
100
AcDbEntity
  8
0
  6
Continuous
 62
     7
370
    15
100
AcDbLine
 10
449.848644394
 20
590.2835954503
 30
0.0
 11
452.7129336777
 21
590.2835954503
 31
0.0
  0
LINE
  5
255
330
1F
100
AcDbEntity
  8
0
  6
Continuous
 62
     7
370
    15
100
AcDbLine
 10
452.7129336777
 20
590.2835954503
 30
0.0
 11
452.7129336777
 21
593.0835951642
 31
0.0
  0
LINE
  5
256
330
1F
100
AcDbEntity
  8
0
  6
Continuous
 62
     7
370
    15
100
AcDbLine
 10
452.7129336777
 20
590.2835954503
 30
0.0
 11
452.3368283692
 21
589.8835886792
 31
0.0
  0
LINE
  5
257
330
1F
100
AcDbEntity
  8
0
  6
Continuous
 62
     7
370
    15
100
AcDbLine
 10
452.3368283692
 20
589.8835886792
 30
0.0
 11
449.848644394
 21
589.8835886792
 31
0.0
  0
LINE
  5
258
330
1F
100
AcDbEntity
  8
0
  6
Continuous
 62
     7
370
    15
100
AcDbLine
 10
370.225103158
 20
590.2835954503
 30
0.0
 11
373.0893984022
 21
590.2835954503
 31
0.0
  0
LINE
  5
259
330
1F
100
AcDbEntity
  8
0
  6
Continuous
 62
     7
370
    15
100
AcDbLine
 10
370.225103158
 20
590.2835954503
 30
0.0
 11
370.225103158
 21
593.0835951642
 31
0.0
  0
LINE
  5
25A
330
1F
100
AcDbEntity
  8
0
  6
Continuous
 62
     7
370
    15
100
AcDbLine
 10
373.0893984022
 20
593.0835951642
 30
0.0
 11
370.225103158
 21
593.0835951642
 31
0.0
  0
LINE
  5
25B
330
1F
100
AcDbEntity
  8
0
  6
Continuous
 62
     7
370
    15
100
AcDbLine
 10
370.225103158
 20
593.0835951642
 30
0.0
 11
370.6012084666
 21
593.4835900143
 31
0.0
  0
LINE
  5
25C
330
1F
100
AcDbEntity
  8
0
  6
Continuous
 62
     7
370
    15
100
AcDbLine
 10
370.6012084666
 20
593.4835900143
 30
0.0
 11
373.0893984022
 21
593.4835900143
 31
0.0
  0
LINE
  5
25D
330
1F
100
AcDbEntity
  8
0
  6
Continuous
 62
     7
370
    15
100
AcDbLine
 10
370.6012084666
 20
589.8835886792
 30
0.0
 11
370.225103158
 21
590.2835954503
 31
0.0
  0
LINE
  5
25E
330
1F
100
AcDbEntity
  8
0
  6
Continuous
 62
     7
370
    15
100
AcDbLine
 10
373.0893984022
 20
589.8835886792
 30
0.0
 11
370.6012084666
 21
589.8835886792
 31
0.0
  0
LINE
  5
25F
330
1F
100
AcDbEntity
  8
0
  6
Continuous
 62
     7
370
    15
100
AcDbLine
 10
465.0067135277
 20
593.4835900143
 30
0.0
 11
465.4561683121
 21
593.0835951642
 31
0.0
  0
LINE
  5
260
330
1F
100
AcDbEntity
  8
0
  6
Continuous
 62
     7
370
    15
100
AcDbLine
 10
465.4561683121
 20
593.0835951642
 30
0.0
 11
452.7129336777
 21
593.0835951642
 31
0.0
  0
LINE
  5
261
330
1F
100
AcDbEntity
  8
0
  6
Continuous
 62
     7
370
    15
100
AcDbLine
 10
452.3368283692
 20
593.4835900143
 30
0.0
 11
465.0067135277
 21
593.4835900143
 31
0.0
  0
LINE
  5
262
330
1F
100
AcDbEntity
  8
0
  6
Continuous
 62
     7
370
    15
100
AcDbLine
 10
452.7129336777
 20
590.2835954503
 30
0.0
 11
465.4561683121
 21
590.2835954503
 31
0.0
  0
LINE
  5
263
330
1F
100
AcDbEntity
  8
0
  6
Continuous
 62
     7
370
    15
100
AcDbLine
 10
465.4561683121
 20
590.2835954503
 30
0.0
 11
465.4561683121
 21
593.0835951642
 31
0.0
  0
LINE
  5
264
330
1F
100
AcDbEntity
  8
0
  6
Continuous
 62
     7
370
    15
100
AcDbLine
 10
465.4561683121
 20
590.2835954503
 30
0.0
 11
465.0067135277
 21
589.8835886792
 31
0.0
  0
LINE
  5
265
330
1F
100
AcDbEntity
  8
0
  6
Continuous
 62
     7
370
    15
100
AcDbLine
 10
465.0067135277
 20
589.8835886792
 30
0.0
 11
452.3368283692
 21
589.8835886792
 31
0.0
  0
LINE
  5
266
330
1F
100
AcDbEntity
  8
0
  6
Continuous
 62
     7
370
    15
100
AcDbLine
 10
357.4818700137
 20
590.2835954503
 30
0.0
 11
370.225103158
 21
590.2835954503
 31
0.0
  0
LINE
  5
267
330
1F
100
AcDbEntity
  8
0
  6
Continuous
 62
     7
370
    15
100
AcDbLine
 10
357.4818700137
 20
590.2835954503
 30
0.0
 11
357.4818700137
 21
593.0835951642
 31
0.0
  0
LINE
  5
268
330
1F
100
AcDbEntity
  8
0
  6
Continuous
 62
     7
370
    15
100
AcDbLine
 10
370.225103158
 20
593.0835951642
 30
0.0
 11
357.4818700137
 21
593.0835951642
 31
0.0
  0
LINE
  5
269
330
1F
100
AcDbEntity
  8
0
  6
Continuous
 62
     7
370
    15
100
AcDbLine
 10
357.4818700137
 20
593.0835951642
 30
0.0
 11
357.9313203278
 21
593.4835900143
 31
0.0
  0
LINE
  5
26A
330
1F
100
AcDbEntity
  8
0
  6
Continuous
 62
     7
370
    15
100
AcDbLine
 10
357.9313203278
 20
593.4835900143
 30
0.0
 11
370.6012084666
 21
593.4835900143
 31
0.0
  0
LINE
  5
26B
330
1F
100
AcDbEntity
  8
0
  6
Continuous
 62
     7
370
    15
100
AcDbLine
 10
357.9313203278
 20
589.8835886792
 30
0.0
 11
357.4818700137
 21
590.2835954503
 31
0.0
  0
LINE
  5
26C
330
1F
100
AcDbEntity
  8
0
  6
Continuous
 62
     7
370
    15
100
AcDbLine
 10
370.6012084666
 20
589.8835886792
 30
0.0
 11
357.9313203278
 21
589.8835886792
 31
0.0
  0
LINE
  5
26D
330
1F
100
AcDbEntity
  8
0
  6
Continuous
 62
     7
370
    15
100
AcDbLine
 10
391.9852777901
 20
611.1673344449
 30
0.0
 11
365.1068910542
 21
593.4835900143
 31
0.0
  0
LINE
  5
26E
330
1F
100
AcDbEntity
  8
0
  6
Continuous
 62
     7
370
    15
100
AcDbLine
 10
409.6690222206
 20
638.0457211808
 30
0.0
 11
391.9852777901
 21
611.1673344449
 31
0.0
  0
LINE
  5
26F
330
1F
100
AcDbEntity
  8
0
  6
Continuous
 62
     7
370
    15
100
AcDbLine
 10
430.9527620259
 20
611.1673344449
 30
0.0
 11
413.2690175953
 21
638.0457211808
 31
0.0
  0
LINE
  5
270
330
1F
100
AcDbEntity
  8
0
  6
Continuous
 62
     7
370
    15
100
AcDbLine
 10
457.8311487618
 20
593.4835900143
 30
0.0
 11
430.9527620259
 21
611.1673344449
 31
0.0
  0
LINE
  5
271
330
1F
100
AcDbEntity
  8
0
  6
Continuous
 62
     7
370
    15
100
AcDbLine
 10
430.9527620259
 20
572.1998561696
 30
0.0
 11
457.8311487618
 21
589.8835886792
 31
0.0
  0
LINE
  5
272
330
1F
100
AcDbEntity
  8
0
  6
Continuous
 62
     7
370
    15
100
AcDbLine
 10
413.2690175953
 20
545.3214634732
 30
0.0
 11
430.9527620259
 21
572.1998561696
 31
0.0
  0
LINE
  5
273
330
1F
100
AcDbEntity
  8
0
  6
Continuous
 62
     7
370
    15
100
AcDbLine
 10
391.9852777901
 20
572.1998561696
 30
0.0
 11
409.6690222206
 21
545.3214634732
 31
0.0
  0
LINE
  5
274
330
1F
100
AcDbEntity
  8
0
  6
Continuous
 62
     7
370
    15
100
AcDbLine
 10
365.1068910542
 20
589.8835886792
 30
0.0
 11
391.9852777901
 21
572.1998561696
 31
0.0
  0
LINE
  5
275
330
1F
100
AcDbEntity
  8
0
  6
Continuous
 62
     7
370
    15
100
AcDbLine
 10
398.4762653294
 20
604.676352866
 30
0.0
 11
398.9096745434
 21
605.3927410916
 31
0.0
  0
LINE
  5
276
330
1F
100
AcDbEntity
  8
0
  6
Continuous
 62
     7
370
    15
100
AcDbLine
 10
397.8572114888
 20
604.3018330411
 30
0.0
 11
398.4762653294
 21
604.676352866
 31
0.0
  0
LINE
  5
277
330
1F
100
AcDbEntity
  8
0
  6
Continuous
 62
     7
370
    15
100
AcDbLine
 10
398.4762653294
 20
578.6908377484
 30
0.0
 11
397.7598651829
 21
579.1242469624
 31
0.0
  0
LINE
  5
278
330
1F
100
AcDbEntity
  8
0
  6
Continuous
 62
     7
370
    15
100
AcDbLine
 10
398.8507791939
 20
578.0717839078
 30
0.0
 11
398.4762653294
 21
578.6908377484
 31
0.0
  0
LINE
  5
279
330
1F
100
AcDbEntity
  8
0
  6
Continuous
 62
     7
370
    15
100
AcDbLine
 10
424.4617744866
 20
578.6908377484
 30
0.0
 11
424.0283652726
 21
577.9744376019
 31
0.0
  0
LINE
  5
27A
330
1F
100
AcDbEntity
  8
0
  6
Continuous
 62
     7
370
    15
100
AcDbLine
 10
425.0808283272
 20
579.0653575734
 30
0.0
 11
424.4617744866
 21
578.6908377484
 31
0.0
  0
LINE
  5
27B
330
1F
100
AcDbEntity
  8
0
  6
Continuous
 62
     7
370
    15
100
AcDbLine
 10
424.4617744866
 20
604.676352866
 30
0.0
 11
425.1781746331
 21
604.242943652
 31
0.0
  0
LINE
  5
27C
330
1F
100
AcDbEntity
  8
0
  6
Continuous
 62
     7
370
    15
100
AcDbLine
 10
424.0872606221
 20
605.2953947857
 30
0.0
 11
424.4617744866
 21
604.676352866
 31
0.0
  0
LINE
  5
27D
330
1F
100
AcDbEntity
  8
0
  6
Continuous
 62
     7
370
    15
100
AcDbLine
 10
364.3791272822
 20
593.4835900143
 30
0.0
 11
391.6964754048
 21
611.4561308697
 31
0.0
  0
LINE
  5
27E
330
1F
100
AcDbEntity
  8
0
  6
Continuous
 62
     7
370
    15
100
AcDbLine
 10
391.9852777901
 20
611.1673344449
 30
0.0
 11
391.6964754048
 21
611.4561308697
 31
0.0
  0
LINE
  5
27F
330
1F
100
AcDbEntity
  8
0
  6
Continuous
 62
     7
370
    15
100
AcDbLine
 10
391.6964754048
 20
571.9110478238
 30
0.0
 11
364.3791272822
 21
589.8835886792
 31
0.0
  0
LINE
  5
280
330
1F
100
AcDbEntity
  8
0
  6
Continuous
 62
     7
370
    15
100
AcDbLine
 10
391.6964754048
 20
571.9110478238
 30
0.0
 11
391.9852777901
 21
572.1998561696
 31
0.0
  0
LINE
  5
281
330
1F
100
AcDbEntity
  8
0
  6
Continuous
 62
     7
370
    15
100
AcDbLine
 10
398.4762653294
 20
604.676352866
 30
0.0
 11
398.7675472679
 21
604.385064967
 31
0.0
  0
LINE
  5
282
330
1F
100
AcDbEntity
  8
0
  6
Continuous
 62
     7
370
    15
100
AcDbLine
 10
398.7675472679
 20
604.385064967
 30
0.0
 11
398.1472536507
 21
604.0097941235
 31
0.0
  0
LINE
  5
283
330
1F
100
AcDbEntity
  8
0
  6
Continuous
 62
     7
370
    15
100
AcDbLine
 10
391.6964754048
 20
611.4561308697
 30
0.0
 11
409.6690222206
 21
638.7734819726
 31
0.0
  0
LINE
  5
284
330
1F
100
AcDbEntity
  8
0
  6
Continuous
 62
     7
370
    15
100
AcDbLine
 10
398.0499073449
 20
579.4162858799
 30
0.0
 11
398.7675472679
 21
578.9821137265
 31
0.0
  0
LINE
  5
285
330
1F
100
AcDbEntity
  8
0
  6
Continuous
 62
     7
370
    15
100
AcDbLine
 10
398.7675472679
 20
578.9821137265
 30
0.0
 11
398.4762653294
 21
578.6908377484
 31
0.0
  0
LINE
  5
286
330
1F
100
AcDbEntity
  8
0
  6
Continuous
 62
     7
370
    15
100
AcDbLine
 10
399.2017075005
 20
605.1027048901
 30
0.0
 11
398.7675472679
 21
604.385064967
 31
0.0
  0
LINE
  5
287
330
1F
100
AcDbEntity
  8
0
  6
Continuous
 62
     7
370
    15
100
AcDbLine
 10
409.6690222206
 20
544.5937026814
 30
0.0
 11
391.6964754048
 21
571.9110478238
 31
0.0
  0
LINE
  5
288
330
1F
100
AcDbEntity
  8
0
  6
Continuous
 62
     7
370
    15
100
AcDbLine
 10
413.2690175953
 20
638.7734819726
 30
0.0
 11
431.2415644112
 21
611.4561308697
 31
0.0
  0
LINE
  5
289
330
1F
100
AcDbEntity
  8
0
  6
Continuous
 62
     7
370
    15
100
AcDbLine
 10
431.2415644112
 20
611.4561308697
 30
0.0
 11
430.9527620259
 21
611.1673344449
 31
0.0
  0
LINE
  5
28A
330
1F
100
AcDbEntity
  8
0
  6
Continuous
 62
     7
370
    15
100
AcDbLine
 10
398.7675472679
 20
578.9821137265
 30
0.0
 11
399.1428181115
 21
578.3618201092
 31
0.0
  0
LINE
  5
28B
330
1F
100
AcDbEntity
  8
0
  6
Continuous
 62
     7
370
    15
100
AcDbLine
 10
424.4617744866
 20
604.676352866
 30
0.0
 11
424.170492548
 21
604.385064967
 31
0.0
  0
LINE
  5
28C
330
1F
100
AcDbEntity
  8
0
  6
Continuous
 62
     7
370
    15
100
AcDbLine
 10
424.170492548
 20
604.385064967
 30
0.0
 11
423.7952217045
 21
605.0053585843
 31
0.0
  0
LINE
  5
28D
330
1F
100
AcDbEntity
  8
0
  6
Continuous
 62
     7
370
    15
100
AcDbLine
 10
423.7363323155
 20
578.2644857243
 30
0.0
 11
424.170492548
 21
578.9821137265
 31
0.0
  0
LINE
  5
28E
330
1F
100
AcDbEntity
  8
0
  6
Continuous
 62
     7
370
    15
100
AcDbLine
 10
424.170492548
 20
578.9821137265
 30
0.0
 11
424.4617744866
 21
578.6908377484
 31
0.0
  0
LINE
  5
28F
330
1F
100
AcDbEntity
  8
0
  6
Continuous
 62
     7
370
    15
100
AcDbLine
 10
430.9527620259
 20
572.1998561696
 30
0.0
 11
431.2415644112
 21
571.9110478238
 31
0.0
  0
LINE
  5
290
330
1F
100
AcDbEntity
  8
0
  6
Continuous
 62
     7
370
    15
100
AcDbLine
 10
431.2415644112
 20
571.9110478238
 30
0.0
 11
413.2690175953
 21
544.5937026814
 31
0.0
  0
LINE
  5
291
330
1F
100
AcDbEntity
  8
0
  6
Continuous
 62
     7
370
    15
100
AcDbLine
 10
424.8881324711
 20
603.9509047345
 30
0.0
 11
424.170492548
 21
604.385064967
 31
0.0
  0
LINE
  5
292
330
1F
100
AcDbEntity
  8
0
  6
Continuous
 62
     7
370
    15
100
AcDbLine
 10
424.170492548
 20
578.9821137265
 30
0.0
 11
424.7907861653
 21
579.35738457
 31
0.0
  0
LINE
  5
293
330
1F
100
AcDbEntity
  8
0
  6
Continuous
 62
     7
370
    15
100
AcDbLine
 10
431.2415644112
 20
611.4561308697
 30
0.0
 11
458.5589095536
 21
593.4835900143
 31
0.0
  0
LINE
  5
294
330
1F
100
AcDbEntity
  8
0
  6
Continuous
 62
     7
370
    15
100
AcDbLine
 10
458.5589095536
 20
589.8835886792
 30
0.0
 11
431.2415644112
 21
571.9110478238
 31
0.0
  0
LINE
  5
295
330
1F
100
AcDbEntity
  8
0
  6
Continuous
 62
     7
370
    15
100
AcDbLine
 10
744.068556704
 20
639.3984971406
 30
0.0
 11
743.8375456126
 21
641.5358381002
 31
0.0
  0
LINE
  5
296
330
1F
100
AcDbEntity
  8
0
  6
Continuous
 62
     7
370
    15
100
AcDbLine
 10
738.3884132861
 20
644.8740204735
 30
0.0
 11
738.1592650854
 21
644.9430330336
 31
0.0
  0
LINE
  5
297
330
1F
100
AcDbEntity
  8
0
  6
Continuous
 62
     7
370
    15
100
AcDbLine
 10
743.9820039359
 20
611.735247557
 30
0.0
 11
743.7509886298
 21
614.1393106785
 31
0.0
  0
LINE
  5
298
330
1F
100
AcDbEntity
  8
0
  6
Continuous
 62
     7
370
    15
100
AcDbLine
 10
743.5203189279
 20
611.1653697379
 30
0.0
 11
743.8211378445
 21
611.4216178457
 31
0.0
  0
LINE
  5
299
330
1F
100
AcDbEntity
  8
0
  6
Continuous
 62
     7
370
    15
100
AcDbLine
 10
684.4934342101
 20
641.6028138705
 30
0.0
 11
684.2624252261
 21
639.4654716944
 31
0.0
  0
LINE
  5
29A
330
1F
100
AcDbEntity
  8
0
  6
Continuous
 62
     7
370
    15
100
AcDbLine
 10
690.1717126299
 20
645.0100100205
 30
0.0
 11
689.9425623219
 21
644.9409938107
 31
0.0
  0
LINE
  5
29B
330
1F
100
AcDbEntity
  8
0
  6
Continuous
 62
     7
370
    15
100
AcDbLine
 10
684.404474857
 20
614.1736583322
 30
0.0
 11
684.1734595509
 21
611.7696049447
 31
0.0
  0
LINE
  5
29C
330
1F
100
AcDbEntity
  8
0
  6
Continuous
 62
     7
370
    15
100
AcDbLine
 10
684.334329857
 20
611.4559630663
 30
0.0
 11
684.6351445589
 21
611.1997173916
 31
0.0
  0
LINE
  5
29D
330
1F
100
AcDbEntity
  8
0
  6
Continuous
 62
     7
370
    15
100
AcDbLine
 10
738.7685525716
 20
626.8743847225
 30
0.0
 11
743.3960447304
 21
641.6931954194
 31
0.0
  0
LINE
  5
29E
330
1F
100
AcDbEntity
  8
0
  6
Continuous
 62
     7
370
    15
100
AcDbLine
 10
717.1196004557
 20
625.4537722439
 30
0.0
 11
738.7685525716
 21
626.8743847225
 31
0.0
  0
LINE
  5
29F
330
1F
100
AcDbEntity
  8
0
  6
Continuous
 62
     7
370
    15
100
AcDbLine
 10
715.3539172429
 20
626.4730794661
 30
0.0
 11
717.1196004557
 21
625.4537722439
 31
0.0
  0
LINE
  5
2A0
330
1F
100
AcDbEntity
  8
0
  6
Continuous
 62
     7
370
    15
100
AcDbLine
 10
715.2796376371
 20
640.4522128967
 30
0.0
 11
715.3539172429
 21
626.4730794661
 31
0.0
  0
LINE
  5
2A1
330
1F
100
AcDbEntity
  8
0
  6
Continuous
 62
     7
370
    15
100
AcDbLine
 10
737.740662586
 20
644.9579780385
 30
0.0
 11
715.2796376371
 21
640.4522128967
 31
0.0
  0
ARC
  5
2A2
330
1F
100
AcDbEntity
  8
0
  6
Continuous
 62
     7
370
    15
100
AcDbCircle
 10
737.9185499545
 20
644.172205904
 30
0.0
 40
0.8056561073291373
100
AcDbArc
 50
62.8319784914
 51
102.7559157985
  0
LINE
  5
2A3
330
1F
100
AcDbEntity
  8
0
  6
Continuous
 62
     7
370
    15
100
AcDbLine
 10
743.2316973093
 20
642.0341236029
 30
0.0
 11
738.286413698
 21
644.8889750645
 31
0.0
  0
ARC
  5
2A4
330
1F
100
AcDbEntity
  8
0
  6
Continuous
 62
     7
370
    15
100
AcDbCircle
 10
743.112488805
 20
641.7665814482
 30
0.0
 40
0.2928983988631622
100
AcDbArc
 50
345.4898715942
 51
65.9837267056
  0
LINE
  5
2A5
330
1F
100
AcDbEntity
  8
0
  6
Continuous
 62
     7
370
    15
100
AcDbLine
 10
738.7685525716
 20
626.8743847225
 30
0.0
 11
739.1268218573
 21
626.3332202058
 31
0.0
  0
LINE
  5
2A6
330
1F
100
AcDbEntity
  8
0
  6
Continuous
 62
     7
370
    15
100
AcDbLine
 10
739.1268218573
 20
626.3332202058
 30
0.0
 11
716.9888525022
 21
624.8805221191
 31
0.0
  0
LINE
  5
2A7
330
1F
100
AcDbEntity
  8
0
  6
Continuous
 62
     7
370
    15
100
AcDbLine
 10
717.1196004557
 20
625.4537722439
 30
0.0
 11
716.9888525022
 21
624.8805221191
 31
0.0
  0
LINE
  5
2A8
330
1F
100
AcDbEntity
  8
0
  6
Continuous
 62
     7
370
    15
100
AcDbLine
 10
739.2774884114
 20
624.9392690715
 30
0.0
 11
739.1268218573
 21
626.3332202058
 31
0.0
  0
LINE
  5
2A9
330
1F
100
AcDbEntity
  8
0
  6
Continuous
 62
     7
370
    15
100
AcDbLine
 10
717.0715193309
 20
624.1157150074
 30
0.0
 11
716.9888525022
 21
624.8805221191
 31
0.0
  0
LINE
  5
2AA
330
1F
100
AcDbEntity
  8
0
  6
Continuous
 62
     7
370
    15
100
AcDbLine
 10
743.8195236202
 20
641.3608522688
 30
0.0
 11
739.1268218573
 21
626.3332202058
 31
0.0
  0
LINE
  5
2AB
330
1F
100
AcDbEntity
  8
0
  6
Continuous
 62
     7
370
    15
100
AcDbLine
 10
739.4558665184
 20
624.5098169038
 30
0.0
 11
744.0505347116
 21
639.2235210432
 31
0.0
  0
LINE
  5
2AC
330
1F
100
AcDbEntity
  8
0
  6
Continuous
 62
     7
370
    15
100
AcDbLine
 10
716.9888525022
 20
624.8805221191
 30
0.0
 11
714.9888496705
 21
626.035099178
 31
0.0
  0
LINE
  5
2AD
330
1F
100
AcDbEntity
  8
0
  6
Continuous
 62
     7
370
    15
100
AcDbLine
 10
714.9888496705
 20
626.035099178
 30
0.0
 11
715.3539172429
 21
626.4730794661
 31
0.0
  0
LINE
  5
2AE
330
1F
100
AcDbEntity
  8
0
  6
Continuous
 62
     7
370
    15
100
AcDbLine
 10
715.2198649765
 20
623.8977703855
 30
0.0
 11
715.9292807306
 21
623.4882333878
 31
0.0
  0
LINE
  5
2AF
330
1F
100
AcDbEntity
  8
0
  6
Continuous
 62
     7
370
    15
100
AcDbLine
 10
715.2198649765
 20
623.8977703855
 30
0.0
 11
714.9888496705
 21
626.035099178
 31
0.0
  0
LINE
  5
2B0
330
1F
100
AcDbEntity
  8
0
  6
Continuous
 62
     7
370
    15
100
AcDbLine
 10
714.9888496705
 20
626.035099178
 30
0.0
 11
714.9128968347
 21
640.3296072612
 31
0.0
  0
LINE
  5
2B1
330
1F
100
AcDbEntity
  8
0
  6
Continuous
 62
     7
370
    15
100
AcDbLine
 10
714.9128968347
 20
640.3296072612
 30
0.0
 11
715.2796376371
 21
640.4522128967
 31
0.0
  0
ARC
  5
2B2
330
1F
100
AcDbEntity
  8
0
  6
Continuous
 62
     7
370
    15
100
AcDbCircle
 10
743.3469122495
 20
641.4831548347
 30
0.0
 40
0.4881797059980182
100
AcDbArc
 50
345.4912557935
 51
65.98221455
  0
ARC
  5
2B3
330
1F
100
AcDbEntity
  8
0
  6
Continuous
 62
     7
370
    15
100
AcDbCircle
 10
743.6443009244
 20
639.3537780098
 30
0.0
 40
0.4266061030723364
100
AcDbArc
 50
342.2217945105
 51
6.0171038846
  0
LINE
  5
2B4
330
1F
100
AcDbEntity
  8
0
  6
Continuous
 62
     7
370
    15
100
AcDbLine
 10
738.6003276404
 20
644.7839189916
 30
0.0
 11
743.5456112517
 21
641.92906753
 31
0.0
  0
ARC
  5
2B5
330
1F
100
AcDbEntity
  8
0
  6
Continuous
 62
     7
370
    15
100
AcDbCircle
 10
738.096927887
 20
643.8942038979
 30
0.0
 40
1.02225449849446
100
AcDbArc
 50
60.4988695657
 51
73.4327972947
  0
LINE
  5
2B6
330
1F
100
AcDbEntity
  8
0
  6
Continuous
 62
     7
370
    15
100
AcDbLine
 10
715.1687787814
 20
612.057790379
 30
0.0
 11
737.6529128474
 21
611.2254070017
 31
0.0
  0
LINE
  5
2B7
330
1F
100
AcDbEntity
  8
0
  6
Continuous
 62
     7
370
    15
100
AcDbLine
 10
737.6029772613
 20
610.6774170258
 30
0.0
 11
714.8020379791
 21
611.5215309647
 31
0.0
  0
LINE
  5
2B8
330
1F
100
AcDbEntity
  8
0
  6
Continuous
 62
     7
370
    15
100
AcDbLine
 10
715.1687787814
 20
612.057790379
 30
0.0
 11
714.8020379791
 21
611.5215309647
 31
0.0
  0
LINE
  5
2B9
330
1F
100
AcDbEntity
  8
0
  6
Continuous
 62
     7
370
    15
100
AcDbLine
 10
715.0330490705
 20
609.1174702764
 30
0.0
 11
737.8339925674
 21
608.2733539044
 31
0.0
  0
LINE
  5
2BA
330
1F
100
AcDbEntity
  8
0
  6
Continuous
 62
     7
370
    15
100
AcDbLine
 10
715.0330490705
 20
609.1174702764
 30
0.0
 11
714.8020379791
 21
611.5215309647
 31
0.0
  0
LINE
  5
2BB
330
1F
100
AcDbEntity
  8
0
  6
Continuous
 62
     7
370
    15
100
AcDbLine
 10
715.2429698789
 20
623.0920271937
 30
0.0
 11
715.1687787814
 21
612.057790379
 31
0.0
  0
LINE
  5
2BC
330
1F
100
AcDbEntity
  8
0
  6
Continuous
 62
     7
370
    15
100
AcDbLine
 10
717.0086530916
 20
624.1113344159
 30
0.0
 11
715.2429698789
 21
623.0920271937
 31
0.0
  0
LINE
  5
2BD
330
1F
100
AcDbEntity
  8
0
  6
Continuous
 62
     7
370
    15
100
AcDbLine
 10
738.6855485681
 20
625.6195431554
 30
0.0
 11
717.0086530916
 21
624.1113344159
 31
0.0
  0
LINE
  5
2BE
330
1F
100
AcDbEntity
  8
0
  6
Continuous
 62
     7
370
    15
100
AcDbLine
 10
743.3082949918
 20
614.4901896208
 30
0.0
 11
738.6855485681
 21
625.6195431554
 31
0.0
  0
LWPOLYLINE
  5
2BF
330
1F
100
AcDbEntity
  8
0
  6
Continuous
 62
     7
370
    15
100
AcDbPolyline
 90
        9
 70
   128
 43
0.0
 10
743.1439391414
 20
614.2010069827
 10
743.1931666604
 20
614.2327148853
 10
743.2351533509
 20
614.2667827387
 10
743.2692838688
 20
614.3026995998
 10
743.2950355933
 20
614.3399204635
 10
743.3120039145
 20
614.377861394
 10
743.3199190926
 20
614.4159287279
 10
743.3186799753
 20
614.4535774683
 10
743.3082949918
 20
614.4901896208
  0
LINE
  5
2C0
330
1F
100
AcDbEntity
  8
0
  6
Continuous
 62
     7
370
    15
100
AcDbLine
 10
738.1986555301
 20
611.3461555211
 30
0.0
 11
743.1439391414
 21
614.2010069827
 31
0.0
  0
ARC
  5
2C1
330
1F
100
AcDbEntity
  8
0
  6
Continuous
 62
     7
370
    15
100
AcDbCircle
 10
737.7059671429
 20
612.279280353
 30
0.0
 40
1.055207941084407
100
AcDbArc
 50
267.1180377999
 51
297.8339807611
  0
LINE
  5
2C2
330
1F
100
AcDbEntity
  8
0
  6
Continuous
 62
     7
370
    15
100
AcDbLine
 10
737.9499216889
 20
608.1344805215
 30
0.0
 11
715.4657918376
 21
608.9668614656
 31
0.0
  0
LINE
  5
2C3
330
1F
100
AcDbEntity
  8
0
  6
Continuous
 62
     7
370
    15
100
AcDbLine
 10
715.4657918376
 20
608.9668614656
 30
0.0
 11
715.0330490705
 21
609.1174702764
 31
0.0
  0
ARC
  5
2C4
330
1F
100
AcDbEntity
  8
0
  6
Continuous
 62
     7
370
    15
100
AcDbCircle
 10
737.6914149464
 20
612.4338787596
 30
0.0
 40
1.758686739159554
100
AcDbArc
 50
267.1175969206
 51
297.8339736477
  0
ARC
  5
2C5
330
1F
100
AcDbEntity
  8
0
  6
Continuous
 62
     7
370
    15
100
AcDbCircle
 10
737.922370939
 20
610.0300837198
 30
0.0
 40
1.758951500499873
100
AcDbArc
 50
267.1199656626
 51
297.8316049057
  0
LINE
  5
2C6
330
1F
100
AcDbEntity
  8
0
  6
Continuous
 62
     7
370
    15
100
AcDbLine
 10
743.4578488691
 20
613.7335160197
 30
0.0
 11
738.5125652578
 21
610.8786645581
 31
0.0
  0
LINE
  5
2C7
330
1F
100
AcDbEntity
  8
0
  6
Continuous
 62
     7
370
    15
100
AcDbLine
 10
738.7435805638
 20
608.4746014367
 30
0.0
 11
743.6888641751
 21
611.3294528982
 31
0.0
  0
ARC
  5
2C8
330
1F
100
AcDbEntity
  8
0
  6
Continuous
 62
     7
370
    15
100
AcDbCircle
 10
738.0029818583
 20
609.1884745609
 30
0.0
 40
1.055328771872355
100
AcDbArc
 50
267.118048735
 51
297.8306739582
  0
LINE
  5
2C9
330
1F
100
AcDbEntity
  8
0
  6
Continuous
 62
     7
370
    15
100
AcDbLine
 10
743.4409564122
 20
611.1100659023
 30
0.0
 11
738.4956728009
 21
608.2552144407
 31
0.0
  0
LWPOLYLINE
  5
2CA
330
1F
100
AcDbEntity
  8
0
  6
Continuous
 62
     7
370
    15
100
AcDbPolyline
 90
        9
 70
   128
 43
0.0
 10
743.7317612375
 20
614.2154887053
 10
743.7490835923
 20
614.1544538516
 10
743.7511572172
 20
614.0917302845
 10
743.7379568243
 20
614.0282668837
 10
743.7096762889
 20
613.9650319984
 10
743.6667623678
 20
613.9030134488
 10
743.609880981
 20
613.8431406578
 10
743.539883495
 20
613.7863527901
 10
743.4578488691
 20
613.7335160197
  0
ARC
  5
2CB
330
1F
100
AcDbEntity
  8
0
  6
Continuous
 62
     7
370
    15
100
AcDbCircle
 10
743.5299803592
 20
611.7530052351
 30
0.0
 40
0.4523722460783934
100
AcDbArc
 50
290.5621751924
 51
357.750300787
  0
LINE
  5
2CC
330
1F
100
AcDbEntity
  8
0
  6
Continuous
 62
     7
370
    15
100
AcDbLine
 10
739.0438178539
 20
625.5018231562
 30
0.0
 11
743.7317612375
 21
614.2154887053
 31
0.0
  0
LINE
  5
2CD
330
1F
100
AcDbEntity
  8
0
  6
Continuous
 62
     7
370
    15
100
AcDbLine
 10
739.0438178539
 20
625.5018231562
 30
0.0
 11
738.6855485681
 21
625.6195431554
 31
0.0
  0
LINE
  5
2CE
330
1F
100
AcDbEntity
  8
0
  6
Continuous
 62
     7
370
    15
100
AcDbLine
 10
714.8020379791
 20
611.5215309647
 30
0.0
 11
714.8778980917
 21
622.8050174464
 31
0.0
  0
LINE
  5
2CF
330
1F
100
AcDbEntity
  8
0
  6
Continuous
 62
     7
370
    15
100
AcDbLine
 10
715.2429698789
 20
623.0920271937
 30
0.0
 11
714.8778980917
 21
622.8050174464
 31
0.0
  0
LWPOLYLINE
  5
2D0
330
1F
100
AcDbEntity
  8
0
  6
Continuous
 62
     7
370
    15
100
AcDbPolyline
 90
        3
 70
   128
 43
0.0
 10
743.5203189279
 20
611.1653697379
 10
743.4901755019
 20
611.1417786711
 10
743.4409564122
 20
611.1100659023
  0
LINE
  5
2D1
330
1F
100
AcDbEntity
  8
0
  6
Continuous
 62
     7
370
    15
100
AcDbLine
 10
713.0744386586
 20
640.5145460309
 30
0.0
 11
690.5903172367
 21
645.0249538088
 31
0.0
  0
LINE
  5
2D2
330
1F
100
AcDbEntity
  8
0
  6
Continuous
 62
     7
370
    15
100
AcDbLine
 10
713.0002559906
 20
626.5534396397
 30
0.0
 11
713.0744386586
 21
640.5145460309
 31
0.0
  0
LINE
  5
2D3
330
1F
100
AcDbEntity
  8
0
  6
Continuous
 62
     7
370
    15
100
AcDbLine
 10
711.2345643484
 20
625.5341275513
 30
0.0
 11
713.0002559906
 21
626.5534396397
 31
0.0
  0
LINE
  5
2D4
330
1F
100
AcDbEntity
  8
0
  6
Continuous
 62
     7
370
    15
100
AcDbLine
 10
689.557668872
 20
626.9565700173
 30
0.0
 11
711.2345643484
 21
625.5341275513
 31
0.0
  0
LINE
  5
2D5
330
1F
100
AcDbEntity
  8
0
  6
Continuous
 62
     7
370
    15
100
AcDbLine
 10
684.9349350923
 20
641.7601711897
 30
0.0
 11
689.557668872
 21
626.9565700173
 31
0.0
  0
ARC
  5
2D6
330
1F
100
AcDbEntity
  8
0
  6
Continuous
 62
     7
370
    15
100
AcDbCircle
 10
685.2184874867
 20
641.833558485
 30
0.0
 40
0.292895297755261
100
AcDbArc
 50
114.0166899932
 51
194.5105413273
  0
LINE
  5
2D7
330
1F
100
AcDbEntity
  8
0
  6
Continuous
 62
     7
370
    15
100
AcDbLine
 10
690.04456191
 20
644.9559484017
 30
0.0
 11
685.0992782987
 21
642.1010969401
 31
0.0
  0
ARC
  5
2D8
330
1F
100
AcDbEntity
  8
0
  6
Continuous
 62
     7
370
    15
100
AcDbCircle
 10
690.4124379157
 20
644.2391208324
 30
0.0
 40
0.8057136709915113
100
AcDbArc
 50
77.245597646
 51
117.1669007676
  0
LINE
  5
2D9
330
1F
100
AcDbEntity
  8
0
  6
Continuous
 62
     7
370
    15
100
AcDbLine
 10
711.3653207313
 20
624.9608920266
 30
0.0
 11
689.1993995862
 21
626.4154201007
 31
0.0
  0
LINE
  5
2DA
330
1F
100
AcDbEntity
  8
0
  6
Continuous
 62
     7
370
    15
100
AcDbLine
 10
689.1993995862
 20
626.4154201007
 30
0.0
 11
689.557668872
 21
626.9565700173
 31
0.0
  0
LINE
  5
2DB
330
1F
100
AcDbEntity
  8
0
  6
Continuous
 62
     7
370
    15
100
AcDbLine
 10
711.3653207313
 20
624.9608920266
 30
0.0
 11
711.2345643484
 21
625.5341275513
 31
0.0
  0
LINE
  5
2DC
330
1F
100
AcDbEntity
  8
0
  6
Continuous
 62
     7
370
    15
100
AcDbLine
 10
711.2695546621
 20
624.0748379159
 30
0.0
 11
711.3653207313
 21
624.9608920266
 31
0.0
  0
LINE
  5
2DD
330
1F
100
AcDbEntity
  8
0
  6
Continuous
 62
     7
370
    15
100
AcDbLine
 10
689.1018085585
 20
625.5124993602
 30
0.0
 11
689.1993995862
 21
626.4154201007
 31
0.0
  0
LINE
  5
2DE
330
1F
100
AcDbEntity
  8
0
  6
Continuous
 62
     7
370
    15
100
AcDbLine
 10
689.1993995862
 20
626.4154201007
 30
0.0
 11
684.5114519879
 21
641.4278256061
 31
0.0
  0
LINE
  5
2DF
330
1F
100
AcDbEntity
  8
0
  6
Continuous
 62
     7
370
    15
100
AcDbLine
 10
684.2804408965
 20
639.2904846465
 30
0.0
 11
688.8056005071
 21
624.7993831495
 31
0.0
  0
LINE
  5
2E0
330
1F
100
AcDbEntity
  8
0
  6
Continuous
 62
     7
370
    15
100
AcDbLine
 10
713.3653151336
 20
626.1154642193
 30
0.0
 11
711.3653207313
 21
624.9608920266
 31
0.0
  0
LINE
  5
2E1
330
1F
100
AcDbEntity
  8
0
  6
Continuous
 62
     7
370
    15
100
AcDbLine
 10
713.0002559906
 20
626.5534396397
 30
0.0
 11
713.3653151336
 21
626.1154642193
 31
0.0
  0
LINE
  5
2E2
330
1F
100
AcDbEntity
  8
0
  6
Continuous
 62
     7
370
    15
100
AcDbLine
 10
713.134308257
 20
623.9781208267
 30
0.0
 11
713.3653151336
 21
626.1154642193
 31
0.0
  0
LINE
  5
2E3
330
1F
100
AcDbEntity
  8
0
  6
Continuous
 62
     7
370
    15
100
AcDbLine
 10
712.2856898916
 20
623.4882238721
 30
0.0
 11
713.134308257
 21
623.9781208267
 31
0.0
  0
LINE
  5
2E4
330
1F
100
AcDbEntity
  8
0
  6
Continuous
 62
     7
370
    15
100
AcDbLine
 10
713.0744386586
 20
640.5145460309
 30
0.0
 11
713.441179461
 21
640.3919355292
 31
0.0
  0
LINE
  5
2E5
330
1F
100
AcDbEntity
  8
0
  6
Continuous
 62
     7
370
    15
100
AcDbLine
 10
713.441179461
 20
640.3919355292
 30
0.0
 11
713.3653151336
 21
626.1154642193
 31
0.0
  0
ARC
  5
2E6
330
1F
100
AcDbEntity
  8
0
  6
Continuous
 62
     7
370
    15
100
AcDbCircle
 10
684.9840743339
 20
641.5501228812
 30
0.0
 40
0.4881890059329922
100
AcDbArc
 50
114.0187092992
 51
194.5078203572
  0
ARC
  5
2E7
330
1F
100
AcDbEntity
  8
0
  6
Continuous
 62
     7
370
    15
100
AcDbCircle
 10
684.6866105002
 20
639.4207224763
 30
0.0
 40
0.4265391415451478
100
AcDbArc
 50
173.9778840671
 51
197.7783901115
  0
LINE
  5
2E8
330
1F
100
AcDbEntity
  8
0
  6
Continuous
 62
     7
370
    15
100
AcDbLine
 10
684.7853643563
 20
641.9960408673
 30
0.0
 11
689.7306479676
 21
644.8508923288
 31
0.0
  0
ARC
  5
2E9
330
1F
100
AcDbEntity
  8
0
  6
Continuous
 62
     7
370
    15
100
AcDbCircle
 10
690.2339881487
 20
643.9613173466
 30
0.0
 40
1.022103217353432
100
AcDbArc
 50
106.5662414459
 51
119.5020916937
  0
LINE
  5
2EA
330
1F
100
AcDbEntity
  8
0
  6
Continuous
 62
     7
370
    15
100
AcDbLine
 10
713.3303290347
 20
611.555032213
 30
0.0
 11
690.5524735814
 21
610.7117622464
 31
0.0
  0
LINE
  5
2EB
330
1F
100
AcDbEntity
  8
0
  6
Continuous
 62
     7
370
    15
100
AcDbLine
 10
690.502554854
 20
611.2597619562
 30
0.0
 11
712.963579803
 21
612.0912916273
 31
0.0
  0
LINE
  5
2EC
330
1F
100
AcDbEntity
  8
0
  6
Continuous
 62
     7
370
    15
100
AcDbLine
 10
713.3303290347
 20
611.555032213
 30
0.0
 11
712.963579803
 21
612.0912916273
 31
0.0
  0
LINE
  5
2ED
330
1F
100
AcDbEntity
  8
0
  6
Continuous
 62
     7
370
    15
100
AcDbLine
 10
713.0993137286
 20
609.1509690916
 30
0.0
 11
713.3303290347
 21
611.555032213
 31
0.0
  0
LINE
  5
2EE
330
1F
100
AcDbEntity
  8
0
  6
Continuous
 62
     7
370
    15
100
AcDbLine
 10
690.3214667047
 20
608.3077137251
 30
0.0
 11
713.0993137286
 21
609.1509690916
 31
0.0
  0
LINE
  5
2EF
330
1F
100
AcDbEntity
  8
0
  6
Continuous
 62
     7
370
    15
100
AcDbLine
 10
689.4746648685
 20
625.6653430385
 30
0.0
 11
684.8471727097
 21
614.5245445753
 31
0.0
  0
LINE
  5
2F0
330
1F
100
AcDbEntity
  8
0
  6
Continuous
 62
     7
370
    15
100
AcDbLine
 10
711.1236169844
 20
624.1590810745
 30
0.0
 11
689.4746648685
 21
625.6653430385
 31
0.0
  0
LINE
  5
2F1
330
1F
100
AcDbEntity
  8
0
  6
Continuous
 62
     7
370
    15
100
AcDbLine
 10
712.8893001972
 20
623.1397738523
 30
0.0
 11
711.1236169844
 21
624.1590810745
 31
0.0
  0
LINE
  5
2F2
330
1F
100
AcDbEntity
  8
0
  6
Continuous
 62
     7
370
    15
100
AcDbLine
 10
712.963579803
 20
612.0912916273
 30
0.0
 11
712.8893001972
 21
623.1397738523
 31
0.0
  0
ARC
  5
2F3
330
1F
100
AcDbEntity
  8
0
  6
Continuous
 62
     7
370
    15
100
AcDbCircle
 10
690.4495073552
 20
612.3137396496
 30
0.0
 40
1.055311809511595
100
AcDbArc
 50
242.1683207073
 51
272.8813088314
  0
LINE
  5
2F4
330
1F
100
AcDbEntity
  8
0
  6
Continuous
 62
     7
370
    15
100
AcDbLine
 10
685.0115243454
 20
614.2353546363
 30
0.0
 11
689.9568079567
 21
611.3805031748
 31
0.0
  0
LWPOLYLINE
  5
2F5
330
1F
100
AcDbEntity
  8
0
  6
Continuous
 62
     7
370
    15
100
AcDbPolyline
 90
        9
 70
   128
 43
0.0
 10
684.8471727097
 20
614.5245445753
 10
684.8367877262
 20
614.4879226889
 10
684.8355401795
 20
614.4502885487
 10
684.843463787
 20
614.4122066146
 10
684.8604278935
 20
614.3742681172
 10
684.8861754033
 20
614.3370594205
 10
684.9203101359
 20
614.3011401264
 10
684.9623010411
 20
614.2670601059
 10
685.0115243454
 20
614.2353546363
  0
LINE
  5
2F6
330
1F
100
AcDbEntity
  8
0
  6
Continuous
 62
     7
370
    15
100
AcDbLine
 10
712.6665709616
 20
609.000365147
 30
0.0
 11
690.2055460126
 21
608.1688257421
 31
0.0
  0
LINE
  5
2F7
330
1F
100
AcDbEntity
  8
0
  6
Continuous
 62
     7
370
    15
100
AcDbLine
 10
712.6665709616
 20
609.000365147
 30
0.0
 11
713.0993137286
 21
609.1509690916
 31
0.0
  0
ARC
  5
2F8
330
1F
100
AcDbEntity
  8
0
  6
Continuous
 62
     7
370
    15
100
AcDbCircle
 10
690.4640910838
 20
612.4684030141
 30
0.0
 40
1.758862772552332
100
AcDbArc
 50
242.1674868927
 51
272.8803143227
  0
ARC
  5
2F9
330
1F
100
AcDbEntity
  8
0
  6
Continuous
 62
     7
370
    15
100
AcDbCircle
 10
690.2330608443
 20
610.064396139
 30
0.0
 40
1.758905540289191
100
AcDbArc
 50
242.1687725064
 51
272.881006228
  0
LINE
  5
2FA
330
1F
100
AcDbEntity
  8
0
  6
Continuous
 62
     7
370
    15
100
AcDbLine
 10
689.642898229
 20
610.9130122118
 30
0.0
 11
684.6976146177
 21
613.7678636734
 31
0.0
  0
LINE
  5
2FB
330
1F
100
AcDbEntity
  8
0
  6
Continuous
 62
     7
370
    15
100
AcDbLine
 10
684.4665993117
 20
611.3638005519
 30
0.0
 11
689.411882923
 21
608.5089490903
 31
0.0
  0
ARC
  5
2FC
330
1F
100
AcDbEntity
  8
0
  6
Continuous
 62
     7
370
    15
100
AcDbCircle
 10
690.1525351115
 20
609.2229656258
 30
0.0
 40
1.055471956112751
100
AcDbArc
 50
242.1701463806
 51
272.8788820782
  0
LINE
  5
2FD
330
1F
100
AcDbEntity
  8
0
  6
Continuous
 62
     7
370
    15
100
AcDbLine
 10
689.6597906859
 20
608.2895718283
 30
0.0
 11
684.7145070746
 21
611.1444232899
 31
0.0
  0
LWPOLYLINE
  5
2FE
330
1F
100
AcDbEntity
  8
0
  6
Continuous
 62
     7
370
    15
100
AcDbPolyline
 90
        9
 70
   128
 43
0.0
 10
684.6976146177
 20
613.7678636734
 10
684.6155842065
 20
613.8207077447
 10
684.5455867205
 20
613.8774956123
 10
684.488701119
 20
613.9373611025
 10
684.4457871979
 20
613.999389386
 10
684.4175108772
 20
614.0626121043
 10
684.4043104843
 20
614.1260755051
 10
684.4063841092
 20
614.1888088061
 10
684.4236938199
 20
614.2498314928
  0
ARC
  5
2FF
330
1F
100
AcDbEntity
  8
0
  6
Continuous
 62
     7
370
    15
100
AcDbCircle
 10
684.6581176663
 20
611.8109265815
 30
0.0
 40
0.4864164537977262
100
AcDbArc
 50
184.8732157791
 51
246.8130034924
  0
LINE
  5
300
330
1F
100
AcDbEntity
  8
0
  6
Continuous
 62
     7
370
    15
100
AcDbLine
 10
684.4236938199
 20
614.2498314928
 30
0.0
 11
689.1163955827
 21
625.5476279055
 31
0.0
  0
LINE
  5
301
330
1F
100
AcDbEntity
  8
0
  6
Continuous
 62
     7
370
    15
100
AcDbLine
 10
689.4746648685
 20
625.6653430385
 30
0.0
 11
689.1163955827
 21
625.5476279055
 31
0.0
  0
LINE
  5
302
330
1F
100
AcDbEntity
  8
0
  6
Continuous
 62
     7
370
    15
100
AcDbLine
 10
713.2543677696
 20
622.852761672
 30
0.0
 11
713.3303290347
 21
611.555032213
 31
0.0
  0
LINE
  5
303
330
1F
100
AcDbEntity
  8
0
  6
Continuous
 62
     7
370
    15
100
AcDbLine
 10
713.2543677696
 20
622.852761672
 30
0.0
 11
712.8893001972
 21
623.1397738523
 31
0.0
  0
LWPOLYLINE
  5
304
330
1F
100
AcDbEntity
  8
0
  6
Continuous
 62
     7
370
    15
100
AcDbPolyline
 90
        3
 70
   128
 43
0.0
 10
684.7145070746
 20
611.1444232899
 10
684.6652921996
 20
611.1761336256
 10
684.6351445589
 20
611.1997173916
  0
LINE
  5
305
330
1F
100
AcDbEntity
  8
0
  6
Continuous
 62
     7
370
    15
100
AcDbLine
 10
695.8199951377
 20
590.0945598291
 30
0.0
 11
686.4964969031
 21
577.379731028
 31
0.0
  0
LINE
  5
306
330
1F
100
AcDbEntity
  8
0
  6
Continuous
 62
     7
370
    15
100
AcDbLine
 10
699.8885905825
 20
605.7550559358
 30
0.0
 11
695.8199951377
 21
590.0945598291
 31
0.0
  0
LINE
  5
307
330
1F
100
AcDbEntity
  8
0
  6
Continuous
 62
     7
370
    15
100
AcDbLine
 10
694.0072254657
 20
607.8262131972
 30
0.0
 11
699.8885905825
 21
605.7550559358
 31
0.0
  0
LINE
  5
308
330
1F
100
AcDbEntity
  8
0
  6
Continuous
 62
     7
370
    15
100
AcDbLine
 10
693.8837267702
 20
608.3050024878
 30
0.0
 11
694.0072254657
 21
607.8262131972
 31
0.0
  0
LINE
  5
309
330
1F
100
AcDbEntity
  8
0
  6
Continuous
 62
     7
370
    15
100
AcDbLine
 10
713.8387675417
 20
616.3118385181
 30
0.0
 11
713.300434275
 21
616.0010653383
 31
0.0
  0
LINE
  5
30A
330
1F
100
AcDbEntity
  8
0
  6
Continuous
 62
     7
370
    15
100
AcDbLine
 10
713.8387675417
 20
609.5810921915
 30
0.0
 11
713.8387675417
 21
616.3118385181
 31
0.0
  0
LINE
  5
30B
330
1F
100
AcDbEntity
  8
0
  6
Continuous
 62
     7
370
    15
100
AcDbLine
 10
714.4044541131
 20
609.907656098
 30
0.0
 11
713.8387675417
 21
609.5810921915
 31
0.0
  0
LINE
  5
30C
330
1F
100
AcDbEntity
  8
0
  6
Continuous
 62
     7
370
    15
100
AcDbLine
 10
744.2923058934
 20
610.7445413681
 30
0.0
 11
743.2025949104
 21
610.9724685674
 31
0.0
  0
LINE
  5
30D
330
1F
100
AcDbEntity
  8
0
  6
Continuous
 62
     7
370
    15
100
AcDbLine
 10
753.2512718205
 20
527.3614146834
 30
0.0
 11
744.2923058934
 21
610.7445413681
 31
0.0
  0
LINE
  5
30E
330
1F
100
AcDbEntity
  8
0
  6
Continuous
 62
     7
370
    15
100
AcDbLine
 10
749.4264284594
 20
525.1533796104
 30
0.0
 11
753.2512718205
 21
527.3614146834
 31
0.0
  0
LINE
  5
30F
330
1F
100
AcDbEntity
  8
0
  6
Continuous
 62
     7
370
    15
100
AcDbLine
 10
710.6189084735
 20
601.6293080887
 30
0.0
 11
714.4044541131
 21
603.81465707
 31
0.0
  0
LINE
  5
310
330
1F
100
AcDbEntity
  8
0
  6
Continuous
 62
     7
370
    15
100
AcDbLine
 10
709.6109497326
 20
597.749552633
 30
0.0
 11
710.6189084735
 21
601.6293080887
 31
0.0
  0
LINE
  5
311
330
1F
100
AcDbEntity
  8
0
  6
Continuous
 62
     7
370
    15
100
AcDbLine
 10
705.7064825453
 20
582.7207971934
 30
0.0
 11
709.6109497326
 21
597.749552633
 31
0.0
  0
LINE
  5
312
330
1F
100
AcDbEntity
  8
0
  6
Continuous
 62
     7
370
    15
100
AcDbLine
 10
698.8493420212
 20
578.7622542288
 30
0.0
 11
705.7064825453
 21
582.7207971934
 31
0.0
  0
LINE
  5
313
330
1F
100
AcDbEntity
  8
0
  6
Continuous
 62
     7
370
    15
100
AcDbLine
 10
691.5767684408
 20
534.6862981835
 30
0.0
 11
698.8493420212
 21
578.7622542288
 31
0.0
  0
LINE
  5
314
330
1F
100
AcDbEntity
  8
0
  6
Continuous
 62
     7
370
    15
100
AcDbLine
 10
690.1506876746
 20
533.8630392807
 30
0.0
 11
691.5767684408
 21
534.6862981835
 31
0.0
  0
LINE
  5
315
330
1F
100
AcDbEntity
  8
0
  6
Continuous
 62
     7
370
    15
100
AcDbLine
 10
690.1506876746
 20
533.536422294
 30
0.0
 11
690.1506876746
 21
533.8630392807
 31
0.0
  0
LINE
  5
316
330
1F
100
AcDbEntity
  8
0
  6
Continuous
 62
     7
370
    15
100
AcDbLine
 10
683.7477384488
 20
487.2378789214
 30
0.0
 11
690.3356870514
 21
527.1646165608
 31
0.0
  0
LINE
  5
317
330
1F
100
AcDbEntity
  8
0
  6
Continuous
 62
     7
370
    15
100
AcDbLine
 10
677.5375351906
 20
483.6528048909
 30
0.0
 11
683.7477384488
 21
487.2378789214
 31
0.0
  0
LINE
  5
318
330
1F
100
AcDbEntity
  8
0
  6
Continuous
 62
     7
370
    15
100
AcDbLine
 10
686.4964969031
 20
577.379731028
 30
0.0
 11
677.5375351906
 21
483.6528048909
 31
0.0
  0
LINE
  5
319
330
1F
100
AcDbEntity
  8
0
  6
Continuous
 62
     7
370
    15
100
AcDbLine
 10
694.0072254657
 20
607.8262131972
 30
0.0
 11
693.4740931202
 21
607.6583632075
 31
0.0
  0
LINE
  5
31A
330
1F
100
AcDbEntity
  8
0
  6
Continuous
 62
     7
370
    15
100
AcDbLine
 10
693.4740931202
 20
607.6583632075
 30
0.0
 11
693.3127549841
 21
608.2838608994
 31
0.0
  0
LINE
  5
31B
330
1F
100
AcDbEntity
  8
0
  6
Continuous
 62
     7
370
    15
100
AcDbLine
 10
693.4740931202
 20
607.6583632075
 30
0.0
 11
692.4461567731
 21
608.2517782294
 31
0.0
  0
LINE
  5
31C
330
1F
100
AcDbEntity
  8
0
  6
Continuous
 62
     7
370
    15
100
AcDbLine
 10
699.8885905825
 20
605.7550559358
 30
0.0
 11
699.2723699398
 21
605.6164690541
 31
0.0
  0
LINE
  5
31D
330
1F
100
AcDbEntity
  8
0
  6
Continuous
 62
     7
370
    15
100
AcDbLine
 10
699.2723699398
 20
605.6164690541
 30
0.0
 11
693.4740931202
 21
607.6583632075
 31
0.0
  0
LINE
  5
31E
330
1F
100
AcDbEntity
  8
0
  6
Continuous
 62
     7
370
    15
100
AcDbLine
 10
677.5375351906
 20
483.6528048909
 30
0.0
 11
676.9368835938
 21
483.3059981584
 31
0.0
  0
LINE
  5
31F
330
1F
100
AcDbEntity
  8
0
  6
Continuous
 62
     7
370
    15
100
AcDbLine
 10
676.9368835938
 20
483.3059981584
 30
0.0
 11
685.947711218
 21
577.5754981426
 31
0.0
  0
LINE
  5
320
330
1F
100
AcDbEntity
  8
0
  6
Continuous
 62
     7
370
    15
100
AcDbLine
 10
686.4964969031
 20
577.379731028
 30
0.0
 11
685.947711218
 21
577.5754981426
 31
0.0
  0
LINE
  5
321
330
1F
100
AcDbEntity
  8
0
  6
Continuous
 62
     7
370
    15
100
AcDbLine
 10
676.9368835938
 20
483.3059981584
 30
0.0
 11
674.9569805941
 21
484.4489718313
 31
0.0
  0
LINE
  5
322
330
1F
100
AcDbEntity
  8
0
  6
Continuous
 62
     7
370
    15
100
AcDbLine
 10
683.9678082183
 20
578.7184718155
 30
0.0
 11
674.9569805941
 21
484.4489718313
 31
0.0
  0
LINE
  5
323
330
1F
100
AcDbEntity
  8
0
  6
Continuous
 62
     7
370
    15
100
AcDbLine
 10
685.947711218
 20
577.5754981426
 30
0.0
 11
683.9678082183
 21
578.7184718155
 31
0.0
  0
LINE
  5
324
330
1F
100
AcDbEntity
  8
0
  6
Continuous
 62
     7
370
    15
100
AcDbLine
 10
695.8199951377
 20
590.0945598291
 30
0.0
 11
695.3013023024
 21
590.3313623479
 31
0.0
  0
LINE
  5
325
330
1F
100
AcDbEntity
  8
0
  6
Continuous
 62
     7
370
    15
100
AcDbLine
 10
695.3013023024
 20
590.3313623479
 30
0.0
 11
699.2723699398
 21
605.6164690541
 31
0.0
  0
LINE
  5
326
330
1F
100
AcDbEntity
  8
0
  6
Continuous
 62
     7
370
    15
100
AcDbLine
 10
695.3013023024
 20
590.3313623479
 30
0.0
 11
693.3213993027
 21
591.4743360208
 31
0.0
  0
LINE
  5
327
330
1F
100
AcDbEntity
  8
0
  6
Continuous
 62
     7
370
    15
100
AcDbLine
 10
697.186374893
 20
606.3510658583
 30
0.0
 11
693.3213993027
 21
591.4743360208
 31
0.0
  0
LINE
  5
328
330
1F
100
AcDbEntity
  8
0
  6
Continuous
 62
     7
370
    15
100
AcDbLine
 10
674.9569805941
 20
484.4489718313
 30
0.0
 11
674.9919540489
 21
485.1223376041
 31
0.0
  0
LINE
  5
329
330
1F
100
AcDbEntity
  8
0
  6
Continuous
 62
     7
370
    15
100
AcDbLine
 10
683.9678082183
 20
578.7184718155
 30
0.0
 11
683.9509157614
 21
578.8492637412
 31
0.0
  0
LINE
  5
32A
330
1F
100
AcDbEntity
  8
0
  6
Continuous
 62
     7
370
    15
100
AcDbLine
 10
674.9919540489
 20
485.1223376041
 30
0.0
 11
683.9509157614
 21
578.8492637412
 31
0.0
  0
LINE
  5
32B
330
1F
100
AcDbEntity
  8
0
  6
Continuous
 62
     7
370
    15
100
AcDbLine
 10
685.947711218
 20
577.5754981426
 30
0.0
 11
695.3013023024
 21
590.3313623479
 31
0.0
  0
LINE
  5
32C
330
1F
100
AcDbEntity
  8
0
  6
Continuous
 62
     7
370
    15
100
AcDbLine
 10
693.3213993027
 20
591.4743360208
 30
0.0
 11
693.274413996
 21
591.5640925423
 31
0.0
  0
LINE
  5
32D
330
1F
100
AcDbEntity
  8
0
  6
Continuous
 62
     7
370
    15
100
AcDbLine
 10
693.274413996
 20
591.5640925423
 30
0.0
 11
697.1219576497
 21
606.3737475383
 31
0.0
  0
LINE
  5
32E
330
1F
100
AcDbEntity
  8
0
  6
Continuous
 62
     7
370
    15
100
AcDbLine
 10
693.3213993027
 20
591.4743360208
 30
0.0
 11
683.9678082183
 21
578.7184718155
 31
0.0
  0
LINE
  5
32F
330
1F
100
AcDbEntity
  8
0
  6
Continuous
 62
     7
370
    15
100
AcDbLine
 10
683.9509157614
 20
578.8492637412
 30
0.0
 11
693.274413996
 21
591.5640925423
 31
0.0
  0
LINE
  5
330
330
1F
100
AcDbEntity
  8
0
  6
Continuous
 62
     7
370
    15
100
AcDbLine
 10
713.2960594322
 20
616.6517206892
 30
0.0
 11
713.8387675417
 21
616.9650194121
 31
0.0
  0
LINE
  5
331
330
1F
100
AcDbEntity
  8
0
  6
Continuous
 62
     7
370
    15
100
AcDbLine
 10
713.8387675417
 20
616.3118385181
 30
0.0
 11
713.8387675417
 21
616.9650194121
 31
0.0
  0
LINE
  5
332
330
1F
100
AcDbEntity
  8
0
  6
Continuous
 62
     7
370
    15
100
AcDbLine
 10
713.8387675417
 20
616.9650194121
 30
0.0
 11
713.2918278886
 21
617.2807609531
 31
0.0
  0
LINE
  5
333
330
1F
100
AcDbEntity
  8
0
  6
Continuous
 62
     7
370
    15
100
AcDbLine
 10
714.4044498984
 20
619.5775282312
 30
0.0
 11
714.4044498984
 21
619.2672691056
 31
0.0
  0
LINE
  5
334
330
1F
100
AcDbEntity
  8
0
  6
Continuous
 62
     7
370
    15
100
AcDbLine
 10
714.8544560146
 20
619.31774523
 30
0.0
 11
714.4044498984
 21
619.5775282312
 31
0.0
  0
LINE
  5
335
330
1F
100
AcDbEntity
  8
0
  6
Continuous
 62
     7
370
    15
100
AcDbLine
 10
714.8579584177
 20
619.8393331268
 30
0.0
 11
714.4044498984
 21
619.5775282312
 31
0.0
  0
LINE
  5
336
330
1F
100
AcDbEntity
  8
0
  6
Continuous
 62
     7
370
    15
100
AcDbLine
 10
713.8387675417
 20
610.2342730855
 30
0.0
 11
714.1216150421
 21
610.3975574718
 31
0.0
  0
LINE
  5
337
330
1F
100
AcDbEntity
  8
0
  6
Continuous
 62
     7
370
    15
100
AcDbLine
 10
714.4044541131
 20
603.8145942567
 30
0.0
 11
710.6189000441
 21
601.6292404093
 31
0.0
  0
LINE
  5
338
330
1F
100
AcDbEntity
  8
0
  6
Continuous
 62
     7
370
    15
100
AcDbLine
 10
705.6237567111
 20
582.6729875065
 30
0.0
 11
698.8493335919
 21
578.7621962833
 31
0.0
  0
LINE
  5
339
330
1F
100
AcDbEntity
  8
0
  6
Continuous
 62
     7
370
    15
100
AcDbLine
 10
705.6237567111
 20
582.6729875065
 30
0.0
 11
705.7064825453
 21
582.7207971934
 31
0.0
  0
LINE
  5
33A
330
1F
100
AcDbEntity
  8
0
  6
Continuous
 62
     7
370
    15
100
AcDbLine
 10
743.746466273
 20
611.3580079628
 30
0.0
 11
744.2754134365
 21
611.2473639076
 31
0.0
  0
LINE
  5
33B
330
1F
100
AcDbEntity
  8
0
  6
Continuous
 62
     7
370
    15
100
AcDbLine
 10
744.2754134365
 20
611.2473639076
 30
0.0
 11
744.2923058934
 21
610.7445413681
 31
0.0
  0
LINE
  5
33C
330
1F
100
AcDbEntity
  8
0
  6
Continuous
 62
     7
370
    15
100
AcDbLine
 10
744.2754134365
 20
611.2473639076
 30
0.0
 11
743.8783774794
 21
611.4765678868
 31
0.0
  0
LINE
  5
33D
330
1F
100
AcDbEntity
  8
0
  6
Continuous
 62
     7
370
    15
100
AcDbLine
 10
691.5234105306
 20
534.6554373712
 30
0.0
 11
690.1506961039
 21
533.8629862006
 31
0.0
  0
LINE
  5
33E
330
1F
100
AcDbEntity
  8
0
  6
Continuous
 62
     7
370
    15
100
AcDbLine
 10
691.5234105306
 20
534.6554373712
 30
0.0
 11
691.5767684408
 21
534.6862981835
 31
0.0
  0
LINE
  5
33F
330
1F
100
AcDbEntity
  8
0
  6
Continuous
 62
     7
370
    15
100
AcDbLine
 10
744.2754134365
 20
611.2473639076
 30
0.0
 11
753.2862410607
 21
527.3815440497
 31
0.0
  0
LINE
  5
340
330
1F
100
AcDbEntity
  8
0
  6
Continuous
 62
     7
370
    15
100
AcDbLine
 10
753.2862410607
 20
527.3815440497
 30
0.0
 11
753.2512718205
 21
527.3614146834
 31
0.0
  0
LINE
  5
341
330
1F
100
AcDbEntity
  8
0
  6
Continuous
 62
     7
370
    15
100
AcDbLine
 10
683.6943805386
 20
487.2070181091
 30
0.0
 11
676.9368835938
 21
483.3059981584
 31
0.0
  0
LINE
  5
342
330
1F
100
AcDbEntity
  8
0
  6
Continuous
 62
     7
370
    15
100
AcDbLine
 10
683.6943805386
 20
487.2070181091
 30
0.0
 11
683.7477384488
 21
487.2378789214
 31
0.0
  0
LINE
  5
343
330
1F
100
AcDbEntity
  8
0
  6
Continuous
 62
     7
370
    15
100
AcDbLine
 10
753.2862410607
 20
527.3815440497
 30
0.0
 11
749.4264411035
 21
525.1533289633
 31
0.0
  0
LINE
  5
344
330
1F
100
AcDbEntity
  8
0
  6
Continuous
 62
     7
370
    15
100
AcDbLine
 10
728.1442045017
 20
608.4974976597
 30
0.0
 11
728.1684136515
 21
608.2455664843
 31
0.0
  0
LINE
  5
345
330
1F
100
AcDbEntity
  8
0
  6
Continuous
 62
     7
370
    15
100
AcDbLine
 10
726.9718856957
 20
608.5408894237
 30
0.0
 11
728.1684136515
 21
608.2455664843
 31
0.0
  0
LINE
  5
346
330
1F
100
AcDbEntity
  8
0
  6
Continuous
 62
     7
370
    15
100
AcDbLine
 10
727.9277003556
 20
607.9513481815
 30
0.0
 11
725.2863447154
 21
608.603291352
 31
0.0
  0
LINE
  5
347
330
1F
100
AcDbEntity
  8
0
  6
Continuous
 62
     7
370
    15
100
AcDbLine
 10
728.1684136515
 20
608.2455664843
 30
0.0
 11
727.9277003556
 21
607.9513481815
 31
0.0
  0
LINE
  5
348
330
1F
100
AcDbEntity
  8
0
  6
Continuous
 62
     7
370
    15
100
AcDbLine
 10
674.9919456196
 20
527.3777214416
 30
0.0
 11
678.8197413674
 21
525.167981992
 31
0.0
  0
LINE
  5
349
330
1F
100
AcDbEntity
  8
0
  6
Continuous
 62
     7
370
    15
100
AcDbLine
 10
683.9509094394
 20
610.7608542099
 30
0.0
 11
674.9919456196
 21
527.3777214416
 31
0.0
  0
LINE
  5
34A
330
1F
100
AcDbEntity
  8
0
  6
Continuous
 62
     7
370
    15
100
AcDbLine
 10
684.9991479234
 20
610.9801045905
 30
0.0
 11
683.9509094394
 21
610.7608542099
 31
0.0
  0
LINE
  5
34B
330
1F
100
AcDbEntity
  8
0
  6
Continuous
 62
     7
370
    15
100
AcDbLine
 10
714.832691382
 20
616.080931597
 30
0.0
 11
713.8387675417
 21
616.6547116168
 31
0.0
  0
LINE
  5
34C
330
1F
100
AcDbEntity
  8
0
  6
Continuous
 62
     7
370
    15
100
AcDbLine
 10
734.2359919743
 20
607.8425248224
 30
0.0
 11
734.3457170797
 21
608.2679027741
 31
0.0
  0
LINE
  5
34D
330
1F
100
AcDbEntity
  8
0
  6
Continuous
 62
     7
370
    15
100
AcDbLine
 10
728.3546268576
 20
605.7713675611
 30
0.0
 11
734.2359919743
 21
607.8425248224
 31
0.0
  0
LINE
  5
34E
330
1F
100
AcDbEntity
  8
0
  6
Continuous
 62
     7
370
    15
100
AcDbLine
 10
732.4232223024
 20
590.1108617204
 30
0.0
 11
728.3546268576
 21
605.7713675611
 31
0.0
  0
LINE
  5
34F
330
1F
100
AcDbEntity
  8
0
  6
Continuous
 62
     7
370
    15
100
AcDbLine
 10
741.746720537
 20
577.3960426532
 30
0.0
 11
732.4232223024
 21
590.1108617204
 31
0.0
  0
LINE
  5
350
330
1F
100
AcDbEntity
  8
0
  6
Continuous
 62
     7
370
    15
100
AcDbLine
 10
750.7056822495
 20
483.6691116491
 30
0.0
 11
741.746720537
 21
577.3960426532
 31
0.0
  0
LINE
  5
351
330
1F
100
AcDbEntity
  8
0
  6
Continuous
 62
     7
370
    15
100
AcDbLine
 10
744.4954789913
 20
487.2541856796
 30
0.0
 11
750.7056822495
 21
483.6691116491
 31
0.0
  0
LINE
  5
352
330
1F
100
AcDbEntity
  8
0
  6
Continuous
 62
     7
370
    15
100
AcDbLine
 10
737.9102783632
 20
527.1642882991
 30
0.0
 11
744.4954789913
 21
487.2541856796
 31
0.0
  0
LINE
  5
353
330
1F
100
AcDbEntity
  8
0
  6
Continuous
 62
     7
370
    15
100
AcDbLine
 10
738.0925297655
 20
533.8793460389
 30
0.0
 11
738.0925297655
 21
533.5364198609
 31
0.0
  0
LINE
  5
354
330
1F
100
AcDbEntity
  8
0
  6
Continuous
 62
     7
370
    15
100
AcDbLine
 10
736.6664489993
 20
534.7026049417
 30
0.0
 11
738.0925297655
 21
533.8793460389
 31
0.0
  0
LINE
  5
355
330
1F
100
AcDbEntity
  8
0
  6
Continuous
 62
     7
370
    15
100
AcDbLine
 10
729.3938754188
 20
578.778565854
 30
0.0
 11
736.6664489993
 21
534.7026049417
 31
0.0
  0
LINE
  5
356
330
1F
100
AcDbEntity
  8
0
  6
Continuous
 62
     7
370
    15
100
AcDbLine
 10
722.5367348948
 20
582.7371088186
 30
0.0
 11
729.3938754188
 21
578.778565854
 31
0.0
  0
LINE
  5
357
330
1F
100
AcDbEntity
  8
0
  6
Continuous
 62
     7
370
    15
100
AcDbLine
 10
717.6243089666
 20
601.64560998
 30
0.0
 11
722.5367348948
 21
582.7371088186
 31
0.0
  0
LINE
  5
358
330
1F
100
AcDbEntity
  8
0
  6
Continuous
 62
     7
370
    15
100
AcDbLine
 10
714.4044498984
 20
603.5043950548
 30
0.0
 11
717.6243089666
 21
601.64560998
 31
0.0
  0
LINE
  5
359
330
1F
100
AcDbEntity
  8
0
  6
Continuous
 62
     7
370
    15
100
AcDbLine
 10
714.4044498984
 20
610.2343237317
 30
0.0
 11
714.4044498984
 21
603.5043950548
 31
0.0
  0
LINE
  5
35A
330
1F
100
AcDbEntity
  8
0
  6
Continuous
 62
     7
370
    15
100
AcDbLine
 10
713.8387675417
 20
610.5608852051
 30
0.0
 11
714.4044498984
 21
610.2343237317
 31
0.0
  0
LINE
  5
35B
330
1F
100
AcDbEntity
  8
0
  6
Continuous
 62
     7
370
    15
100
AcDbLine
 10
734.9166972953
 20
608.2467757858
 30
0.0
 11
734.7691327493
 21
607.6746796988
 31
0.0
  0
LINE
  5
35C
330
1F
100
AcDbEntity
  8
0
  6
Continuous
 62
     7
370
    15
100
AcDbLine
 10
734.7691327493
 20
607.6746796988
 30
0.0
 11
734.2359919743
 21
607.8425248224
 31
0.0
  0
LINE
  5
35D
330
1F
100
AcDbEntity
  8
0
  6
Continuous
 62
     7
370
    15
100
AcDbLine
 10
734.7691327493
 20
607.6746796988
 30
0.0
 11
735.709302499
 21
608.2174281426
 31
0.0
  0
LINE
  5
35E
330
1F
100
AcDbEntity
  8
0
  6
Continuous
 62
     7
370
    15
100
AcDbLine
 10
734.7691327493
 20
607.6746796988
 30
0.0
 11
728.9708559297
 21
605.6327758116
 31
0.0
  0
LINE
  5
35F
330
1F
100
AcDbEntity
  8
0
  6
Continuous
 62
     7
370
    15
100
AcDbLine
 10
728.9708559297
 20
605.6327758116
 30
0.0
 11
728.3546268576
 21
605.7713675611
 31
0.0
  0
LINE
  5
360
330
1F
100
AcDbEntity
  8
0
  6
Continuous
 62
     7
370
    15
100
AcDbLine
 10
742.2955146515
 20
577.591814634
 30
0.0
 11
751.3063422757
 21
483.3223097829
 31
0.0
  0
LINE
  5
361
330
1F
100
AcDbEntity
  8
0
  6
Continuous
 62
     7
370
    15
100
AcDbLine
 10
751.3063422757
 20
483.3223097829
 30
0.0
 11
750.7056822495
 21
483.6691116491
 31
0.0
  0
LINE
  5
362
330
1F
100
AcDbEntity
  8
0
  6
Continuous
 62
     7
370
    15
100
AcDbLine
 10
742.2955146515
 20
577.591814634
 30
0.0
 11
741.746720537
 21
577.3960426532
 31
0.0
  0
LINE
  5
363
330
1F
100
AcDbEntity
  8
0
  6
Continuous
 62
     7
370
    15
100
AcDbLine
 10
742.2955146515
 20
577.591814634
 30
0.0
 11
744.2754134365
 21
578.7347858738
 31
0.0
  0
LINE
  5
364
330
1F
100
AcDbEntity
  8
0
  6
Continuous
 62
     7
370
    15
100
AcDbLine
 10
753.2862410607
 20
484.4652810226
 30
0.0
 11
744.2754134365
 21
578.7347858738
 31
0.0
  0
LINE
  5
365
330
1F
100
AcDbEntity
  8
0
  6
Continuous
 62
     7
370
    15
100
AcDbLine
 10
751.3063422757
 20
483.3223097829
 30
0.0
 11
753.2862410607
 21
484.4652810226
 31
0.0
  0
LINE
  5
366
330
1F
100
AcDbEntity
  8
0
  6
Continuous
 62
     7
370
    15
100
AcDbLine
 10
728.9708559297
 20
605.6327758116
 30
0.0
 11
732.941923567
 21
590.3476691054
 31
0.0
  0
LINE
  5
367
330
1F
100
AcDbEntity
  8
0
  6
Continuous
 62
     7
370
    15
100
AcDbLine
 10
732.941923567
 20
590.3476691054
 30
0.0
 11
732.4232223024
 21
590.1108617204
 31
0.0
  0
LINE
  5
368
330
1F
100
AcDbEntity
  8
0
  6
Continuous
 62
     7
370
    15
100
AcDbLine
 10
734.921822352
 20
591.4906403452
 30
0.0
 11
731.0568467618
 21
606.3673799166
 31
0.0
  0
LINE
  5
369
330
1F
100
AcDbEntity
  8
0
  6
Continuous
 62
     7
370
    15
100
AcDbLine
 10
732.941923567
 20
590.3476691054
 30
0.0
 11
734.921822352
 21
591.4906403452
 31
0.0
  0
LINE
  5
36A
330
1F
100
AcDbEntity
  8
0
  6
Continuous
 62
     7
370
    15
100
AcDbLine
 10
753.2512676058
 20
485.1386467954
 30
0.0
 11
753.2862410607
 21
484.4652810226
 31
0.0
  0
LINE
  5
36B
330
1F
100
AcDbEntity
  8
0
  6
Continuous
 62
     7
370
    15
100
AcDbLine
 10
744.2923058934
 20
578.8655777995
 30
0.0
 11
744.2754134365
 21
578.7347858738
 31
0.0
  0
LINE
  5
36C
330
1F
100
AcDbEntity
  8
0
  6
Continuous
 62
     7
370
    15
100
AcDbLine
 10
744.2923058934
 20
578.8655777995
 30
0.0
 11
753.2512676058
 21
485.1386467954
 31
0.0
  0
LINE
  5
36D
330
1F
100
AcDbEntity
  8
0
  6
Continuous
 62
     7
370
    15
100
AcDbLine
 10
732.941923567
 20
590.3476691054
 30
0.0
 11
742.2955146515
 21
577.591814634
 31
0.0
  0
LINE
  5
36E
330
1F
100
AcDbEntity
  8
0
  6
Continuous
 62
     7
370
    15
100
AcDbLine
 10
734.9688076588
 20
591.5803968667
 30
0.0
 11
734.921822352
 21
591.4906403452
 31
0.0
  0
LINE
  5
36F
330
1F
100
AcDbEntity
  8
0
  6
Continuous
 62
     7
370
    15
100
AcDbLine
 10
731.1212555757
 20
606.3900567288
 30
0.0
 11
734.9688076588
 21
591.5803968667
 31
0.0
  0
LINE
  5
370
330
1F
100
AcDbEntity
  8
0
  6
Continuous
 62
     7
370
    15
100
AcDbLine
 10
744.2754134365
 20
578.7347858738
 30
0.0
 11
734.921822352
 21
591.4906403452
 31
0.0
  0
LINE
  5
371
330
1F
100
AcDbEntity
  8
0
  6
Continuous
 62
     7
370
    15
100
AcDbLine
 10
734.9688076588
 20
591.5803968667
 30
0.0
 11
744.2923058934
 21
578.8655777995
 31
0.0
  0
LINE
  5
372
330
1F
100
AcDbEntity
  8
0
  6
Continuous
 62
     7
370
    15
100
AcDbLine
 10
713.2895182413
 20
617.6249673812
 30
0.0
 11
714.8370704396
 21
616.7315845133
 31
0.0
  0
LINE
  5
373
330
1F
100
AcDbEntity
  8
0
  6
Continuous
 62
     7
370
    15
100
AcDbLine
 10
714.852378175
 20
619.0086900253
 30
0.0
 11
713.27408828
 21
619.9198173877
 31
0.0
  0
LINE
  5
374
330
1F
100
AcDbEntity
  8
0
  6
Continuous
 62
     7
370
    15
100
AcDbLine
 10
714.4044541131
 20
610.2342779516
 30
0.0
 11
713.8387717564
 21
610.5608394251
 31
0.0
  0
LINE
  5
375
330
1F
100
AcDbEntity
  8
0
  6
Continuous
 62
     7
370
    15
100
AcDbLine
 10
717.62433004
 20
601.6455544676
 30
0.0
 11
714.4044541131
 21
603.5043492747
 31
0.0
  0
LINE
  5
376
330
1F
100
AcDbEntity
  8
0
  6
Continuous
 62
     7
370
    15
100
AcDbLine
 10
714.4044541131
 20
603.5043492747
 30
0.0
 11
714.4044498984
 21
603.5043950548
 31
0.0
  0
LINE
  5
377
330
1F
100
AcDbEntity
  8
0
  6
Continuous
 62
     7
370
    15
100
AcDbLine
 10
729.3938922776
 20
578.7785127747
 30
0.0
 11
722.6194649437
 21
582.6893064309
 31
0.0
  0
LINE
  5
378
330
1F
100
AcDbEntity
  8
0
  6
Continuous
 62
     7
370
    15
100
AcDbLine
 10
722.6194649437
 20
582.6893064309
 30
0.0
 11
722.5367348948
 21
582.7371088186
 31
0.0
  0
LINE
  5
379
330
1F
100
AcDbEntity
  8
0
  6
Continuous
 62
     7
370
    15
100
AcDbLine
 10
683.9509094394
 20
610.7608542099
 30
0.0
 11
683.9678103256
 21
611.2636816155
 31
0.0
  0
LINE
  5
37A
330
1F
100
AcDbEntity
  8
0
  6
Continuous
 62
     7
370
    15
100
AcDbLine
 10
683.9678103256
 20
611.2636816155
 30
0.0
 11
684.4433110705
 21
611.3631388093
 31
0.0
  0
LINE
  5
37B
330
1F
100
AcDbEntity
  8
0
  6
Continuous
 62
     7
370
    15
100
AcDbLine
 10
683.9678103256
 20
611.2636816155
 30
0.0
 11
684.3210262043
 21
611.467588802
 31
0.0
  0
LINE
  5
37C
330
1F
100
AcDbEntity
  8
0
  6
Continuous
 62
     7
370
    15
100
AcDbLine
 10
738.0925297655
 20
533.879297825
 30
0.0
 11
736.7198153389
 21
534.6717489957
 31
0.0
  0
LINE
  5
37D
330
1F
100
AcDbEntity
  8
0
  6
Continuous
 62
     7
370
    15
100
AcDbLine
 10
736.7198153389
 20
534.6717489957
 30
0.0
 11
736.6664489993
 21
534.7026049417
 31
0.0
  0
LINE
  5
37E
330
1F
100
AcDbEntity
  8
0
  6
Continuous
 62
     7
370
    15
100
AcDbLine
 10
674.9919456196
 20
527.3777214416
 30
0.0
 11
674.9569837551
 21
527.3978562825
 31
0.0
  0
LINE
  5
37F
330
1F
100
AcDbEntity
  8
0
  6
Continuous
 62
     7
370
    15
100
AcDbLine
 10
674.9569837551
 20
527.3978562825
 30
0.0
 11
683.9678103256
 21
611.2636816155
 31
0.0
  0
LINE
  5
380
330
1F
100
AcDbEntity
  8
0
  6
Continuous
 62
     7
370
    15
100
AcDbLine
 10
751.3063422757
 20
483.3223097829
 30
0.0
 11
744.5488453309
 21
487.2233297336
 31
0.0
  0
LINE
  5
381
330
1F
100
AcDbEntity
  8
0
  6
Continuous
 62
     7
370
    15
100
AcDbLine
 10
744.5488453309
 20
487.2233297336
 30
0.0
 11
744.4954789913
 21
487.2541856796
 31
0.0
  0
LINE
  5
382
330
1F
100
AcDbEntity
  8
0
  6
Continuous
 62
     7
370
    15
100
AcDbLine
 10
678.8197413674
 20
525.1679337781
 30
0.0
 11
674.9569837551
 21
527.3978562825
 31
0.0
  0
LINE
  5
383
330
1F
100
AcDbEntity
  8
0
  6
Continuous
 62
     7
370
    15
100
AcDbLine
 10
714.1216108274
 20
564.7507595044
 30
0.0
 11
696.8763637488
 21
566.8048994691
 31
0.0
  0
LINE
  5
384
330
1F
100
AcDbEntity
  8
0
  6
Continuous
 62
     7
370
    15
100
AcDbLine
 10
731.3694962987
 20
566.8052157702
 30
0.0
 11
714.1216108274
 21
564.7507595044
 31
0.0
  0
LINE
  5
385
330
1F
100
AcDbEntity
  8
0
  6
Continuous
 62
     7
370
    15
100
AcDbLine
 10
745.567218558
 20
565.5277046195
 30
0.0
 11
748.177377101
 21
567.0345170729
 31
0.0
  0
LINE
  5
386
330
1F
100
AcDbEntity
  8
0
  6
Continuous
 62
     7
370
    15
100
AcDbLine
 10
746.004336168
 20
560.9546834093
 30
0.0
 11
748.177377101
 21
567.0345170729
 31
0.0
  0
LINE
  5
387
330
1F
100
AcDbEntity
  8
0
  6
Continuous
 62
     7
370
    15
100
AcDbLine
 10
738.0477276655
 20
533.9051637425
 30
0.0
 11
737.7507525416
 21
533.7337236526
 31
0.0
  0
LINE
  5
388
330
1F
100
AcDbEntity
  8
0
  6
Continuous
 62
     7
370
    15
100
AcDbLine
 10
737.7507525416
 20
533.7337236526
 30
0.0
 11
745.6317917446
 21
529.1840965622
 31
0.0
  0
LINE
  5
389
330
1F
100
AcDbEntity
  8
0
  6
Continuous
 62
     7
370
    15
100
AcDbLine
 10
714.1216150421
 20
532.9373917101
 30
0.0
 11
745.6317917446
 21
529.1840965622
 31
0.0
  0
LINE
  5
38A
330
1F
100
AcDbEntity
  8
0
  6
Continuous
 62
     7
370
    15
100
AcDbLine
 10
682.6114256955
 20
529.1840989953
 30
0.0
 11
714.1216150421
 21
532.9373917101
 31
0.0
  0
LINE
  5
38B
330
1F
100
AcDbEntity
  8
0
  6
Continuous
 62
     7
370
    15
100
AcDbLine
 10
682.6114256955
 20
529.1840989953
 30
0.0
 11
690.4924648985
 21
533.7337260857
 31
0.0
  0
LINE
  5
38C
330
1F
100
AcDbEntity
  8
0
  6
Continuous
 62
     7
370
    15
100
AcDbLine
 10
690.4924648985
 20
533.7337260857
 30
0.0
 11
690.2096258275
 21
533.8970056059
 31
0.0
  0
LINE
  5
38D
330
1F
100
AcDbEntity
  8
0
  6
Continuous
 62
     7
370
    15
100
AcDbLine
 10
680.0658403391
 20
567.0345146398
 30
0.0
 11
682.2401161748
 21
560.9512430261
 31
0.0
  0
LINE
  5
38E
330
1F
100
AcDbEntity
  8
0
  6
Continuous
 62
     7
370
    15
100
AcDbLine
 10
680.0658403391
 20
567.0345146398
 30
0.0
 11
682.6774761291
 21
565.5268493898
 31
0.0
  0
LINE
  5
38F
330
1F
100
AcDbEntity
  8
0
  6
Continuous
 62
     7
370
    15
100
AcDbLine
 10
714.1216150421
 20
559.4514670567
 30
0.0
 11
732.15999416
 21
562.0143433591
 31
0.0
  0
LINE
  5
390
330
1F
100
AcDbEntity
  8
0
  6
Continuous
 62
     7
370
    15
100
AcDbLine
 10
696.0858574581
 20
562.0139686639
 30
0.0
 11
714.1216150421
 21
559.4514670567
 31
0.0
  0
LINE
  5
391
330
1F
100
AcDbEntity
  8
0
  6
Continuous
 62
     7
370
    15
100
AcDbLine
 10
695.7470810898
 20
548.8440743907
 30
0.0
 11
694.424639424
 21
551.9460008465
 31
0.0
  0
LINE
  5
392
330
1F
100
AcDbEntity
  8
0
  6
Continuous
 62
     7
370
    15
100
AcDbLine
 10
692.7546759189
 20
541.8250866496
 30
0.0
 11
695.7470810898
 21
548.8440743907
 31
0.0
  0
LINE
  5
393
330
1F
100
AcDbEntity
  8
0
  6
Continuous
 62
     7
370
    15
100
AcDbLine
 10
692.4272707703
 20
535.5558567232
 30
0.0
 11
691.7817369945
 21
535.9285154397
 31
0.0
  0
ARC
  5
394
330
1F
100
AcDbEntity
  8
0
  6
Continuous
 62
     7
370
    15
100
AcDbCircle
 10
693.4129255022
 20
537.4573997781
 30
0.0
 40
2.141817275132324
100
AcDbArc
 50
242.600274711
 51
279.1034548468
  0
LINE
  5
395
330
1F
100
AcDbEntity
  8
0
  6
Continuous
 62
     7
370
    15
100
AcDbLine
 10
714.1216108274
 20
538.2366841578
 30
0.0
 11
693.751798705
 21
535.3425602588
 31
0.0
  0
LINE
  5
396
330
1F
100
AcDbEntity
  8
0
  6
Continuous
 62
     7
370
    15
100
AcDbLine
 10
734.491418735
 20
535.3425578257
 30
0.0
 11
714.1216108274
 21
538.2366841578
 31
0.0
  0
ARC
  5
397
330
1F
100
AcDbEntity
  8
0
  6
Continuous
 62
     7
370
    15
100
AcDbCircle
 10
734.8302919746
 20
537.4573949024
 30
0.0
 40
2.141814869084709
100
AcDbArc
 50
260.8965338451
 51
297.3998845395
  0
LINE
  5
398
330
1F
100
AcDbEntity
  8
0
  6
Continuous
 62
     7
370
    15
100
AcDbLine
 10
736.4639418216
 20
535.9299339287
 30
0.0
 11
735.8159508845
 21
535.5558567232
 31
0.0
  0
LINE
  5
399
330
1F
100
AcDbEntity
  8
0
  6
Continuous
 62
     7
370
    15
100
AcDbLine
 10
732.4961447797
 20
548.8440768238
 30
0.0
 11
735.4929290081
 21
541.8147898306
 31
0.0
  0
LINE
  5
39A
330
1F
100
AcDbEntity
  8
0
  6
Continuous
 62
     7
370
    15
100
AcDbLine
 10
733.8205252005
 20
551.9505482839
 30
0.0
 11
732.4961447797
 21
548.8440768238
 31
0.0
  0
LINE
  5
39B
330
1F
100
AcDbEntity
  8
0
  6
Continuous
 62
     7
370
    15
100
AcDbLine
 10
746.1463963356
 20
528.5604046686
 30
0.0
 11
714.1216108274
 21
532.3749916802
 31
0.0
  0
LINE
  5
39C
330
1F
100
AcDbEntity
  8
0
  6
Continuous
 62
     7
370
    15
100
AcDbLine
 10
714.1216150421
 20
532.9373917101
 30
0.0
 11
714.1216108274
 21
532.3749916802
 31
0.0
  0
LINE
  5
39D
330
1F
100
AcDbEntity
  8
0
  6
Continuous
 62
     7
370
    15
100
AcDbLine
 10
745.6317917446
 20
529.1840965622
 30
0.0
 11
746.1463963356
 21
528.5604046686
 31
0.0
  0
LINE
  5
39E
330
1F
100
AcDbEntity
  8
0
  6
Continuous
 62
     7
370
    15
100
AcDbLine
 10
714.1216108274
 20
532.3749916802
 30
0.0
 11
682.0968211045
 21
528.5604071017
 31
0.0
  0
LINE
  5
39F
330
1F
100
AcDbEntity
  8
0
  6
Continuous
 62
     7
370
    15
100
AcDbLine
 10
682.0968211045
 20
528.5604071017
 30
0.0
 11
682.6114256955
 21
529.1840989953
 31
0.0
  0
LINE
  5
3A0
330
1F
100
AcDbEntity
  8
0
  6
Continuous
 62
     7
370
    15
100
AcDbLine
 10
714.1216108274
 20
530.0886776406
 30
0.0
 11
746.1463963356
 21
526.2740906289
 31
0.0
  0
LINE
  5
3A1
330
1F
100
AcDbEntity
  8
0
  6
Continuous
 62
     7
370
    15
100
AcDbLine
 10
714.1216108274
 20
530.0886776406
 30
0.0
 11
714.1216108274
 21
532.3749916802
 31
0.0
  0
LINE
  5
3A2
330
1F
100
AcDbEntity
  8
0
  6
Continuous
 62
     7
370
    15
100
AcDbLine
 10
746.1463963356
 20
526.2740906289
 30
0.0
 11
746.1463963356
 21
528.5604046686
 31
0.0
  0
LINE
  5
3A3
330
1F
100
AcDbEntity
  8
0
  6
Continuous
 62
     7
370
    15
100
AcDbLine
 10
682.0968211045
 20
526.274093062
 30
0.0
 11
714.1216108274
 21
530.0886776406
 31
0.0
  0
LINE
  5
3A4
330
1F
100
AcDbEntity
  8
0
  6
Continuous
 62
     7
370
    15
100
AcDbLine
 10
682.0968211045
 20
526.274093062
 30
0.0
 11
682.0968211045
 21
528.5604071017
 31
0.0
  0
LINE
  5
3A5
330
1F
100
AcDbEntity
  8
0
  6
Continuous
 62
     7
370
    15
100
AcDbLine
 10
714.1216150421
 20
529.9978436971
 30
0.0
 11
714.1216108274
 21
530.0886776406
 31
0.0
  0
LINE
  5
3A6
330
1F
100
AcDbEntity
  8
0
  6
Continuous
 62
     7
370
    15
100
AcDbLine
 10
746.1463963356
 20
526.2740906289
 30
0.0
 11
745.6317917446
 21
526.2445485492
 31
0.0
  0
LINE
  5
3A7
330
1F
100
AcDbEntity
  8
0
  6
Continuous
 62
     7
370
    15
100
AcDbLine
 10
745.6317917446
 20
526.2445485492
 30
0.0
 11
714.1216150421
 21
529.9978436971
 31
0.0
  0
LINE
  5
3A8
330
1F
100
AcDbEntity
  8
0
  6
Continuous
 62
     7
370
    15
100
AcDbLine
 10
682.6114256955
 20
526.2445509823
 30
0.0
 11
682.0968211045
 21
526.274093062
 31
0.0
  0
LINE
  5
3A9
330
1F
100
AcDbEntity
  8
0
  6
Continuous
 62
     7
370
    15
100
AcDbLine
 10
714.1216150421
 20
529.9978436971
 30
0.0
 11
682.6114256955
 21
526.2445509823
 31
0.0
  0
LINE
  5
3AA
330
1F
100
AcDbEntity
  8
0
  6
Continuous
 62
     7
370
    15
100
AcDbLine
 10
735.8409439656
 20
539.7056358113
 30
0.0
 11
732.084205697
 21
548.517457404
 31
0.0
  0
LINE
  5
3AB
330
1F
100
AcDbEntity
  8
0
  6
Continuous
 62
     7
370
    15
100
AcDbLine
 10
732.4961447797
 20
548.8440768238
 30
0.0
 11
732.084205697
 21
548.517457404
 31
0.0
  0
LINE
  5
3AC
330
1F
100
AcDbEntity
  8
0
  6
Continuous
 62
     7
370
    15
100
AcDbLine
 10
696.159011743
 20
548.517454971
 30
0.0
 11
692.4066651761
 21
539.7159301972
 31
0.0
  0
LINE
  5
3AD
330
1F
100
AcDbEntity
  8
0
  6
Continuous
 62
     7
370
    15
100
AcDbLine
 10
696.159011743
 20
548.517454971
 30
0.0
 11
695.7470810898
 21
548.8440743907
 31
0.0
  0
LINE
  5
3AE
330
1F
100
AcDbEntity
  8
0
  6
Continuous
 62
     7
370
    15
100
AcDbLine
 10
732.084205697
 20
546.2311433644
 30
0.0
 11
736.456380677
 21
535.9757573829
 31
0.0
  0
LINE
  5
3AF
330
1F
100
AcDbEntity
  8
0
  6
Continuous
 62
     7
370
    15
100
AcDbLine
 10
732.084205697
 20
546.2311433644
 30
0.0
 11
732.084205697
 21
548.517457404
 31
0.0
  0
LINE
  5
3B0
330
1F
100
AcDbEntity
  8
0
  6
Continuous
 62
     7
370
    15
100
AcDbLine
 10
691.7912326794
 20
535.9860590681
 30
0.0
 11
696.159011743
 21
546.2311409313
 31
0.0
  0
LINE
  5
3B1
330
1F
100
AcDbEntity
  8
0
  6
Continuous
 62
     7
370
    15
100
AcDbLine
 10
696.159011743
 20
546.2311409313
 30
0.0
 11
696.159011743
 21
548.517454971
 31
0.0
  0
LINE
  5
3B2
330
1F
100
AcDbEntity
  8
0
  6
Continuous
 62
     7
370
    15
100
AcDbLine
 10
732.084205697
 20
548.517457404
 30
0.0
 11
733.7444374948
 21
552.4116987778
 31
0.0
  0
LINE
  5
3B3
330
1F
100
AcDbEntity
  8
0
  6
Continuous
 62
     7
370
    15
100
AcDbLine
 10
694.5007271296
 20
552.4071464743
 30
0.0
 11
696.159011743
 21
548.517454971
 31
0.0
  0
LINE
  5
3B4
330
1F
100
AcDbEntity
  8
0
  6
Continuous
 62
     7
370
    15
100
AcDbLine
 10
748.6919816919
 20
567.0049749932
 30
0.0
 11
746.1151486621
 21
559.795391478
 31
0.0
  0
LINE
  5
3B5
330
1F
100
AcDbEntity
  8
0
  6
Continuous
 62
     7
370
    15
100
AcDbLine
 10
748.177377101
 20
567.0345170729
 30
0.0
 11
748.6919816919
 21
567.0049749932
 31
0.0
  0
LINE
  5
3B6
330
1F
100
AcDbEntity
  8
0
  6
Continuous
 62
     7
370
    15
100
AcDbLine
 10
682.1293015733
 20
559.791947445
 30
0.0
 11
679.5512336408
 21
567.0049737766
 31
0.0
  0
LINE
  5
3B7
330
1F
100
AcDbEntity
  8
0
  6
Continuous
 62
     7
370
    15
100
AcDbLine
 10
679.5512336408
 20
567.0049737766
 30
0.0
 11
680.0658403391
 21
567.0345146398
 31
0.0
  0
LINE
  5
3B8
330
1F
100
AcDbEntity
  8
0
  6
Continuous
 62
     7
370
    15
100
AcDbLine
 10
746.287575634
 20
557.9914975203
 30
0.0
 11
748.6919816919
 21
564.7186609535
 31
0.0
  0
LINE
  5
3B9
330
1F
100
AcDbEntity
  8
0
  6
Continuous
 62
     7
370
    15
100
AcDbLine
 10
748.6919816919
 20
564.7186609535
 30
0.0
 11
748.6919816919
 21
567.0049749932
 31
0.0
  0
LINE
  5
3BA
330
1F
100
AcDbEntity
  8
0
  6
Continuous
 62
     7
370
    15
100
AcDbLine
 10
679.5512336408
 20
564.718659737
 30
0.0
 11
681.9568809234
 21
557.9880595701
 31
0.0
  0
LINE
  5
3BB
330
1F
100
AcDbEntity
  8
0
  6
Continuous
 62
     7
370
    15
100
AcDbLine
 10
679.5512336408
 20
564.718659737
 30
0.0
 11
679.5512336408
 21
567.0049737766
 31
0.0
  0
LINE
  5
3BC
330
1F
100
AcDbEntity
  8
0
  6
Continuous
 62
     7
370
    15
100
AcDbLine
 10
732.2509849913
 20
561.4628484197
 30
0.0
 11
714.1216108274
 21
558.8870426995
 31
0.0
  0
LINE
  5
3BD
330
1F
100
AcDbEntity
  8
0
  6
Continuous
 62
     7
370
    15
100
AcDbLine
 10
714.1216150421
 20
559.4514670567
 30
0.0
 11
714.1216108274
 21
558.8870426995
 31
0.0
  0
LINE
  5
3BE
330
1F
100
AcDbEntity
  8
0
  6
Continuous
 62
     7
370
    15
100
AcDbLine
 10
714.1216108274
 20
558.8870426995
 30
0.0
 11
695.9948581975
 21
561.4624737245
 31
0.0
  0
LINE
  5
3BF
330
1F
100
AcDbEntity
  8
0
  6
Continuous
 62
     7
370
    15
100
AcDbLine
 10
714.1216108274
 20
556.6007286598
 30
0.0
 11
732.619592899
 21
559.2289041182
 31
0.0
  0
LINE
  5
3C0
330
1F
100
AcDbEntity
  8
0
  6
Continuous
 62
     7
370
    15
100
AcDbLine
 10
714.1216108274
 20
556.6007286598
 30
0.0
 11
714.1216108274
 21
558.8870426995
 31
0.0
  0
LINE
  5
3C1
330
1F
100
AcDbEntity
  8
0
  6
Continuous
 62
     7
370
    15
100
AcDbLine
 10
695.6262566118
 20
559.2285306396
 30
0.0
 11
714.1216108274
 21
556.6007286598
 31
0.0
  0
LINE
  5
3C2
330
1F
100
AcDbEntity
  8
0
  6
Continuous
 62
     7
370
    15
100
AcDbLine
 10
714.1216150421
 20
556.5119190437
 30
0.0
 11
714.1216108274
 21
556.6007286598
 31
0.0
  0
LINE
  5
3C3
330
1F
100
AcDbEntity
  8
0
  6
Continuous
 62
     7
370
    15
100
AcDbLine
 10
732.6339101834
 20
559.1421285618
 30
0.0
 11
714.1216150421
 21
556.5119190437
 31
0.0
  0
LINE
  5
3C4
330
1F
100
AcDbEntity
  8
0
  6
Continuous
 62
     7
370
    15
100
AcDbLine
 10
714.1216150421
 20
556.5119190437
 30
0.0
 11
695.6119456494
 21
559.1417562997
 31
0.0
  0
LINE
  5
3C5
330
1F
100
AcDbEntity
  8
0
  6
Continuous
 62
     7
370
    15
100
AcDbLine
 10
700.0040982355
 20
608.270072306
 30
0.0
 11
700.0293104803
 21
608.5325111593
 31
0.0
  0
LINE
  5
3C6
330
1F
100
AcDbEntity
  8
0
  6
Continuous
 62
     7
370
    15
100
AcDbLine
 10
700.0040982355
 20
608.270072306
 30
0.0
 11
701.2505364893
 21
608.5777321085
 31
0.0
  0
LINE
  5
3C7
330
1F
100
AcDbEntity
  8
0
  6
Continuous
 62
     7
370
    15
100
AcDbLine
 10
702.9360732549
 20
608.6401218698
 30
0.0
 11
700.2448157461
 21
607.9758564363
 31
0.0
  0
LINE
  5
3C8
330
1F
100
AcDbEntity
  8
0
  6
Continuous
 62
     7
370
    15
100
AcDbLine
 10
700.2448157461
 20
607.9758564363
 30
0.0
 11
700.0040982355
 21
608.270072306
 31
0.0
  0
ENDSEC
  0
SECTION
  2
OBJECTS
  0
DICTIONARY
  5
C
330
0
100
AcDbDictionary
281
     1
  3
ACAD_GROUP
350
D
  3
ACAD_LAYOUT
350
1A
  3
ACAD_MLINESTYLE
350
17
  3
ACAD_PLOTSETTINGS
350
19
  3
ACAD_PLOTSTYLENAME
350
E
  3
ACAD_SCALELIST
350
47
  0
DICTIONARY
  5
D
102
{ACAD_REACTORS
330
C
102
}
330
C
100
AcDbDictionary
281
     1
  0
DICTIONARY
  5
1A
102
{ACAD_REACTORS
330
C
102
}
330
C
100
AcDbDictionary
281
     1
  3
Layout1
350
1E
  3
Layout2
350
26
  3
Model
350
22
  0
DICTIONARY
  5
17
102
{ACAD_REACTORS
330
C
102
}
330
C
100
AcDbDictionary
281
     1
  3
Standard
350
18
  0
DICTIONARY
  5
19
102
{ACAD_REACTORS
330
C
102
}
330
C
100
AcDbDictionary
281
     1
  0
ACDBDICTIONARYWDFLT
  5
E
102
{ACAD_REACTORS
330
C
102
}
330
C
100
AcDbDictionary
281
     1
  3
Normal
350
F
100
AcDbDictionaryWithDefault
340
F
  0
DICTIONARY
  5
47
102
{ACAD_REACTORS
330
C
102
}
330
C
100
AcDbDictionary
281
     1
  3
A0
350
48
  3
A1
350
49
  3
A2
350
4A
  3
A3
350
4B
  3
A4
350
4C
  3
A5
350
4D
  3
A6
350
4E
  3
A7
350
4F
  3
A8
350
50
  3
A9
350
51
  3
B0
350
52
  3
B1
350
53
  3
B2
350
54
  3
B3
350
55
  3
B4
350
56
  3
B5
350
57
  3
B6
350
58
  3
B7
350
59
  3
B8
350
5A
  3
B9
350
5B
  3
C0
350
5C
  3
C1
350
5D
  3
C2
350
5E
  3
C3
350
5F
  3
C4
350
60
  3
C5
350
61
  3
C6
350
62
  3
C7
350
63
  3
C8
350
64
  3
C9
350
65
  3
D0
350
66
  3
D1
350
67
  3
D2
350
68
  0
LAYOUT
  5
1E
102
{ACAD_REACTORS
330
1A
102
}
330
1A
100
AcDbPlotSettings
  1

  2
none_device
  4

  6

 40
0.0
 41
0.0
 42
0.0
 43
0.0
 44
0.0
 45
0.0
 46
0.0
 47
0.0
 48
0.0
 49
0.0
140
0.0
141
0.0
142
1.0
143
1.0
 70
   688
 72
     1
 73
     0
 74
     5
  7

 75
    16
147
1.0
148
0.0
149
0.0
100
AcDbLayout
  1
Layout1
 70
     1
 71
     1
 10
0.0
 20
0.0
 11
420.0
 21
297.0
 12
0.0
 22
0.0
 32
0.0
 14
1.0000000000E+20
 24
1.0000000000E+20
 34
1.0000000000E+20
 15
-1.0000000000E+20
 25
-1.0000000000E+20
 35
-1.0000000000E+20
146
0.0
 13
0.0
 23
0.0
 33
0.0
 16
1.0
 26
0.0
 36
0.0
 17
0.0
 27
1.0
 37
0.0
 76
     0
330
1B
  0
LAYOUT
  5
26
102
{ACAD_REACTORS
330
1A
102
}
330
1A
100
AcDbPlotSettings
  1

  2
none_device
  4

  6

 40
0.0
 41
0.0
 42
0.0
 43
0.0
 44
0.0
 45
0.0
 46
0.0
 47
0.0
 48
0.0
 49
0.0
140
0.0
141
0.0
142
1.0
143
1.0
 70
   688
 72
     1
 73
     0
 74
     5
  7

 75
    16
147
1.0
148
0.0
149
0.0
100
AcDbLayout
  1
Layout2
 70
     1
 71
     2
 10
0.0
 20
0.0
 11
0.0
 21
0.0
 12
0.0
 22
0.0
 32
0.0
 14
0.0
 24
0.0
 34
0.0
 15
0.0
 25
0.0
 35
0.0
146
0.0
 13
0.0
 23
0.0
 33
0.0
 16
1.0
 26
0.0
 36
0.0
 17
0.0
 27
1.0
 37
0.0
 76
     0
330
23
  0
LAYOUT
  5
22
102
{ACAD_REACTORS
330
1A
102
}
330
1A
100
AcDbPlotSettings
  1

  2
none_device
  4
Letter_(8.50_x_11.00_Inches)
  6

 40
6.35
 41
6.35
 42
6.35000508
 43
6.35000508
 44
215.9
 45
279.4
 46
0.0
 47
0.0
 48
0.0
 49
0.0
140
0.0
141
0.0
142
1.0
143
1.0
 70
  1712
 72
     1
 73
     0
 74
     0
  7

 75
     0
147
1.0
148
0.0
149
0.0
100
AcDbLayout
  1
Model
 70
     1
 71
     0
 10
0.0
 20
0.0
 11
1189.0
 21
841.0
 12
0.0
 22
0.0
 32
0.0
 14
0.0
 24
0.0
 34
0.0
 15
1189.0
 25
841.0
 35
0.0
146
0.0
 13
0.0
 23
0.0
 33
0.0
 16
1.0
 26
0.0
 36
0.0
 17
0.0
 27
1.0
 37
0.0
 76
     0
330
1F
331
29
  0
MLINESTYLE
  5
18
102
{ACAD_REACTORS
330
17
102
}
330
17
100
AcDbMlineStyle
  2
Standard
 70
     0
  3

 62
   256
 51
90.0
 52
90.0
 71
     2
 49
0.5
 62
   256
  6
BYLAYER
 49
-0.5
 62
   256
  6
BYLAYER
  0
ACDBPLACEHOLDER
  5
F
102
{ACAD_REACTORS
330
E
102
}
330
E
  0
SCALE
  5
48
102
{ACAD_REACTORS
330
47
102
}
330
47
100
AcDbScale
 70
     0
300
1:1
140
1.0
141
1.0
290
     1
  0
SCALE
  5
49
102
{ACAD_REACTORS
330
47
102
}
330
47
100
AcDbScale
 70
     0
300
1:2
140
1.0
141
2.0
290
     0
  0
SCALE
  5
4A
102
{ACAD_REACTORS
330
47
102
}
330
47
100
AcDbScale
 70
     0
300
1:4
140
1.0
141
4.0
290
     0
  0
SCALE
  5
4B
102
{ACAD_REACTORS
330
47
102
}
330
47
100
AcDbScale
 70
     0
300
1:5
140
1.0
141
5.0
290
     0
  0
SCALE
  5
4C
102
{ACAD_REACTORS
330
47
102
}
330
47
100
AcDbScale
 70
     0
300
1:8
140
1.0
141
8.0
290
     0
  0
SCALE
  5
4D
102
{ACAD_REACTORS
330
47
102
}
330
47
100
AcDbScale
 70
     0
300
1:10
140
1.0
141
10.0
290
     0
  0
SCALE
  5
4E
102
{ACAD_REACTORS
330
47
102
}
330
47
100
AcDbScale
 70
     0
300
1:16
140
1.0
141
16.0
290
     0
  0
SCALE
  5
4F
102
{ACAD_REACTORS
330
47
102
}
330
47
100
AcDbScale
 70
     0
300
1:20
140
1.0
141
20.0
290
     0
  0
SCALE
  5
50
102
{ACAD_REACTORS
330
47
102
}
330
47
100
AcDbScale
 70
     0
300
1:30
140
1.0
141
30.0
290
     0
  0
SCALE
  5
51
102
{ACAD_REACTORS
330
47
102
}
330
47
100
AcDbScale
 70
     0
300
1:40
140
1.0
141
40.0
290
     0
  0
SCALE
  5
52
102
{ACAD_REACTORS
330
47
102
}
330
47
100
AcDbScale
 70
     0
300
1:50
140
1.0
141
50.0
290
     0
  0
SCALE
  5
53
102
{ACAD_REACTORS
330
47
102
}
330
47
100
AcDbScale
 70
     0
300
1:100
140
1.0
141
100.0
290
     0
  0
SCALE
  5
54
102
{ACAD_REACTORS
330
47
102
}
330
47
100
AcDbScale
 70
     0
300
2:1
140
2.0
141
1.0
290
     0
  0
SCALE
  5
55
102
{ACAD_REACTORS
330
47
102
}
330
47
100
AcDbScale
 70
     0
300
4:1
140
4.0
141
1.0
290
     0
  0
SCALE
  5
56
102
{ACAD_REACTORS
330
47
102
}
330
47
100
AcDbScale
 70
     0
300
8:1
140
8.0
141
1.0
290
     0
  0
SCALE
  5
57
102
{ACAD_REACTORS
330
47
102
}
330
47
100
AcDbScale
 70
     0
300
10:1
140
10.0
141
1.0
290
     0
  0
SCALE
  5
58
102
{ACAD_REACTORS
330
47
102
}
330
47
100
AcDbScale
 70
     0
300
100:1
140
100.0
141
1.0
290
     0
  0
SCALE
  5
59
102
{ACAD_REACTORS
330
47
102
}
330
47
100
AcDbScale
 70
     0
300
1/128" = 1'-0"
140
0.0078125
141
12.0
290
     0
  0
SCALE
  5
5A
102
{ACAD_REACTORS
330
47
102
}
330
47
100
AcDbScale
 70
     0
300
1/64" = 1'-0"
140
0.015625
141
12.0
290
     0
  0
SCALE
  5
5B
102
{ACAD_REACTORS
330
47
102
}
330
47
100
AcDbScale
 70
     0
300
1/32" = 1'-0"
140
0.03125
141
12.0
290
     0
  0
SCALE
  5
5C
102
{ACAD_REACTORS
330
47
102
}
330
47
100
AcDbScale
 70
     0
300
1/16" = 1'-0"
140
0.0625
141
12.0
290
     0
  0
SCALE
  5
5D
102
{ACAD_REACTORS
330
47
102
}
330
47
100
AcDbScale
 70
     0
300
3/32" = 1'-0"
140
0.09375
141
12.0
290
     0
  0
SCALE
  5
5E
102
{ACAD_REACTORS
330
47
102
}
330
47
100
AcDbScale
 70
     0
300
1/8" = 1'-0"
140
0.125
141
12.0
290
     0
  0
SCALE
  5
5F
102
{ACAD_REACTORS
330
47
102
}
330
47
100
AcDbScale
 70
     0
300
3/16" = 1'-0"
140
0.1875
141
12.0
290
     0
  0
SCALE
  5
60
102
{ACAD_REACTORS
330
47
102
}
330
47
100
AcDbScale
 70
     0
300
1/4" = 1'-0"
140
0.25
141
12.0
290
     0
  0
SCALE
  5
61
102
{ACAD_REACTORS
330
47
102
}
330
47
100
AcDbScale
 70
     0
300
3/8" = 1'-0"
140
0.375
141
12.0
290
     0
  0
SCALE
  5
62
102
{ACAD_REACTORS
330
47
102
}
330
47
100
AcDbScale
 70
     0
300
1/2" = 1'-0"
140
0.5
141
12.0
290
     0
  0
SCALE
  5
63
102
{ACAD_REACTORS
330
47
102
}
330
47
100
AcDbScale
 70
     0
300
3/4" = 1'-0"
140
0.75
141
12.0
290
     0
  0
SCALE
  5
64
102
{ACAD_REACTORS
330
47
102
}
330
47
100
AcDbScale
 70
     0
300
1" = 1'-0"
140
1.0
141
12.0
290
     0
  0
SCALE
  5
65
102
{ACAD_REACTORS
330
47
102
}
330
47
100
AcDbScale
 70
     0
300
1-1/2" = 1'-0"
140
1.5
141
12.0
290
     0
  0
SCALE
  5
66
102
{ACAD_REACTORS
330
47
102
}
330
47
100
AcDbScale
 70
     0
300
3" = 1'-0"
140
3.0
141
12.0
290
     0
  0
SCALE
  5
67
102
{ACAD_REACTORS
330
47
102
}
330
47
100
AcDbScale
 70
     0
300
6" = 1'-0"
140
6.0
141
12.0
290
     0
  0
SCALE
  5
68
102
{ACAD_REACTORS
330
47
102
}
330
47
100
AcDbScale
 70
     0
300
1'-0" = 1'-0"
140
12.0
141
12.0
290
     0
  0
ENDSEC
  0
EOF
