  0
SECTION
  2
HEADER
  9
$ACADVER
  1
AC1015
  9
$ACADMAINTVER
 70
     6
  9
$DWGCODEPAGE
  3
ANSI_1252
  9
$INSBASE
 10
0.0
 20
0.0
 30
0.0
  9
$EXTMIN
 10
0.0
 20
0.0
 30
0.0
  9
$EXTMAX
 10
5000.0
 20
3000.0
 30
0.0
  9
$LIMMIN
 10
0.0
 20
0.0
  9
$LIMMAX
 10
5000.0
 20
3000.0
  9
$ORTHOMODE
 70
     0
  9
$REGENMODE
 70
     1
  9
$FILLMODE
 70
     1
  9
$QTEXTMODE
 70
     0
  9
$MIRRTEXT
 70
     1
  9
$LTSCALE
 40
1.0
  9
$ATTMODE
 70
     1
  9
$TEXTSIZE
 40
3.5
  9
$TRACEWID
 40
1.0
  9
$TEXTSTYLE
  7
Standard
  9
$CLAYER
  8
0
  9
$CELTYPE
  6
ByLayer
  9
$CECOLOR
 62
   256
  9
$CELTSCALE
 40
1.0
  9
$DISPSILH
 70
     0
  9
$DIMSCALE
 40
1.0
  9
$DIMASZ
 40
3.302
  9
$DIMEXO
 40
1.0
  9
$DIMDLI
 40
3.75
  9
$DIMRND
 40
0.0
  9
$DIMDLE
 40
0.0
  9
$DIMEXE
 40
1.0
  9
$DIMTP
 40
0.0
  9
$DIMTM
 40
0.0
  9
$DIMTXT
 40
3.5
  9
$DIMCEN
 40
2.5
  9
$DIMTSZ
 40
0.0
  9
$DIMTOL
 70
     0
  9
$DIMLIM
 70
     0
  9
$DIMTIH
 70
     1
  9
$DIMTOH
 70
     1
  9
$DIMSE1
 70
     0
  9
$DIMSE2
 70
     0
  9
$DIMTAD
 70
     1
  9
$DIMZIN
 70
     0
  9
$DIMBLK
  1

  9
$DIMASO
 70
     1
  9
$DIMSHO
 70
     1
  9
$DIMPOST
  1

  9
$DIMAPOST
  1

  9
$DIMALT
 70
     0
  9
$DIMALTD
 70
     3
  9
$DIMALTF
 40
0.0393700787
  9
$DIMLFAC
 40
1.0
  9
$DIMTOFL
 70
     1
  9
$DIMTVP
 40
0.0
  9
$DIMTIX
 70
     0
  9
$DIMSOXD
 70
     0
  9
$DIMSAH
 70
     0
  9
$DIMBLK1
  1

  9
$DIMBLK2
  1

  9
$DIMSTYLE
  2
ISO-25
  9
$DIMCLRD
 70
     0
  9
$DIMCLRE
 70
     0
  9
$DIMCLRT
 70
     0
  9
$DIMTFAC
 40
1.0
  9
$DIMGAP
 40
1.524
  9
$DIMJUST
 70
     0
  9
$DIMSD1
 70
     0
  9
$DIMSD2
 70
     0
  9
$DIMTOLJ
 70
     0
  9
$DIMTZIN
 70
     0
  9
$DIMALTZ
 70
     0
  9
$DIMALTTZ
 70
     0
  9
$DIMUPT
 70
     0
  9
$DIMDEC
 70
     2
  9
$DIMTDEC
 70
     2
  9
$DIMALTU
 70
     2
  9
$DIMALTTD
 70
     3
  9
$DIMTXSTY
  7
Standard
  9
$DIMAUNIT
 70
     0
  9
$DIMADEC
 70
     2
  9
$DIMALTRND
 40
0.0
  9
$DIMAZIN
 70
     0
  9
$DIMDSEP
 70
    44
  9
$DIMATFIT
 70
     3
  9
$DIMFRAC
 70
     0
  9
$DIMLDRBLK
  1

  9
$DIMLUNIT
 70
     2
  9
$DIMLWD
 70
    -2
  9
$DIMLWE
 70
    -2
  9
$DIMTMOVE
 70
     0
  9
$LUNITS
 70
     2
  9
$LUPREC
 70
     2
  9
$SKETCHINC
 40
1.0
  9
$FILLETRAD
 40
10.0
  9
$AUNITS
 70
     0
  9
$AUPREC
 70
     2
  9
$MENU
  1
.
  9
$ELEVATION
 40
0.0
  9
$PELEVATION
 40
0.0
  9
$THICKNESS
 40
0.0
  9
$LIMCHECK
 70
     0
  9
$CHAMFERA
 40
0.0
  9
$CHAMFERB
 40
0.0
  9
$CHAMFERC
 40
0.0
  9
$CHAMFERD
 40
0.0
  9
$SKPOLY
 70
     0
  9
$TDCREATE
 40
2458431.409253206
  9
$TDUCREATE
 40
2458431.409253206
  9
$TDUPDATE
 40
2458431.409253507
  9
$TDUUPDATE
 40
2458431.409253507
  9
$TDINDWG
 40
0.0000000116
  9
$TDUSRTIMER
 40
0.0000000116
  9
$USRTIMER
 70
     1
  9
$ANGBASE
 50
0.0
  9
$ANGDIR
 70
     0
  9
$PDMODE
 70
     0
  9
$PDSIZE
 40
-1.0
  9
$PLINEWID
 40
0.0
  9
$SPLFRAME
 70
     0
  9
$SPLINETYPE
 70
     6
  9
$SPLINESEGS
 70
     8
  9
$HANDSEED
  5
1C9
  9
$SURFTAB1
 70
     6
  9
$SURFTAB2
 70
     6
  9
$SURFTYPE
 70
     6
  9
$SURFU
 70
     6
  9
$SURFV
 70
     6
  9
$UCSBASE
  2

  9
$UCSNAME
  2

  9
$UCSORG
 10
0.0
 20
0.0
 30
0.0
  9
$UCSXDIR
 10
1.0
 20
0.0
 30
0.0
  9
$UCSYDIR
 10
0.0
 20
1.0
 30
0.0
  9
$UCSORTHOREF
  2

  9
$UCSORTHOVIEW
 70
     0
  9
$UCSORGTOP
 10
0.0
 20
0.0
 30
0.0
  9
$UCSORGBOTTOM
 10
0.0
 20
0.0
 30
0.0
  9
$UCSORGLEFT
 10
0.0
 20
0.0
 30
0.0
  9
$UCSORGRIGHT
 10
0.0
 20
0.0
 30
0.0
  9
$UCSORGFRONT
 10
0.0
 20
0.0
 30
0.0
  9
$UCSORGBACK
 10
0.0
 20
0.0
 30
0.0
  9
$PUCSBASE
  2

  9
$PUCSNAME
  2

  9
$PUCSORG
 10
0.0
 20
0.0
 30
0.0
  9
$PUCSXDIR
 10
1.0
 20
0.0
 30
0.0
  9
$PUCSYDIR
 10
0.0
 20
1.0
 30
0.0
  9
$PUCSORTHOREF
  2

  9
$PUCSORTHOVIEW
 70
     0
  9
$PUCSORGTOP
 10
0.0
 20
0.0
 30
0.0
  9
$PUCSORGBOTTOM
 10
0.0
 20
0.0
 30
0.0
  9
$PUCSORGLEFT
 10
0.0
 20
0.0
 30
0.0
  9
$PUCSORGRIGHT
 10
0.0
 20
0.0
 30
0.0
  9
$PUCSORGFRONT
 10
0.0
 20
0.0
 30
0.0
  9
$PUCSORGBACK
 10
0.0
 20
0.0
 30
0.0
  9
$USERI1
 70
     0
  9
$USERI2
 70
     0
  9
$USERI3
 70
     0
  9
$USERI4
 70
     0
  9
$USERI5
 70
     0
  9
$USERR1
 40
0.0
  9
$USERR2
 40
0.0
  9
$USERR3
 40
0.0
  9
$USERR4
 40
0.0
  9
$USERR5
 40
0.0
  9
$WORLDVIEW
 70
     1
  9
$SHADEDGE
 70
     3
  9
$SHADEDIF
 70
    70
  9
$TILEMODE
 70
     1
  9
$MAXACTVP
 70
    64
  9
$PINSBASE
 10
0.0
 20
0.0
 30
0.0
  9
$PLIMCHECK
 70
     0
  9
$PEXTMIN
 10
1.0000000000E+20
 20
1.0000000000E+20
 30
1.0000000000E+20
  9
$PEXTMAX
 10
-1.0000000000E+20
 20
-1.0000000000E+20
 30
-1.0000000000E+20
  9
$PLIMMIN
 10
0.0
 20
0.0
  9
$PLIMMAX
 10
420.0
 20
297.0
  9
$UNITMODE
 70
     0
  9
$VISRETAIN
 70
     1
  9
$PLINEGEN
 70
     0
  9
$PSLTSCALE
 70
     1
  9
$TREEDEPTH
 70
  3020
  9
$CMLSTYLE
  2
Standard
  9
$CMLJUST
 70
     0
  9
$CMLSCALE
 40
20.0
  9
$PROXYGRAPHICS
 70
     1
  9
$MEASUREMENT
 70
     1
  9
$CELWEIGHT
370
    -1
  9
$ENDCAPS
280
     0
  9
$JOINSTYLE
280
     0
  9
$LWDISPLAY
290
     1
  9
$INSUNITS
 70
     4
  9
$HYPERLINKBASE
  1

  9
$STYLESHEET
  1

  9
$XEDIT
290
     1
  9
$CEPSNTYPE
380
     0
  9
$PSTYLEMODE
290
     1
  9
$FINGERPRINTGUID
  2
{5DE4E780-D9C7-46FE-9120-3155880A1DDD}
  9
$VERSIONGUID
  2
{FAEB1C32-E019-11D5-929B-00C0DF256EC4}
  9
$EXTNAMES
290
     1
  9
$PSVPSCALE
 40
0.0
  9
$OLESTARTUP
290
     0
  0
ENDSEC
  0
SECTION
  2
CLASSES
  0
CLASS
  1
ACDBDICTIONARYWDFLT
  2
AcDbDictionaryWithDefault
  3
ObjectDBX Classes
 90
        0
280
     0
281
     0
  0
CLASS
  1
VISUALSTYLE
  2
AcDbVisualStyle
  3
ObjectDBX Classes
 90
     4095
280
     0
281
     0
  0
CLASS
  1
MATERIAL
  2
AcDbMaterial
  3
ObjectDBX Classes
 90
     1153
280
     0
281
     0
  0
CLASS
  1
SCALE
  2
AcDbScale
  3
ObjectDBX Classes
 90
     1153
280
     0
281
     0
  0
CLASS
  1
TABLESTYLE
  2
AcDbTableStyle
  3
ObjectDBX Classes
 90
     4095
280
     0
281
     0
  0
CLASS
  1
MLEADERSTYLE
  2
AcDbMLeaderStyle
  3
ACDB_MLEADERSTYLE_CLASS
 90
     4095
280
     0
281
     0
  0
CLASS
  1
SUN
  2
AcDbSun
  3
SCENEOE
 90
     1153
280
     0
281
     0
  0
CLASS
  1
ACDBPLACEHOLDER
  2
AcDbPlaceHolder
  3
ObjectDBX Classes
 90
        0
280
     0
281
     0
  0
CLASS
  1
LAYOUT
  2
AcDbLayout
  3
ObjectDBX Classes
 90
        0
280
     0
281
     0
  0
ENDSEC
  0
SECTION
  2
TABLES
  0
TABLE
  2
VPORT
  5
8
330
0
100
AcDbSymbolTable
 70
     1
  0
VPORT
  5
29
330
8
100
AcDbSymbolTableRecord
100
AcDbViewportTableRecord
  2
*Active
 70
     0
 10
0.0
 20
0.0
 11
1.0
 21
1.0
 12
2500.0
 22
1500.0
 13
0.0
 23
0.0
 14
10.0
 24
10.0
 15
10.0
 25
10.0
 16
0.0
 26
0.0
 36
1.0
 17
0.0
 27
0.0
 37
0.0
 40
3000.0
 41
1.6666666667
 42
50.0
 43
0.0
 44
0.0
 50
0.0
 51
0.0
 71
     0
 72
  2000
 73
     1
 74
     3
 75
     0
 76
     0
 77
     0
 78
     0
281
     0
 65
     1
110
0.0
120
0.0
130
0.0
111
1.0
121
0.0
131
0.0
112
0.0
122
1.0
132
0.0
 79
     0
146
0.0
  0
ENDTAB
  0
TABLE
  2
LTYPE
  5
5
330
0
100
AcDbSymbolTable
 70
     6
  0
LTYPE
  5
14
330
5
100
AcDbSymbolTableRecord
100
AcDbLinetypeTableRecord
  2
ByBlock
 70
     0
  3

 72
    65
 73
     0
 40
0.0
  0
LTYPE
  5
15
330
5
100
AcDbSymbolTableRecord
100
AcDbLinetypeTableRecord
  2
ByLayer
 70
     0
  3

 72
    65
 73
     0
 40
0.0
  0
LTYPE
  5
16
330
5
100
AcDbSymbolTableRecord
100
AcDbLinetypeTableRecord
  2
Continuous
 70
     0
  3
Solid line
 72
    65
 73
     0
 40
0.0
  0
LTYPE
  5
6E
330
5
100
AcDbSymbolTableRecord
100
AcDbLinetypeTableRecord
  2
HIDDEN
 70
     0
  3
Hidden __ __ __ __ __ __ __ __ __ __ __ __ __ __
 72
    65
 73
     2
 40
1.905
 49
1.27
 74
     0
 49
-0.635
 74
     0
  0
LTYPE
  5
6F
330
5
100
AcDbSymbolTableRecord
100
AcDbLinetypeTableRecord
  2
PHANTOM
 70
     0
  3
Phantom ______  __  __  ______  __  __  ______
 72
    65
 73
     6
 40
12.7
 49
6.35
 74
     0
 49
-1.27
 74
     0
 49
1.27
 74
     0
 49
-1.27
 74
     0
 49
1.27
 74
     0
 49
-1.27
 74
     0
  0
LTYPE
  5
70
330
5
100
AcDbSymbolTableRecord
100
AcDbLinetypeTableRecord
  2
CENTER
 70
     0
  3
Center ____ _ ____ _ ____ _ ____ _ ____ _ ____
 72
    65
 73
     4
 40
10.16
 49
6.35
 74
     0
 49
-1.27
 74
     0
 49
1.27
 74
     0
 49
-1.27
 74
     0
  0
LTYPE
  5
71
330
5
100
AcDbSymbolTableRecord
100
AcDbLinetypeTableRecord
  2
CENTERX2
 70
     0
  3
Center (2x) ________  __  ________  __  _____
 72
    65
 73
     4
 40
20.32
 49
12.7
 74
     0
 49
-2.54
 74
     0
 49
2.54
 74
     0
 49
-2.54
 74
     0
  0
LTYPE
  5
72
330
5
100
AcDbSymbolTableRecord
100
AcDbLinetypeTableRecord
  2
DOT2
 70
     0
  3
Dot (.5x) ........................................
 72
    65
 73
     2
 40
0.635
 49
0.0
 74
     0
 49
-0.635
 74
     0
  0
ENDTAB
  0
TABLE
  2
LAYER
  5
2
330
0
100
AcDbSymbolTable
 70
     1
  0
LAYER
  5
10
330
2
100
AcDbSymbolTableRecord
100
AcDbLayerTableRecord
  2
0
 70
     0
 62
     7
  6
Continuous
370
    -3
390
F
  0
ENDTAB
  0
TABLE
  2
STYLE
  5
3
330
0
100
AcDbSymbolTable
 70
     1
  0
STYLE
  5
11
330
3
100
AcDbSymbolTableRecord
100
AcDbTextStyleTableRecord
  2
Standard
 70
     0
 40
0.0
 41
1.0
 50
0.0
 71
     0
 42
3.5
  3
txt
  4

  0
ENDTAB
  0
TABLE
  2
VIEW
  5
6
330
0
100
AcDbSymbolTable
 70
     0
  0
ENDTAB
  0
TABLE
  2
UCS
  5
7
330
0
100
AcDbSymbolTable
 70
     0
  0
ENDTAB
  0
TABLE
  2
APPID
  5
9
330
0
100
AcDbSymbolTable
 70
     1
  0
APPID
  5
12
330
9
100
AcDbSymbolTableRecord
100
AcDbRegAppTableRecord
  2
ACAD
 70
     0
  0
ENDTAB
  0
TABLE
  2
DIMSTYLE
  5
A
330
0
100
AcDbSymbolTable
 70
     1
100
AcDbDimStyleTable
  0
DIMSTYLE
105
27
330
A
100
AcDbSymbolTableRecord
100
AcDbDimStyleTableRecord
  2
ISO-25
 70
     0
 41
2.5
 42
0.625
 43
3.75
 44
1.25
 73
     0
 74
     0
 77
     1
 78
     8
140
2.5
141
2.5
143
0.0393700787
147
0.625
171
     3
172
     1
178
     0
271
     2
272
     2
274
     3
278
    44
283
     0
284
     8
340
11
  0
ENDTAB
  0
TABLE
  2
BLOCK_RECORD
  5
1
330
0
100
AcDbSymbolTable
 70
     1
  0
BLOCK_RECORD
  5
1F
330
1
100
AcDbSymbolTableRecord
100
AcDbBlockTableRecord
  2
*Model_Space
340
22
  0
BLOCK_RECORD
  5
1B
330
1
100
AcDbSymbolTableRecord
100
AcDbBlockTableRecord
  2
*Paper_Space
340
1E
  0
BLOCK_RECORD
  5
23
330
1
100
AcDbSymbolTableRecord
100
AcDbBlockTableRecord
  2
*Paper_Space0
340
26
  0
ENDTAB
  0
ENDSEC
  0
SECTION
  2
BLOCKS
  0
BLOCK
  5
20
330
1F
100
AcDbEntity
  8
0
100
AcDbBlockBegin
  2
*Model_Space
 70
     0
 10
0.0
 20
0.0
 30
0.0
  3
*Model_Space
  1

  0
ENDBLK
  5
21
330
1F
100
AcDbEntity
  8
0
100
AcDbBlockEnd
  0
BLOCK
  5
1C
330
1B
100
AcDbEntity
 67
     1
  8
0
100
AcDbBlockBegin
  2
*Paper_Space
 70
     0
 10
0.0
 20
0.0
 30
0.0
  3
*Paper_Space
  1

  0
ENDBLK
  5
1D
330
1B
100
AcDbEntity
 67
     1
  8
0
100
AcDbBlockEnd
  0
BLOCK
  5
24
330
23
100
AcDbEntity
  8
0
100
AcDbBlockBegin
  2
*Paper_Space0
 70
     0
 10
0.0
 20
0.0
 30
0.0
  3
*Paper_Space0
  1

  0
ENDBLK
  5
25
330
23
100
AcDbEntity
  8
0
100
AcDbBlockEnd
  0
ENDSEC
  0
SECTION
  2
ENTITIES
  0
LINE
  5
73
330
1F
100
AcDbEntity
  8
0
  6
Continuous
 62
     7
370
    15
100
AcDbLine
 10
1949.0548338373
 20
1034.5216059059
 30
0.0
 11
1943.0701102694
 21
1082.521643576
 31
0.0
  0
LINE
  5
74
330
1F
100
AcDbEntity
  8
0
  6
Continuous
 62
     7
370
    15
100
AcDbLine
 10
984.9978651484
 20
1082.521643576
 30
0.0
 11
979.0131415804
 21
1034.5216059059
 31
0.0
  0
ARC
  5
75
330
1F
100
AcDbEntity
  8
0
  6
Continuous
 62
     7
370
    15
100
AcDbCircle
 10
2001.8625165252
 20
356.1633397213
 30
0.0
 40
32.04166666666664
100
AcDbArc
 50
103.5368218358
 51
141.2820116486
  0
ARC
  5
76
330
1F
100
AcDbEntity
  8
0
  6
Continuous
 62
     7
370
    15
100
AcDbCircle
 10
2001.8625165252
 20
356.1633397213
 30
0.0
 40
32.04166666666668
100
AcDbArc
 50
38.7179883514
 51
76.4631781642
  0
LINE
  5
77
330
1F
100
AcDbEntity
  8
0
  6
Continuous
 62
     7
370
    15
100
AcDbLine
 10
2026.8625285109
 20
371.205006405
 30
0.0
 11
2026.8625285109
 21
376.2050062351
 31
0.0
  0
LINE
  5
78
330
1F
100
AcDbEntity
  8
0
  6
Continuous
 62
     7
370
    15
100
AcDbLine
 10
1976.8625165899
 20
376.2050062351
 30
0.0
 11
1976.8625165899
 21
371.205006405
 31
0.0
  0
ARC
  5
79
330
1F
100
AcDbEntity
  8
0
  6
Continuous
 62
     7
370
    15
100
AcDbCircle
 10
926.2054588925
 20
356.1633397213
 30
0.0
 40
32.04166666666669
100
AcDbArc
 50
103.5368218358
 51
141.2820116486
  0
ARC
  5
7A
330
1F
100
AcDbEntity
  8
0
  6
Continuous
 62
     7
370
    15
100
AcDbCircle
 10
926.2054588925
 20
356.1633397213
 30
0.0
 40
32.04166666666669
100
AcDbArc
 50
38.7179883514
 51
76.4631781642
  0
LINE
  5
7B
330
1F
100
AcDbEntity
  8
0
  6
Continuous
 62
     7
370
    15
100
AcDbLine
 10
951.2054588278
 20
371.205006405
 30
0.0
 11
951.2054588278
 21
376.2050062351
 31
0.0
  0
LINE
  5
7C
330
1F
100
AcDbEntity
  8
0
  6
Continuous
 62
     7
370
    15
100
AcDbLine
 10
901.2054469069
 20
376.2050062351
 30
0.0
 11
901.2054469069
 21
371.205006405
 31
0.0
  0
LINE
  5
7D
330
1F
100
AcDbEntity
  8
0
  6
Continuous
 62
     7
370
    15
100
AcDbLine
 10
2008.8625218351
 20
390.5216307312
 30
0.0
 11
2008.8625218351
 21
397.5216318786
 31
0.0
  0
LINE
  5
7E
330
1F
100
AcDbEntity
  8
0
  6
Continuous
 62
     7
370
    15
100
AcDbLine
 10
1994.8625232657
 20
397.5216318786
 30
0.0
 11
1994.8625232657
 21
390.5216307312
 31
0.0
  0
LINE
  5
7F
330
1F
100
AcDbEntity
  8
0
  6
Continuous
 62
     7
370
    15
100
AcDbLine
 10
2006.8624879797
 20
387.3148784906
 30
0.0
 11
2006.8624879797
 21
390.5216307312
 31
0.0
  0
LINE
  5
80
330
1F
100
AcDbEntity
  8
0
  6
Continuous
 62
     7
370
    15
100
AcDbLine
 10
1996.8624975164
 20
390.5216307312
 30
0.0
 11
1996.8624975164
 21
387.3148784906
 31
0.0
  0
LINE
  5
81
330
1F
100
AcDbEntity
  8
0
  6
Continuous
 62
     7
370
    15
100
AcDbLine
 10
933.2054521521
 20
390.5216307312
 30
0.0
 11
933.2054521521
 21
397.5216318786
 31
0.0
  0
LINE
  5
82
330
1F
100
AcDbEntity
  8
0
  6
Continuous
 62
     7
370
    15
100
AcDbLine
 10
919.2054535826
 20
397.5216318786
 30
0.0
 11
919.2054535826
 21
390.5216307312
 31
0.0
  0
LINE
  5
83
330
1F
100
AcDbEntity
  8
0
  6
Continuous
 62
     7
370
    15
100
AcDbLine
 10
931.2054779013
 20
387.3148784906
 30
0.0
 11
931.2054779013
 21
390.5216307312
 31
0.0
  0
LINE
  5
84
330
1F
100
AcDbEntity
  8
0
  6
Continuous
 62
     7
370
    15
100
AcDbLine
 10
921.205487438
 20
390.5216307312
 30
0.0
 11
921.205487438
 21
387.3148784906
 31
0.0
  0
LINE
  5
85
330
1F
100
AcDbEntity
  8
0
  6
Continuous
 62
     7
370
    15
100
AcDbLine
 10
2028.4772779425
 20
397.5216318786
 30
0.0
 11
1949.0548338373
 21
1034.5216059059
 31
0.0
  0
LINE
  5
86
330
1F
100
AcDbEntity
  8
0
  6
Continuous
 62
     7
370
    15
100
AcDbLine
 10
979.0131415804
 20
1034.5216059059
 30
0.0
 11
899.5906974752
 21
397.5216318786
 31
0.0
  0
LINE
  5
87
330
1F
100
AcDbEntity
  8
0
  6
Continuous
 62
     7
370
    15
100
AcDbLine
 10
1925.2684976538
 20
1034.5216059059
 30
0.0
 11
1919.5680286367
 21
1034.5216059059
 31
0.0
  0
LINE
  5
88
330
1F
100
AcDbEntity
  8
0
  6
Continuous
 62
     7
370
    15
100
AcDbLine
 10
1947.8959109266
 20
1034.5216059059
 30
0.0
 11
1925.2684976538
 21
1034.5216059059
 31
0.0
  0
LWPOLYLINE
  5
89
330
1F
100
AcDbEntity
  8
0
  6
Continuous
 62
     7
370
    15
100
AcDbPolyline
 90
        9
 70
   128
 43
0.0
 10
1823.4451379259
 20
1028.0216597885
 10
1823.5334422072
 20
1029.2896890014
 10
1823.7949873884
 20
1030.5090808242
 10
1824.2197300871
 20
1031.6328667968
 10
1824.7913386305
 20
1032.6178335517
 10
1825.4878189047
 20
1033.4261917442
 10
1826.2824382265
 20
1034.0268277496
 10
1827.1446492155
 20
1034.3967341751
 10
1828.0413116892
 20
1034.5216059059
  0
LINE
  5
8A
330
1F
100
AcDbEntity
  8
0
  6
Continuous
 62
     7
370
    15
100
AcDbLine
 10
1823.4451379259
 20
1022.5216411918
 30
0.0
 11
1823.4451379259
 21
1028.0216597885
 31
0.0
  0
LINE
  5
8B
330
1F
100
AcDbEntity
  8
0
  6
Continuous
 62
     7
370
    15
100
AcDbLine
 10
1815.0339986761
 20
1022.5216411918
 30
0.0
 11
1823.4451379259
 21
1022.5216411918
 31
0.0
  0
LINE
  5
8C
330
1F
100
AcDbEntity
  8
0
  6
Continuous
 62
     7
370
    15
100
AcDbLine
 10
1828.0413116892
 20
1034.5216059059
 30
0.0
 11
1919.5680286367
 21
1034.5216059059
 31
0.0
  0
LINE
  5
8D
330
1F
100
AcDbEntity
  8
0
  6
Continuous
 62
     7
370
    15
100
AcDbLine
 10
1949.0548338373
 20
1034.5216059059
 30
0.0
 11
1947.8959109266
 21
1034.5216059059
 31
0.0
  0
LINE
  5
8E
330
1F
100
AcDbEntity
  8
0
  6
Continuous
 62
     7
370
    15
100
AcDbLine
 10
1002.7994777639
 20
1034.5216059059
 30
0.0
 11
1008.499946781
 21
1034.5216059059
 31
0.0
  0
LINE
  5
8F
330
1F
100
AcDbEntity
  8
0
  6
Continuous
 62
     7
370
    15
100
AcDbLine
 10
980.1720644911
 20
1034.5216059059
 30
0.0
 11
1002.7994777639
 21
1034.5216059059
 31
0.0
  0
LINE
  5
90
330
1F
100
AcDbEntity
  8
0
  6
Continuous
 62
     7
370
    15
100
AcDbLine
 10
1113.0339767416
 20
1022.5216411918
 30
0.0
 11
1104.6228374918
 21
1022.5216411918
 31
0.0
  0
LINE
  5
91
330
1F
100
AcDbEntity
  8
0
  6
Continuous
 62
     7
370
    15
100
AcDbLine
 10
1104.6228374918
 20
1022.5216411918
 30
0.0
 11
1104.6228374918
 21
1028.0216597885
 31
0.0
  0
LWPOLYLINE
  5
92
330
1F
100
AcDbEntity
  8
0
  6
Continuous
 62
     7
370
    15
100
AcDbPolyline
 90
        9
 70
   128
 43
0.0
 10
1104.6228374918
 20
1028.0216597885
 10
1104.5345332106
 20
1029.2896890014
 10
1104.2729880293
 20
1030.5090808242
 10
1103.8482453306
 20
1031.6328667968
 10
1103.2766367872
 20
1032.6178335517
 10
1102.580156513
 20
1033.4261917442
 10
1101.7855371912
 20
1034.0268277496
 10
1100.9233262022
 20
1034.3967341751
 10
1100.0266637285
 20
1034.5216059059
  0
LINE
  5
93
330
1F
100
AcDbEntity
  8
0
  6
Continuous
 62
     7
370
    15
100
AcDbLine
 10
1100.0266637285
 20
1034.5216059059
 30
0.0
 11
1008.499946781
 21
1034.5216059059
 31
0.0
  0
LINE
  5
94
330
1F
100
AcDbEntity
  8
0
  6
Continuous
 62
     7
370
    15
100
AcDbLine
 10
979.0131415804
 20
1034.5216059059
 30
0.0
 11
980.1720644911
 21
1034.5216059059
 31
0.0
  0
LINE
  5
95
330
1F
100
AcDbEntity
  8
0
  6
Continuous
 62
     7
370
    15
100
AcDbLine
 10
2034.0339805563
 20
1100.5216502517
 30
0.0
 11
2064.0340115507
 21
1100.5216502517
 31
0.0
  0
LINE
  5
96
330
1F
100
AcDbEntity
  8
0
  6
Continuous
 62
     7
370
    15
100
AcDbLine
 10
2064.0340115507
 20
1100.5216502517
 30
0.0
 11
2064.0340115507
 21
1091.5216469139
 31
0.0
  0
LINE
  5
97
330
1F
100
AcDbEntity
  8
0
  6
Continuous
 62
     7
370
    15
100
AcDbLine
 10
2034.0339805563
 20
1091.5216469139
 30
0.0
 11
2064.0340115507
 21
1091.5216469139
 31
0.0
  0
LINE
  5
98
330
1F
100
AcDbEntity
  8
0
  6
Continuous
 62
     7
370
    15
100
AcDbLine
 10
894.0339948614
 20
1100.5216502517
 30
0.0
 11
2034.0339805563
 21
1100.5216502517
 31
0.0
  0
LINE
  5
99
330
1F
100
AcDbEntity
  8
0
  6
Continuous
 62
     7
370
    15
100
AcDbLine
 10
894.0339948614
 20
1091.5216469139
 30
0.0
 11
2034.0339805563
 21
1091.5216469139
 31
0.0
  0
LINE
  5
9A
330
1F
100
AcDbEntity
  8
0
  6
Continuous
 62
     7
370
    15
100
AcDbLine
 10
894.0339948614
 20
1082.521643576
 30
0.0
 11
873.0339672049
 21
1082.521643576
 31
0.0
  0
LINE
  5
9B
330
1F
100
AcDbEntity
  8
0
  6
Continuous
 62
     7
370
    15
100
AcDbLine
 10
873.0339672049
 20
1082.521643576
 30
0.0
 11
864.033963867
 21
1091.5216469139
 31
0.0
  0
LINE
  5
9C
330
1F
100
AcDbEntity
  8
0
  6
Continuous
 62
     7
370
    15
100
AcDbLine
 10
864.033963867
 20
1091.5216469139
 30
0.0
 11
894.0339948614
 21
1091.5216469139
 31
0.0
  0
LINE
  5
9D
330
1F
100
AcDbEntity
  8
0
  6
Continuous
 62
     7
370
    15
100
AcDbLine
 10
894.0339948614
 20
1100.5216502517
 30
0.0
 11
864.033963867
 21
1100.5216502517
 31
0.0
  0
LINE
  5
9E
330
1F
100
AcDbEntity
  8
0
  6
Continuous
 62
     7
370
    15
100
AcDbLine
 10
864.033963867
 20
1100.5216502517
 30
0.0
 11
864.033963867
 21
1091.5216469139
 31
0.0
  0
LINE
  5
9F
330
1F
100
AcDbEntity
  8
0
  6
Continuous
 62
     7
370
    15
100
AcDbLine
 10
2064.0340115507
 20
1091.5216469139
 30
0.0
 11
2055.0340082129
 21
1082.521643576
 31
0.0
  0
LINE
  5
A0
330
1F
100
AcDbEntity
  8
0
  6
Continuous
 62
     7
370
    15
100
AcDbLine
 10
2055.0340082129
 20
1082.521643576
 30
0.0
 11
2034.0339805563
 21
1082.521643576
 31
0.0
  0
LINE
  5
A1
330
1F
100
AcDbEntity
  8
0
  6
Continuous
 62
     7
370
    15
100
AcDbLine
 10
2034.0339805563
 20
1082.521643576
 30
0.0
 11
894.0339948614
 21
1082.521643576
 31
0.0
  0
LINE
  5
A2
330
1F
100
AcDbEntity
  8
0
  6
Continuous
 62
     7
370
    15
100
AcDbLine
 10
1815.0339986761
 20
1082.521643576
 30
0.0
 11
1815.0339986761
 21
1022.5216411918
 31
0.0
  0
LINE
  5
A3
330
1F
100
AcDbEntity
  8
0
  6
Continuous
 62
     7
370
    15
100
AcDbLine
 10
1815.0339986761
 20
1022.5216411918
 30
0.0
 11
1113.0339767416
 21
1022.5216411918
 31
0.0
  0
LINE
  5
A4
330
1F
100
AcDbEntity
  8
0
  6
Continuous
 62
     7
370
    15
100
AcDbLine
 10
1113.0339767416
 20
1022.5216411918
 30
0.0
 11
1113.0339767416
 21
1082.521643576
 31
0.0
  0
ARC
  5
A5
330
1F
100
AcDbEntity
  8
0
  6
Continuous
 62
     7
370
    15
100
AcDbCircle
 10
1609.0339877089
 20
1002.5216311782
 30
0.0
 40
20.0
100
AcDbArc
 50
90.0
 51
180.0
  0
LINE
  5
A6
330
1F
100
AcDbEntity
  8
0
  6
Continuous
 62
     7
370
    15
100
AcDbLine
 10
1449.0339880441
 20
967.5216340393
 30
0.0
 11
1449.0339880441
 21
986.5216278404
 31
0.0
  0
LINE
  5
A7
330
1F
100
AcDbEntity
  8
0
  6
Continuous
 62
     7
370
    15
100
AcDbLine
 10
1339.0339877089
 20
967.5216340393
 30
0.0
 11
1449.0339880441
 21
967.5216340393
 31
0.0
  0
LINE
  5
A8
330
1F
100
AcDbEntity
  8
0
  6
Continuous
 62
     7
370
    15
100
AcDbLine
 10
1339.0339877089
 20
1002.5216602653
 30
0.0
 11
1339.0339877089
 21
967.5216340393
 31
0.0
  0
ARC
  5
A9
330
1F
100
AcDbEntity
  8
0
  6
Continuous
 62
     7
370
    15
100
AcDbCircle
 10
1319.0339877089
 20
1002.5216311782
 30
0.0
 40
20.0
100
AcDbArc
 50
0.0
 51
90.0
  0
LINE
  5
AA
330
1F
100
AcDbEntity
  8
0
  6
Continuous
 62
     7
370
    15
100
AcDbLine
 10
1219.0339829405
 20
967.5216340393
 30
0.0
 11
1239.0339936693
 21
967.5216340393
 31
0.0
  0
LINE
  5
AB
330
1F
100
AcDbEntity
  8
0
  6
Continuous
 62
     7
370
    15
100
AcDbLine
 10
1689.0339817484
 20
967.5216340393
 30
0.0
 11
1689.0339817484
 21
1002.5216602653
 31
0.0
  0
LINE
  5
AC
330
1F
100
AcDbEntity
  8
0
  6
Continuous
 62
     7
370
    15
100
AcDbLine
 10
1689.0339817484
 20
967.5216340393
 30
0.0
 11
1709.0339924772
 21
967.5216340393
 31
0.0
  0
LINE
  5
AD
330
1F
100
AcDbEntity
  8
0
  6
Continuous
 62
     7
370
    15
100
AcDbLine
 10
1449.0339880441
 20
986.5216278404
 30
0.0
 11
1479.0339873736
 21
986.5216278404
 31
0.0
  0
LINE
  5
AE
330
1F
100
AcDbEntity
  8
0
  6
Continuous
 62
     7
370
    15
100
AcDbLine
 10
1239.0339936693
 20
967.5216340393
 30
0.0
 11
1239.0339936693
 21
1002.5216602653
 31
0.0
  0
LINE
  5
AF
330
1F
100
AcDbEntity
  8
0
  6
Continuous
 62
     7
370
    15
100
AcDbLine
 10
1589.0339877089
 20
1002.5216602653
 30
0.0
 11
1589.0339877089
 21
967.5216340393
 31
0.0
  0
LINE
  5
B0
330
1F
100
AcDbEntity
  8
0
  6
Continuous
 62
     7
370
    15
100
AcDbLine
 10
1739.0339936693
 20
986.5216278404
 30
0.0
 11
1709.0339924772
 21
986.5216278404
 31
0.0
  0
LINE
  5
B1
330
1F
100
AcDbEntity
  8
0
  6
Continuous
 62
     7
370
    15
100
AcDbLine
 10
1709.0339924772
 20
967.5216340393
 30
0.0
 11
1709.0339924772
 21
986.5216278404
 31
0.0
  0
LINE
  5
B2
330
1F
100
AcDbEntity
  8
0
  6
Continuous
 62
     7
370
    15
100
AcDbLine
 10
1479.0339873736
 20
967.5216340393
 30
0.0
 11
1479.0339873736
 21
986.5216278404
 31
0.0
  0
LINE
  5
B3
330
1F
100
AcDbEntity
  8
0
  6
Continuous
 62
     7
370
    15
100
AcDbLine
 10
1739.0339936693
 20
986.5216278404
 30
0.0
 11
1739.0339936693
 21
1022.5216411918
 31
0.0
  0
LINE
  5
B4
330
1F
100
AcDbEntity
  8
0
  6
Continuous
 62
     7
370
    15
100
AcDbLine
 10
1189.0339817484
 20
986.5216278404
 30
0.0
 11
1219.0339829405
 21
986.5216278404
 31
0.0
  0
ARC
  5
B5
330
1F
100
AcDbEntity
  8
0
  6
Continuous
 62
     7
370
    15
100
AcDbCircle
 10
1669.0339877089
 20
1002.5216311782
 30
0.0
 40
20.0
100
AcDbArc
 50
0.0
 51
90.0
  0
LINE
  5
B6
330
1F
100
AcDbEntity
  8
0
  6
Continuous
 62
     7
370
    15
100
AcDbLine
 10
1479.0339873736
 20
967.5216340393
 30
0.0
 11
1589.0339877089
 21
967.5216340393
 31
0.0
  0
ARC
  5
B7
330
1F
100
AcDbEntity
  8
0
  6
Continuous
 62
     7
370
    15
100
AcDbCircle
 10
1259.0339877089
 20
1002.5216311782
 30
0.0
 40
20.0
100
AcDbArc
 50
90.0
 51
180.0
  0
LINE
  5
B8
330
1F
100
AcDbEntity
  8
0
  6
Continuous
 62
     7
370
    15
100
AcDbLine
 10
1219.0339829405
 20
967.5216340393
 30
0.0
 11
1219.0339829405
 21
986.5216278404
 31
0.0
  0
LINE
  5
B9
330
1F
100
AcDbEntity
  8
0
  6
Continuous
 62
     7
370
    15
100
AcDbLine
 10
1189.0339817484
 20
986.5216278404
 30
0.0
 11
1189.0339817484
 21
1022.5216411918
 31
0.0
  0
LINE
  5
BA
330
1F
100
AcDbEntity
  8
0
  6
Continuous
 62
     7
370
    15
100
AcDbLine
 10
1219.0339829405
 20
967.5216340393
 30
0.0
 11
1189.0339817484
 21
967.5216340393
 31
0.0
  0
LINE
  5
BB
330
1F
100
AcDbEntity
  8
0
  6
Continuous
 62
     7
370
    15
100
AcDbLine
 10
1189.0339817484
 20
967.5216340393
 30
0.0
 11
1189.0339817484
 21
986.5216278404
 31
0.0
  0
LINE
  5
BC
330
1F
100
AcDbEntity
  8
0
  6
Continuous
 62
     7
370
    15
100
AcDbLine
 10
1479.0339873736
 20
967.5216340393
 30
0.0
 11
1449.0339880441
 21
967.5216340393
 31
0.0
  0
LINE
  5
BD
330
1F
100
AcDbEntity
  8
0
  6
Continuous
 62
     7
370
    15
100
AcDbLine
 10
1739.0339936693
 20
967.5216340393
 30
0.0
 11
1739.0339936693
 21
986.5216278404
 31
0.0
  0
LINE
  5
BE
330
1F
100
AcDbEntity
  8
0
  6
Continuous
 62
     7
370
    15
100
AcDbLine
 10
1739.0339936693
 20
967.5216340393
 30
0.0
 11
1709.0339924772
 21
967.5216340393
 31
0.0
  0
LINE
  5
BF
330
1F
100
AcDbEntity
  8
0
  6
Continuous
 62
     7
370
    15
100
AcDbLine
 10
1259.033989497
 20
986.5216278404
 30
0.0
 11
1239.0339936693
 21
986.5216278404
 31
0.0
  0
LINE
  5
C0
330
1F
100
AcDbEntity
  8
0
  6
Continuous
 62
     7
370
    15
100
AcDbLine
 10
1259.033989497
 20
967.5216340393
 30
0.0
 11
1239.0339936693
 21
967.5216340393
 31
0.0
  0
LINE
  5
C1
330
1F
100
AcDbEntity
  8
0
  6
Continuous
 62
     7
370
    15
100
AcDbLine
 10
1339.0339877089
 20
986.5216278404
 30
0.0
 11
1319.0339918812
 21
986.5216278404
 31
0.0
  0
LINE
  5
C2
330
1F
100
AcDbEntity
  8
0
  6
Continuous
 62
     7
370
    15
100
AcDbLine
 10
1339.0339877089
 20
967.5216340393
 30
0.0
 11
1319.0339918812
 21
967.5216340393
 31
0.0
  0
LINE
  5
C3
330
1F
100
AcDbEntity
  8
0
  6
Continuous
 62
     7
370
    15
100
AcDbLine
 10
1609.0339835365
 20
986.5216278404
 30
0.0
 11
1589.0339877089
 21
986.5216278404
 31
0.0
  0
LINE
  5
C4
330
1F
100
AcDbEntity
  8
0
  6
Continuous
 62
     7
370
    15
100
AcDbLine
 10
1609.0339835365
 20
967.5216340393
 30
0.0
 11
1589.0339877089
 21
967.5216340393
 31
0.0
  0
LINE
  5
C5
330
1F
100
AcDbEntity
  8
0
  6
Continuous
 62
     7
370
    15
100
AcDbLine
 10
1689.0339817484
 20
986.5216278404
 30
0.0
 11
1669.0339859207
 21
986.5216278404
 31
0.0
  0
LINE
  5
C6
330
1F
100
AcDbEntity
  8
0
  6
Continuous
 62
     7
370
    15
100
AcDbLine
 10
1689.0339817484
 20
967.5216340393
 30
0.0
 11
1669.0339859207
 21
967.5216340393
 31
0.0
  0
LINE
  5
C7
330
1F
100
AcDbEntity
  8
0
  6
Continuous
 62
     7
370
    15
100
AcDbLine
 10
1319.0339918812
 20
986.5216278404
 30
0.0
 11
1259.033989497
 21
986.5216278404
 31
0.0
  0
LINE
  5
C8
330
1F
100
AcDbEntity
  8
0
  6
Continuous
 62
     7
370
    15
100
AcDbLine
 10
1319.0339918812
 20
967.5216340393
 30
0.0
 11
1259.033989497
 21
967.5216340393
 31
0.0
  0
LINE
  5
C9
330
1F
100
AcDbEntity
  8
0
  6
Continuous
 62
     7
370
    15
100
AcDbLine
 10
1669.0339859207
 20
986.5216278404
 30
0.0
 11
1609.0339835365
 21
986.5216278404
 31
0.0
  0
LINE
  5
CA
330
1F
100
AcDbEntity
  8
0
  6
Continuous
 62
     7
370
    15
100
AcDbLine
 10
1669.0339859207
 20
967.5216340393
 30
0.0
 11
1609.0339835365
 21
967.5216340393
 31
0.0
  0
LINE
  5
CB
330
1F
100
AcDbEntity
  8
0
  6
Continuous
 62
     7
370
    15
100
AcDbLine
 10
1758.0339874704
 20
1022.5216411918
 30
0.0
 11
1758.0339874704
 21
967.5216340393
 31
0.0
  0
LINE
  5
CC
330
1F
100
AcDbEntity
  8
0
  6
Continuous
 62
     7
370
    15
100
AcDbLine
 10
1739.0339936693
 20
1022.5216411918
 30
0.0
 11
1739.0339936693
 21
967.5216340393
 31
0.0
  0
LINE
  5
CD
330
1F
100
AcDbEntity
  8
0
  6
Continuous
 62
     7
370
    15
100
AcDbLine
 10
1758.0339874704
 20
967.5216340393
 30
0.0
 11
1739.0339936693
 21
967.5216340393
 31
0.0
  0
LINE
  5
CE
330
1F
100
AcDbEntity
  8
0
  6
Continuous
 62
     7
370
    15
100
AcDbLine
 10
1170.0339879473
 20
967.5216340393
 30
0.0
 11
1189.0339817484
 21
967.5216340393
 31
0.0
  0
LINE
  5
CF
330
1F
100
AcDbEntity
  8
0
  6
Continuous
 62
     7
370
    15
100
AcDbLine
 10
1170.0339879473
 20
1022.5216411918
 30
0.0
 11
1170.0339879473
 21
967.5216340393
 31
0.0
  0
LINE
  5
D0
330
1F
100
AcDbEntity
  8
0
  6
Continuous
 62
     7
370
    15
100
AcDbLine
 10
1189.0339817484
 20
1022.5216411918
 30
0.0
 11
1189.0339817484
 21
967.5216340393
 31
0.0
  0
LINE
  5
D1
330
1F
100
AcDbEntity
  8
0
  6
Continuous
 62
     7
370
    15
100
AcDbLine
 10
1996.5592290838
 20
387.3148784906
 30
0.0
 11
1994.3624999006
 21
387.3148784906
 31
0.0
  0
LINE
  5
D2
330
1F
100
AcDbEntity
  8
0
  6
Continuous
 62
     7
370
    15
100
AcDbLine
 10
2009.3625452002
 20
387.3148784906
 30
0.0
 11
1996.5592290838
 21
387.3148784906
 31
0.0
  0
LINE
  5
D3
330
1F
100
AcDbEntity
  8
0
  6
Continuous
 62
     7
370
    15
100
AcDbLine
 10
1984.1848279913
 20
376.2050062351
 30
0.0
 11
1976.8625165899
 21
376.2050062351
 31
0.0
  0
LINE
  5
D4
330
1F
100
AcDbEntity
  8
0
  6
Continuous
 62
     7
370
    15
100
AcDbLine
 10
2026.8625285109
 20
376.2050062351
 30
0.0
 11
1984.1848279913
 21
376.2050062351
 31
0.0
  0
LINE
  5
D5
330
1F
100
AcDbEntity
  8
0
  6
Continuous
 62
     7
370
    15
100
AcDbLine
 10
1984.1848279913
 20
371.205006405
 30
0.0
 11
1976.8625165899
 21
371.205006405
 31
0.0
  0
LINE
  5
D6
330
1F
100
AcDbEntity
  8
0
  6
Continuous
 62
     7
370
    15
100
AcDbLine
 10
2026.8625285109
 20
371.205006405
 30
0.0
 11
1984.1848279913
 21
371.205006405
 31
0.0
  0
LINE
  5
D7
330
1F
100
AcDbEntity
  8
0
  6
Continuous
 62
     7
370
    15
100
AcDbLine
 10
931.5087463339
 20
387.3148784906
 30
0.0
 11
918.7054302176
 21
387.3148784906
 31
0.0
  0
LINE
  5
D8
330
1F
100
AcDbEntity
  8
0
  6
Continuous
 62
     7
370
    15
100
AcDbLine
 10
933.7054755171
 20
387.3148784906
 30
0.0
 11
931.5087463339
 21
387.3148784906
 31
0.0
  0
LINE
  5
D9
330
1F
100
AcDbEntity
  8
0
  6
Continuous
 62
     7
370
    15
100
AcDbLine
 10
943.8831474264
 20
376.2050062351
 30
0.0
 11
901.2054469069
 21
376.2050062351
 31
0.0
  0
LINE
  5
DA
330
1F
100
AcDbEntity
  8
0
  6
Continuous
 62
     7
370
    15
100
AcDbLine
 10
951.2054588278
 20
376.2050062351
 30
0.0
 11
943.8831474264
 21
376.2050062351
 31
0.0
  0
LINE
  5
DB
330
1F
100
AcDbEntity
  8
0
  6
Continuous
 62
     7
370
    15
100
AcDbLine
 10
943.8831474264
 20
371.205006405
 30
0.0
 11
901.2054469069
 21
371.205006405
 31
0.0
  0
LINE
  5
DC
330
1F
100
AcDbEntity
  8
0
  6
Continuous
 62
     7
370
    15
100
AcDbLine
 10
951.2054588278
 20
371.205006405
 30
0.0
 11
943.8831474264
 21
371.205006405
 31
0.0
  0
LINE
  5
DD
330
1F
100
AcDbEntity
  8
0
  6
Continuous
 62
     7
370
    15
100
AcDbLine
 10
2006.8122412642
 20
390.5216307312
 30
0.0
 11
1994.8625232657
 21
390.5216307312
 31
0.0
  0
LINE
  5
DE
330
1F
100
AcDbEntity
  8
0
  6
Continuous
 62
     7
370
    15
100
AcDbLine
 10
2008.8625218351
 20
390.5216307312
 30
0.0
 11
2006.8122412642
 21
390.5216307312
 31
0.0
  0
LINE
  5
DF
330
1F
100
AcDbEntity
  8
0
  6
Continuous
 62
     7
370
    15
100
AcDbLine
 10
933.2054521521
 20
390.5216307312
 30
0.0
 11
919.2054535826
 21
390.5216307312
 31
0.0
  0
LINE
  5
E0
330
1F
100
AcDbEntity
  8
0
  6
Continuous
 62
     7
370
    15
100
AcDbLine
 10
1919.5680286367
 20
1034.5216059059
 30
0.0
 11
1925.2684976538
 21
1034.5216059059
 31
0.0
  0
LINE
  5
E1
330
1F
100
AcDbEntity
  8
0
  6
Continuous
 62
     7
370
    15
100
AcDbLine
 10
2004.6909715612
 20
397.5216318786
 30
0.0
 11
1998.9904429396
 21
397.5216318786
 31
0.0
  0
LINE
  5
E2
330
1F
100
AcDbEntity
  8
0
  6
Continuous
 62
     7
370
    15
100
AcDbLine
 10
2027.3183848341
 20
397.5216318786
 30
0.0
 11
2004.6909715612
 21
397.5216318786
 31
0.0
  0
LINE
  5
E3
330
1F
100
AcDbEntity
  8
0
  6
Continuous
 62
     7
370
    15
100
AcDbLine
 10
1860.9023954351
 20
985.5982922882
 30
0.0
 11
1973.5782410582
 21
397.5216318786
 31
0.0
  0
LWPOLYLINE
  5
E4
330
1F
100
AcDbEntity
  8
0
  6
Continuous
 62
     7
370
    15
100
AcDbPolyline
 90
       16
 70
   128
 43
0.0
 10
1860.9023954351
 20
985.5982922882
 10
1859.9689270933
 20
989.7458218902
 10
1858.7839271505
 20
993.7628769249
 10
1857.3563959082
 20
997.618939814
 10
1855.6971516092
 20
1001.2848042816
 10
1853.8187410315
 20
1004.7327541679
 10
1851.735409685
 20
1007.9365634292
 10
1849.4629528006
 20
1010.8719729751
 10
1847.0185961207
 20
1013.5168098777
 10
1844.4208468874
 20
1015.8509873718
 10
1841.6894044359
 20
1017.8568028778
 10
1838.844951578
 20
1019.5190572113
 10
1835.9090353926
 20
1020.8251737922
 10
1832.9039480169
 20
1021.7652582496
 10
1829.852428623
 20
1022.3321580261
 10
1826.777603813
 20
1022.5216411918
  0
LINE
  5
E5
330
1F
100
AcDbEntity
  8
0
  6
Continuous
 62
     7
370
    15
100
AcDbLine
 10
1823.4451379259
 20
1022.5216411918
 30
0.0
 11
1826.777603813
 21
1022.5216411918
 31
0.0
  0
LWPOLYLINE
  5
E6
330
1F
100
AcDbEntity
  8
0
  6
Continuous
 62
     7
370
    15
100
AcDbPolyline
 90
        9
 70
   128
 43
0.0
 10
1828.0413116892
 20
1034.5216059059
 10
1827.1446492155
 20
1034.3967341751
 10
1826.2824382265
 20
1034.0268277496
 10
1825.4878189047
 20
1033.4261917442
 10
1824.7913386305
 20
1032.6178335517
 10
1824.2197300871
 20
1031.6328667968
 10
1823.7949873884
 20
1030.5090808242
 10
1823.5334422072
 20
1029.2896890014
 10
1823.4451379259
 20
1028.0216597885
  0
LINE
  5
E7
330
1F
100
AcDbEntity
  8
0
  6
Continuous
 62
     7
370
    15
100
AcDbLine
 10
1973.5782410582
 20
397.5216318786
 30
0.0
 11
1998.9904429396
 21
397.5216318786
 31
0.0
  0
LINE
  5
E8
330
1F
100
AcDbEntity
  8
0
  6
Continuous
 62
     7
370
    15
100
AcDbLine
 10
1947.8959109266
 20
1034.5216059059
 30
0.0
 11
1949.0548338373
 21
1034.5216059059
 31
0.0
  0
LINE
  5
E9
330
1F
100
AcDbEntity
  8
0
  6
Continuous
 62
     7
370
    15
100
AcDbLine
 10
2028.4772779425
 20
397.5216318786
 30
0.0
 11
2027.3183848341
 21
397.5216318786
 31
0.0
  0
LINE
  5
EA
330
1F
100
AcDbEntity
  8
0
  6
Continuous
 62
     7
370
    15
100
AcDbLine
 10
1002.7994777639
 20
1034.5216059059
 30
0.0
 11
1008.499946781
 21
1034.5216059059
 31
0.0
  0
LINE
  5
EB
330
1F
100
AcDbEntity
  8
0
  6
Continuous
 62
     7
370
    15
100
AcDbLine
 10
929.0775324781
 20
397.5216318786
 30
0.0
 11
923.3770038565
 21
397.5216318786
 31
0.0
  0
LINE
  5
EC
330
1F
100
AcDbEntity
  8
0
  6
Continuous
 62
     7
370
    15
100
AcDbLine
 10
923.3770038565
 20
397.5216318786
 30
0.0
 11
900.7495905836
 21
397.5216318786
 31
0.0
  0
LWPOLYLINE
  5
ED
330
1F
100
AcDbEntity
  8
0
  6
Continuous
 62
     7
370
    15
100
AcDbPolyline
 90
        9
 70
   128
 43
0.0
 10
1100.0266637285
 20
1034.5216059059
 10
1100.9233262022
 20
1034.3967341751
 10
1101.7855371912
 20
1034.0268277496
 10
1102.580156513
 20
1033.4261917442
 10
1103.2766367872
 20
1032.6178335517
 10
1103.8482453306
 20
1031.6328667968
 10
1104.2729880293
 20
1030.5090808242
 10
1104.5345332106
 20
1029.2896890014
 10
1104.6228374918
 20
1028.0216597885
  0
LINE
  5
EE
330
1F
100
AcDbEntity
  8
0
  6
Continuous
 62
     7
370
    15
100
AcDbLine
 10
1104.6228374918
 20
1022.5216411918
 30
0.0
 11
1101.2903716047
 21
1022.5216411918
 31
0.0
  0
LWPOLYLINE
  5
EF
330
1F
100
AcDbEntity
  8
0
  6
Continuous
 62
     7
370
    15
100
AcDbPolyline
 90
       16
 70
   128
 43
0.0
 10
1067.1655799826
 20
985.5982922882
 10
1068.0990483244
 20
989.7458218902
 10
1069.2840482672
 20
993.7628769249
 10
1070.7115795096
 20
997.618939814
 10
1072.3708238085
 20
1001.2848042816
 10
1074.2492343863
 20
1004.7327541679
 10
1076.3325657328
 20
1007.9365634292
 10
1078.6050226172
 20
1010.8719729751
 10
1081.0493792971
 20
1013.5168098777
 10
1083.6471285303
 20
1015.8509873718
 10
1086.3785709818
 20
1017.8568028778
 10
1089.2230238398
 20
1019.5190572113
 10
1092.1589400251
 20
1020.8251737922
 10
1095.1640274008
 20
1021.7652582496
 10
1098.2155467947
 20
1022.3321580261
 10
1101.2903716047
 20
1022.5216411918
  0
LINE
  5
F0
330
1F
100
AcDbEntity
  8
0
  6
Continuous
 62
     7
370
    15
100
AcDbLine
 10
1067.1655799826
 20
985.5982922882
 30
0.0
 11
954.4897343596
 21
397.5216318786
 31
0.0
  0
LINE
  5
F1
330
1F
100
AcDbEntity
  8
0
  6
Continuous
 62
     7
370
    15
100
AcDbLine
 10
954.4897343596
 20
397.5216318786
 30
0.0
 11
929.0775324781
 21
397.5216318786
 31
0.0
  0
LINE
  5
F2
330
1F
100
AcDbEntity
  8
0
  6
Continuous
 62
     7
370
    15
100
AcDbLine
 10
979.0131415804
 20
1034.5216059059
 30
0.0
 11
980.1720644911
 21
1034.5216059059
 31
0.0
  0
LINE
  5
F3
330
1F
100
AcDbEntity
  8
0
  6
Continuous
 62
     7
370
    15
100
AcDbLine
 10
900.7495905836
 20
397.5216318786
 30
0.0
 11
899.5906974752
 21
397.5216318786
 31
0.0
  0
LINE
  5
F4
330
1F
100
AcDbEntity
  8
0
  6
Continuous
 62
     7
370
    15
100
AcDbLine
 10
3300.1469293228
 20
1082.521643576
 30
0.0
 11
3294.1622057548
 21
1034.5216059059
 31
0.0
  0
LINE
  5
F5
330
1F
100
AcDbEntity
  8
0
  6
Continuous
 62
     7
370
    15
100
AcDbLine
 10
3925.6353297821
 20
1034.5216059059
 30
0.0
 11
3919.6506062141
 21
1082.521643576
 31
0.0
  0
ARC
  5
F6
330
1F
100
AcDbEntity
  8
0
  6
Continuous
 62
     7
370
    15
100
AcDbCircle
 10
3241.3545101995
 20
356.1633397213
 30
0.0
 40
32.04166666666668
100
AcDbArc
 50
103.5368218358
 51
141.2820116486
  0
ARC
  5
F7
330
1F
100
AcDbEntity
  8
0
  6
Continuous
 62
     7
370
    15
100
AcDbCircle
 10
3241.3545101995
 20
356.1633397213
 30
0.0
 40
32.041666666667
100
AcDbArc
 50
38.7179883514
 51
76.4631781642
  0
LINE
  5
F8
330
1F
100
AcDbEntity
  8
0
  6
Continuous
 62
     7
370
    15
100
AcDbLine
 10
3266.3545230022
 20
371.205006405
 30
0.0
 11
3266.3545230022
 21
376.2050062351
 31
0.0
  0
LINE
  5
F9
330
1F
100
AcDbEntity
  8
0
  6
Continuous
 62
     7
370
    15
100
AcDbLine
 10
3216.3545110813
 20
376.2050062351
 30
0.0
 11
3216.3545110813
 21
371.205006405
 31
0.0
  0
ARC
  5
FA
330
1F
100
AcDbEntity
  8
0
  6
Continuous
 62
     7
370
    15
100
AcDbCircle
 10
3978.4430253374
 20
356.1633397213
 30
0.0
 40
32.041666666667
100
AcDbArc
 50
103.5368218358
 51
141.2820116486
  0
ARC
  5
FB
330
1F
100
AcDbEntity
  8
0
  6
Continuous
 62
     7
370
    15
100
AcDbCircle
 10
3978.4430253374
 20
356.1633397213
 30
0.0
 40
32.04166666666664
100
AcDbArc
 50
38.7179883514
 51
76.4631781642
  0
LINE
  5
FC
330
1F
100
AcDbEntity
  8
0
  6
Continuous
 62
     7
370
    15
100
AcDbLine
 10
4003.4430244556
 20
371.205006405
 30
0.0
 11
4003.4430244556
 21
376.2050062351
 31
0.0
  0
LINE
  5
FD
330
1F
100
AcDbEntity
  8
0
  6
Continuous
 62
     7
370
    15
100
AcDbLine
 10
3953.4430125347
 20
376.2050062351
 30
0.0
 11
3953.4430125347
 21
371.205006405
 31
0.0
  0
LINE
  5
FE
330
1F
100
AcDbEntity
  8
0
  6
Continuous
 62
     7
370
    15
100
AcDbLine
 10
3248.3545163265
 20
390.5216307312
 30
0.0
 11
3248.3545163265
 21
397.5216318786
 31
0.0
  0
LINE
  5
FF
330
1F
100
AcDbEntity
  8
0
  6
Continuous
 62
     7
370
    15
100
AcDbLine
 10
3234.354517757
 20
397.5216318786
 30
0.0
 11
3234.354517757
 21
390.5216307312
 31
0.0
  0
LINE
  5
100
330
1F
100
AcDbEntity
  8
0
  6
Continuous
 62
     7
370
    15
100
AcDbLine
 10
3246.3545122734
 20
387.3148784906
 30
0.0
 11
3246.3545122734
 21
390.5216307312
 31
0.0
  0
LINE
  5
101
330
1F
100
AcDbEntity
  8
0
  6
Continuous
 62
     7
370
    15
100
AcDbLine
 10
3236.3545218101
 20
390.5216307312
 30
0.0
 11
3236.3545218101
 21
387.3148784906
 31
0.0
  0
LINE
  5
102
330
1F
100
AcDbEntity
  8
0
  6
Continuous
 62
     7
370
    15
100
AcDbLine
 10
3985.4430177799
 20
390.5216307312
 30
0.0
 11
3985.4430177799
 21
397.5216318786
 31
0.0
  0
LINE
  5
103
330
1F
100
AcDbEntity
  8
0
  6
Continuous
 62
     7
370
    15
100
AcDbLine
 10
3971.4430192104
 20
397.5216318786
 30
0.0
 11
3971.4430192104
 21
390.5216307312
 31
0.0
  0
LINE
  5
104
330
1F
100
AcDbEntity
  8
0
  6
Continuous
 62
     7
370
    15
100
AcDbLine
 10
3983.4430137268
 20
387.3148784906
 30
0.0
 11
3983.4430137268
 21
390.5216307312
 31
0.0
  0
LINE
  5
105
330
1F
100
AcDbEntity
  8
0
  6
Continuous
 62
     7
370
    15
100
AcDbLine
 10
3973.4430232635
 20
390.5216307312
 30
0.0
 11
3973.4430232635
 21
387.3148784906
 31
0.0
  0
LINE
  5
106
330
1F
100
AcDbEntity
  8
0
  6
Continuous
 62
     7
370
    15
100
AcDbLine
 10
3294.1622057548
 20
1034.5216059059
 30
0.0
 11
3214.7397616497
 21
397.5216318786
 31
0.0
  0
LINE
  5
107
330
1F
100
AcDbEntity
  8
0
  6
Continuous
 62
     7
370
    15
100
AcDbLine
 10
4005.0577738872
 20
397.5216318786
 30
0.0
 11
3925.6353297821
 21
1034.5216059059
 31
0.0
  0
LINE
  5
108
330
1F
100
AcDbEntity
  8
0
  6
Continuous
 62
     7
370
    15
100
AcDbLine
 10
3323.6490109554
 20
1034.5216059059
 30
0.0
 11
3317.9485121361
 21
1034.5216059059
 31
0.0
  0
LINE
  5
109
330
1F
100
AcDbEntity
  8
0
  6
Continuous
 62
     7
370
    15
100
AcDbLine
 10
3317.9485121361
 20
1034.5216059059
 30
0.0
 11
3295.3210988632
 21
1034.5216059059
 31
0.0
  0
LINE
  5
10A
330
1F
100
AcDbEntity
  8
0
  6
Continuous
 62
     7
370
    15
100
AcDbLine
 10
3496.467306613
 20
1022.5216411918
 30
0.0
 11
3419.7719016662
 21
1022.5216411918
 31
0.0
  0
LINE
  5
10B
330
1F
100
AcDbEntity
  8
0
  6
Continuous
 62
     7
370
    15
100
AcDbLine
 10
3419.7719016662
 20
1022.5216411918
 30
0.0
 11
3419.7719016662
 21
1028.0216597885
 31
0.0
  0
LWPOLYLINE
  5
10C
330
1F
100
AcDbEntity
  8
0
  6
Continuous
 62
     7
370
    15
100
AcDbPolyline
 90
        9
 70
   128
 43
0.0
 10
3419.7719016662
 20
1028.0216597885
 10
3419.6835824838
 20
1029.2896890014
 10
3419.4220373026
 20
1030.5090808242
 10
3418.9972946039
 20
1031.6328667968
 10
3418.4257009617
 20
1032.6178335517
 10
3417.7292057863
 20
1033.4261917442
 10
3416.9345864645
 20
1034.0268277496
 10
3416.0723754755
 20
1034.3967341751
 10
3415.1756981006
 20
1034.5216059059
  0
LINE
  5
10D
330
1F
100
AcDbEntity
  8
0
  6
Continuous
 62
     7
370
    15
100
AcDbLine
 10
3496.467306613
 20
1082.521643576
 30
0.0
 11
3496.467306613
 21
1022.5216411918
 31
0.0
  0
LINE
  5
10E
330
1F
100
AcDbEntity
  8
0
  6
Continuous
 62
     7
370
    15
100
AcDbLine
 10
3415.1756981006
 20
1034.5216059059
 30
0.0
 11
3323.6490109554
 21
1034.5216059059
 31
0.0
  0
LINE
  5
10F
330
1F
100
AcDbEntity
  8
0
  6
Continuous
 62
     7
370
    15
100
AcDbLine
 10
3295.3210988632
 20
1034.5216059059
 30
0.0
 11
3294.1622057548
 21
1034.5216059059
 31
0.0
  0
LINE
  5
110
330
1F
100
AcDbEntity
  8
0
  6
Continuous
 62
     7
370
    15
100
AcDbLine
 10
3896.1485245815
 20
1034.5216059059
 30
0.0
 11
3901.8490234009
 21
1034.5216059059
 31
0.0
  0
LINE
  5
111
330
1F
100
AcDbEntity
  8
0
  6
Continuous
 62
     7
370
    15
100
AcDbLine
 10
3901.8490234009
 20
1034.5216059059
 30
0.0
 11
3924.4764366737
 21
1034.5216059059
 31
0.0
  0
LWPOLYLINE
  5
112
330
1F
100
AcDbEntity
  8
0
  6
Continuous
 62
     7
370
    15
100
AcDbPolyline
 90
        9
 70
   128
 43
0.0
 10
3800.0256338707
 20
1028.0216597885
 10
3800.1139530531
 20
1029.2896890014
 10
3800.3754982343
 20
1030.5090808242
 10
3800.800240933
 20
1031.6328667968
 10
3801.3718345753
 20
1032.6178335517
 10
3802.0683297506
 20
1033.4261917442
 10
3802.8629490724
 20
1034.0268277496
 10
3803.7251600614
 20
1034.3967341751
 10
3804.6218374363
 20
1034.5216059059
  0
LINE
  5
113
330
1F
100
AcDbEntity
  8
0
  6
Continuous
 62
     7
370
    15
100
AcDbLine
 10
3800.0256338707
 20
1022.5216411918
 30
0.0
 11
3800.0256338707
 21
1028.0216597885
 31
0.0
  0
LINE
  5
114
330
1F
100
AcDbEntity
  8
0
  6
Continuous
 62
     7
370
    15
100
AcDbLine
 10
3723.3302289239
 20
1022.5216411918
 30
0.0
 11
3800.0256338707
 21
1022.5216411918
 31
0.0
  0
LINE
  5
115
330
1F
100
AcDbEntity
  8
0
  6
Continuous
 62
     7
370
    15
100
AcDbLine
 10
3723.3302289239
 20
1082.521643576
 30
0.0
 11
3723.3302289239
 21
1022.5216411918
 31
0.0
  0
LINE
  5
116
330
1F
100
AcDbEntity
  8
0
  6
Continuous
 62
     7
370
    15
100
AcDbLine
 10
3804.6218374363
 20
1034.5216059059
 30
0.0
 11
3896.1485245815
 21
1034.5216059059
 31
0.0
  0
LINE
  5
117
330
1F
100
AcDbEntity
  8
0
  6
Continuous
 62
     7
370
    15
100
AcDbLine
 10
3924.4764366737
 20
1034.5216059059
 30
0.0
 11
3925.6353297821
 21
1034.5216059059
 31
0.0
  0
LINE
  5
118
330
1F
100
AcDbEntity
  8
0
  6
Continuous
 62
     7
370
    15
100
AcDbLine
 10
4009.8987737289
 20
1100.5216502517
 30
0.0
 11
3979.8987725368
 21
1100.5216502517
 31
0.0
  0
LINE
  5
119
330
1F
100
AcDbEntity
  8
0
  6
Continuous
 62
     7
370
    15
100
AcDbLine
 10
4009.8987737289
 20
1100.5216502517
 30
0.0
 11
4009.8987737289
 21
1091.5216469139
 31
0.0
  0
LINE
  5
11A
330
1F
100
AcDbEntity
  8
0
  6
Continuous
 62
     7
370
    15
100
AcDbLine
 10
3979.8987725368
 20
1091.5216469139
 30
0.0
 11
4009.8987737289
 21
1091.5216469139
 31
0.0
  0
LINE
  5
11B
330
1F
100
AcDbEntity
  8
0
  6
Continuous
 62
     7
370
    15
100
AcDbLine
 10
4009.8987737289
 20
1091.5216469139
 30
0.0
 11
4000.8987703911
 21
1082.521643576
 31
0.0
  0
LINE
  5
11C
330
1F
100
AcDbEntity
  8
0
  6
Continuous
 62
     7
370
    15
100
AcDbLine
 10
4000.8987703911
 20
1082.521643576
 30
0.0
 11
3979.8987725368
 21
1082.521643576
 31
0.0
  0
LINE
  5
11D
330
1F
100
AcDbEntity
  8
0
  6
Continuous
 62
     7
370
    15
100
AcDbLine
 10
3239.8987630001
 20
1091.5216469139
 30
0.0
 11
3979.8987725368
 21
1091.5216469139
 31
0.0
  0
LINE
  5
11E
330
1F
100
AcDbEntity
  8
0
  6
Continuous
 62
     7
370
    15
100
AcDbLine
 10
3979.8987725368
 20
1082.521643576
 30
0.0
 11
3239.8987630001
 21
1082.521643576
 31
0.0
  0
LINE
  5
11F
330
1F
100
AcDbEntity
  8
0
  6
Continuous
 62
     7
370
    15
100
AcDbLine
 10
3239.8987630001
 20
1100.5216502517
 30
0.0
 11
3979.8987725368
 21
1100.5216502517
 31
0.0
  0
LINE
  5
120
330
1F
100
AcDbEntity
  8
0
  6
Continuous
 62
     7
370
    15
100
AcDbLine
 10
3209.898761808
 20
1091.5216469139
 30
0.0
 11
3239.8987630001
 21
1091.5216469139
 31
0.0
  0
LINE
  5
121
330
1F
100
AcDbEntity
  8
0
  6
Continuous
 62
     7
370
    15
100
AcDbLine
 10
3209.898761808
 20
1100.5216502517
 30
0.0
 11
3209.898761808
 21
1091.5216469139
 31
0.0
  0
LINE
  5
122
330
1F
100
AcDbEntity
  8
0
  6
Continuous
 62
     7
370
    15
100
AcDbLine
 10
3209.898761808
 20
1100.5216502517
 30
0.0
 11
3239.8987630001
 21
1100.5216502517
 31
0.0
  0
LINE
  5
123
330
1F
100
AcDbEntity
  8
0
  6
Continuous
 62
     7
370
    15
100
AcDbLine
 10
3239.8987630001
 20
1082.521643576
 30
0.0
 11
3218.8987651459
 21
1082.521643576
 31
0.0
  0
LINE
  5
124
330
1F
100
AcDbEntity
  8
0
  6
Continuous
 62
     7
370
    15
100
AcDbLine
 10
3209.898761808
 20
1091.5216469139
 30
0.0
 11
3218.8987651459
 21
1082.521643576
 31
0.0
  0
LINE
  5
125
330
1F
100
AcDbEntity
  8
0
  6
Continuous
 62
     7
370
    15
100
AcDbLine
 10
3933.9027920357
 20
968.2132863372
 30
0.0
 11
3999.8987534633
 21
1082.521643576
 31
0.0
  0
LINE
  5
126
330
1F
100
AcDbEntity
  8
0
  6
Continuous
 62
     7
370
    15
100
AcDbLine
 10
3819.8987612119
 20
967.5216340393
 30
0.0
 11
3840.9463980785
 21
967.5216340393
 31
0.0
  0
LINE
  5
127
330
1F
100
AcDbEntity
  8
0
  6
Continuous
 62
     7
370
    15
100
AcDbLine
 10
3819.8987612119
 20
1016.7122744888
 30
0.0
 11
3819.8987612119
 21
967.5216340393
 31
0.0
  0
CIRCLE
  5
128
330
1F
100
AcDbEntity
  8
0
  6
Continuous
 62
     7
370
    15
100
AcDbCircle
 10
3977.006462923
 20
1060.8709960836
 30
0.0
 40
1.250000000000455
  0
CIRCLE
  5
129
330
1F
100
AcDbEntity
  8
0
  6
Continuous
 62
     7
370
    15
100
AcDbCircle
 10
3938.3073343889
 20
993.8421392539
 30
0.0
 40
1.25
  0
LINE
  5
12A
330
1F
100
AcDbEntity
  8
0
  6
Continuous
 62
     7
370
    15
100
AcDbLine
 10
3248.8545098892
 20
387.3148784906
 30
0.0
 11
3233.8545241943
 21
387.3148784906
 31
0.0
  0
LINE
  5
12B
330
1F
100
AcDbEntity
  8
0
  6
Continuous
 62
     7
370
    15
100
AcDbLine
 10
3266.3545230022
 20
376.2050062351
 30
0.0
 11
3216.3545110813
 21
376.2050062351
 31
0.0
  0
LINE
  5
12C
330
1F
100
AcDbEntity
  8
0
  6
Continuous
 62
     7
370
    15
100
AcDbLine
 10
3266.3545230022
 20
371.205006405
 30
0.0
 11
3216.3545110813
 21
371.205006405
 31
0.0
  0
LINE
  5
12D
330
1F
100
AcDbEntity
  8
0
  6
Continuous
 62
     7
370
    15
100
AcDbLine
 10
3985.9430113426
 20
387.3148784906
 30
0.0
 11
3970.9430256477
 21
387.3148784906
 31
0.0
  0
LINE
  5
12E
330
1F
100
AcDbEntity
  8
0
  6
Continuous
 62
     7
370
    15
100
AcDbLine
 10
4003.4430244556
 20
376.2050062351
 30
0.0
 11
3953.4430125347
 21
376.2050062351
 31
0.0
  0
LINE
  5
12F
330
1F
100
AcDbEntity
  8
0
  6
Continuous
 62
     7
370
    15
100
AcDbLine
 10
4003.4430244556
 20
371.205006405
 30
0.0
 11
3953.4430125347
 21
371.205006405
 31
0.0
  0
LINE
  5
130
330
1F
100
AcDbEntity
  8
0
  6
Continuous
 62
     7
370
    15
100
AcDbLine
 10
3236.4047685257
 20
390.5216307312
 30
0.0
 11
3234.354517757
 21
390.5216307312
 31
0.0
  0
LINE
  5
131
330
1F
100
AcDbEntity
  8
0
  6
Continuous
 62
     7
370
    15
100
AcDbLine
 10
3248.3545163265
 20
390.5216307312
 30
0.0
 11
3236.4047685257
 21
390.5216307312
 31
0.0
  0
LINE
  5
132
330
1F
100
AcDbEntity
  8
0
  6
Continuous
 62
     7
370
    15
100
AcDbLine
 10
3985.4430177799
 20
390.5216307312
 30
0.0
 11
3971.4430192104
 21
390.5216307312
 31
0.0
  0
LINE
  5
133
330
1F
100
AcDbEntity
  8
0
  6
Continuous
 62
     7
370
    15
100
AcDbLine
 10
3496.467306613
 20
1022.5216411918
 30
0.0
 11
3723.3302289239
 21
1022.5216411918
 31
0.0
  0
LINE
  5
134
330
1F
100
AcDbEntity
  8
0
  6
Continuous
 62
     7
370
    15
100
AcDbLine
 10
3317.9485121361
 20
1034.5216059059
 30
0.0
 11
3323.6490109554
 21
1034.5216059059
 31
0.0
  0
LINE
  5
135
330
1F
100
AcDbEntity
  8
0
  6
Continuous
 62
     7
370
    15
100
AcDbLine
 10
3244.2265668503
 20
397.5216318786
 30
0.0
 11
3238.5260978332
 21
397.5216318786
 31
0.0
  0
LINE
  5
136
330
1F
100
AcDbEntity
  8
0
  6
Continuous
 62
     7
370
    15
100
AcDbLine
 10
3238.5260978332
 20
397.5216318786
 30
0.0
 11
3215.8986547581
 21
397.5216318786
 31
0.0
  0
LWPOLYLINE
  5
137
330
1F
100
AcDbEntity
  8
0
  6
Continuous
 62
     7
370
    15
100
AcDbPolyline
 90
        9
 70
   128
 43
0.0
 10
3415.1756981006
 20
1034.5216059059
 10
3416.0723754755
 20
1034.3967341751
 10
3416.9345864645
 20
1034.0268277496
 10
3417.7292057863
 20
1033.4261917442
 10
3418.4257009617
 20
1032.6178335517
 10
3418.9972946039
 20
1031.6328667968
 10
3419.4220373026
 20
1030.5090808242
 10
3419.6835824838
 20
1029.2896890014
 10
3419.7719016662
 20
1028.0216597885
  0
LINE
  5
138
330
1F
100
AcDbEntity
  8
0
  6
Continuous
 62
     7
370
    15
100
AcDbLine
 10
3419.7719016662
 20
1022.5216411918
 30
0.0
 11
3416.439420878
 21
1022.5216411918
 31
0.0
  0
LWPOLYLINE
  5
139
330
1F
100
AcDbEntity
  8
0
  6
Continuous
 62
     7
370
    15
100
AcDbPolyline
 90
       16
 70
   128
 43
0.0
 10
3382.314644157
 20
985.5982922882
 10
3383.2480975977
 20
989.7458218902
 10
3384.4330975405
 20
993.7628769249
 10
3385.8606287828
 20
997.618939814
 10
3387.5198879829
 20
1001.2848042816
 10
3389.3982836595
 20
1004.7327541679
 10
3391.481615006
 20
1007.9365634292
 10
3393.7540718904
 20
1010.8719729751
 10
3396.1984285703
 20
1013.5168098777
 10
3398.7961778036
 20
1015.8509873718
 10
3401.5276351562
 20
1017.8568028778
 10
3404.3720880142
 20
1019.5190572113
 10
3407.3079743973
 20
1020.8251737922
 10
3410.3130766741
 20
1021.7652582496
 10
3413.364596068
 20
1022.3321580261
 10
3416.439420878
 20
1022.5216411918
  0
LINE
  5
13A
330
1F
100
AcDbEntity
  8
0
  6
Continuous
 62
     7
370
    15
100
AcDbLine
 10
3382.314644157
 20
985.5982922882
 30
0.0
 11
3269.6387687317
 21
397.5216318786
 31
0.0
  0
LINE
  5
13B
330
1F
100
AcDbEntity
  8
0
  6
Continuous
 62
     7
370
    15
100
AcDbLine
 10
3269.6387687317
 20
397.5216318786
 30
0.0
 11
3244.2265668503
 21
397.5216318786
 31
0.0
  0
LINE
  5
13C
330
1F
100
AcDbEntity
  8
0
  6
Continuous
 62
     7
370
    15
100
AcDbLine
 10
3294.1622057548
 20
1034.5216059059
 30
0.0
 11
3295.3210988632
 21
1034.5216059059
 31
0.0
  0
LINE
  5
13D
330
1F
100
AcDbEntity
  8
0
  6
Continuous
 62
     7
370
    15
100
AcDbLine
 10
3215.8986547581
 20
397.5216318786
 30
0.0
 11
3214.7397616497
 21
397.5216318786
 31
0.0
  0
LINE
  5
13E
330
1F
100
AcDbEntity
  8
0
  6
Continuous
 62
     7
370
    15
100
AcDbLine
 10
3896.1485245815
 20
1034.5216059059
 30
0.0
 11
3901.8490234009
 21
1034.5216059059
 31
0.0
  0
LINE
  5
13F
330
1F
100
AcDbEntity
  8
0
  6
Continuous
 62
     7
370
    15
100
AcDbLine
 10
3981.2714377037
 20
397.5216318786
 30
0.0
 11
3975.5709686867
 21
397.5216318786
 31
0.0
  0
LINE
  5
140
330
1F
100
AcDbEntity
  8
0
  6
Continuous
 62
     7
370
    15
100
AcDbLine
 10
4003.8988807789
 20
397.5216318786
 30
0.0
 11
3981.2714377037
 21
397.5216318786
 31
0.0
  0
LINE
  5
141
330
1F
100
AcDbEntity
  8
0
  6
Continuous
 62
     7
370
    15
100
AcDbLine
 10
3837.4828913799
 20
985.5982922882
 30
0.0
 11
3950.1587668052
 21
397.5216318786
 31
0.0
  0
LWPOLYLINE
  5
142
330
1F
100
AcDbEntity
  8
0
  6
Continuous
 62
     7
370
    15
100
AcDbPolyline
 90
       16
 70
   128
 43
0.0
 10
3837.4828913799
 20
985.5982922882
 10
3836.5494379392
 20
989.7458218902
 10
3835.3644379965
 20
993.7628769249
 10
3833.9369067541
 20
997.618939814
 10
3832.277647554
 20
1001.2848042816
 10
3830.3992518774
 20
1004.7327541679
 10
3828.3159205309
 20
1007.9365634292
 10
3826.0434636465
 20
1010.8719729751
 10
3823.5991069666
 20
1013.5168098777
 10
3821.0013577333
 20
1015.8509873718
 10
3818.2699003807
 20
1017.8568028778
 10
3815.4254475227
 20
1019.5190572113
 10
3812.4895611397
 20
1020.8251737922
 10
3809.4844588629
 20
1021.7652582496
 10
3806.4329394689
 20
1022.3321580261
 10
3803.3581146589
 20
1022.5216411918
  0
LINE
  5
143
330
1F
100
AcDbEntity
  8
0
  6
Continuous
 62
     7
370
    15
100
AcDbLine
 10
3800.0256338707
 20
1022.5216411918
 30
0.0
 11
3803.3581146589
 21
1022.5216411918
 31
0.0
  0
LWPOLYLINE
  5
144
330
1F
100
AcDbEntity
  8
0
  6
Continuous
 62
     7
370
    15
100
AcDbPolyline
 90
        9
 70
   128
 43
0.0
 10
3804.6218374363
 20
1034.5216059059
 10
3803.7251600614
 20
1034.3967341751
 10
3802.8629490724
 20
1034.0268277496
 10
3802.0683297506
 20
1033.4261917442
 10
3801.3718345753
 20
1032.6178335517
 10
3800.800240933
 20
1031.6328667968
 10
3800.3754982343
 20
1030.5090808242
 10
3800.1139530531
 20
1029.2896890014
 10
3800.0256338707
 20
1028.0216597885
  0
LINE
  5
145
330
1F
100
AcDbEntity
  8
0
  6
Continuous
 62
     7
370
    15
100
AcDbLine
 10
3950.1587668052
 20
397.5216318786
 30
0.0
 11
3975.5709686867
 21
397.5216318786
 31
0.0
  0
LINE
  5
146
330
1F
100
AcDbEntity
  8
0
  6
Continuous
 62
     7
370
    15
100
AcDbLine
 10
3924.4764366737
 20
1034.5216059059
 30
0.0
 11
3925.6353297821
 21
1034.5216059059
 31
0.0
  0
LINE
  5
147
330
1F
100
AcDbEntity
  8
0
  6
Continuous
 62
     7
370
    15
100
AcDbLine
 10
4005.0577738872
 20
397.5216318786
 30
0.0
 11
4003.8988807789
 21
397.5216318786
 31
0.0
  0
LINE
  5
148
330
1F
100
AcDbEntity
  8
0
  6
Continuous
 62
     7
370
    15
100
AcDbLine
 10
1414.9629216273
 20
2427.0400696221
 30
0.0
 11
1421.1050573369
 21
2433.1822090569
 31
0.0
  0
ARC
  5
149
330
1F
100
AcDbEntity
  8
0
  6
Continuous
 62
     7
370
    15
100
AcDbCircle
 10
1407.8918520851
 20
2434.1111336174
 30
0.0
 40
10.00000000000045
100
AcDbArc
 50
270.0
 51
315.0
  0
LINE
  5
14A
330
1F
100
AcDbEntity
  8
0
  6
Continuous
 62
     7
370
    15
100
AcDbLine
 10
1369.033988901
 20
2424.1111271801
 30
0.0
 11
1407.8918512543
 21
2424.1111271801
 31
0.0
  0
ARC
  5
14B
330
1F
100
AcDbEntity
  8
0
  6
Continuous
 62
     7
370
    15
100
AcDbCircle
 10
1369.0339877089
 20
2453.6111336174
 30
0.0
 40
29.50000000000023
100
AcDbArc
 50
180.0
 51
270.0
  0
LINE
  5
14C
330
1F
100
AcDbEntity
  8
0
  6
Continuous
 62
     7
370
    15
100
AcDbLine
 10
1339.5339887221
 20
2503.6111467305
 30
0.0
 11
1339.5339887221
 21
2453.6111348095
 31
0.0
  0
ARC
  5
14D
330
1F
100
AcDbEntity
  8
0
  6
Continuous
 62
     7
370
    15
100
AcDbCircle
 10
1579.0339877089
 20
2503.6111336174
 30
0.0
 40
9.5
100
AcDbArc
 50
0.0
 51
90.0
  0
LINE
  5
14E
330
1F
100
AcDbEntity
  8
0
  6
Continuous
 62
     7
370
    15
100
AcDbLine
 10
1588.5339866956
 20
2453.6111348095
 30
0.0
 11
1588.5339866956
 21
2503.6111467305
 31
0.0
  0
ARC
  5
14F
330
1F
100
AcDbEntity
  8
0
  6
Continuous
 62
     7
370
    15
100
AcDbCircle
 10
1559.0339877089
 20
2453.6111336174
 30
0.0
 40
29.50000000000045
100
AcDbArc
 50
270.0
 51
0.0
  0
LINE
  5
150
330
1F
100
AcDbEntity
  8
0
  6
Continuous
 62
     7
370
    15
100
AcDbLine
 10
1520.1761241634
 20
2424.1111271801
 30
0.0
 11
1559.0339865168
 21
2424.1111271801
 31
0.0
  0
ARC
  5
151
330
1F
100
AcDbEntity
  8
0
  6
Continuous
 62
     7
370
    15
100
AcDbCircle
 10
1520.1761233326
 20
2434.1111336174
 30
0.0
 40
10.00000000000045
100
AcDbArc
 50
225.0
 51
270.0
  0
LINE
  5
152
330
1F
100
AcDbEntity
  8
0
  6
Continuous
 62
     7
370
    15
100
AcDbLine
 10
1506.9629180809
 20
2433.1822090569
 30
0.0
 11
1513.1050537904
 21
2427.0400696221
 31
0.0
  0
ARC
  5
153
330
1F
100
AcDbEntity
  8
0
  6
Continuous
 62
     7
370
    15
100
AcDbCircle
 10
1499.8918520851
 20
2426.1111336174
 30
0.0
 40
10.0
100
AcDbArc
 50
45.0
 51
90.0
  0
LINE
  5
154
330
1F
100
AcDbEntity
  8
0
  6
Continuous
 62
     7
370
    15
100
AcDbLine
 10
1428.1761239846
 20
2436.1111216965
 30
0.0
 11
1499.8918514331
 21
2436.1111216965
 31
0.0
  0
ARC
  5
155
330
1F
100
AcDbEntity
  8
0
  6
Continuous
 62
     7
370
    15
100
AcDbCircle
 10
1428.1761233326
 20
2426.1111336174
 30
0.0
 40
10.0
100
AcDbArc
 50
90.0
 51
135.0
  0
LINE
  5
156
330
1F
100
AcDbEntity
  8
0
  6
Continuous
 62
     7
370
    15
100
AcDbLine
 10
1579.033989795
 20
2513.111143631
 30
0.0
 11
1349.0339856227
 21
2513.111143631
 31
0.0
  0
ARC
  5
157
330
1F
100
AcDbEntity
  8
0
  6
Continuous
 62
     7
370
    15
100
AcDbCircle
 10
1349.0339877089
 20
2503.6111336174
 30
0.0
 40
9.500000000000227
100
AcDbArc
 50
90.0
 51
180.0
  0
ARC
  5
158
330
1F
100
AcDbEntity
  8
0
  6
Continuous
 62
     7
370
    15
100
AcDbCircle
 10
1559.0339877089
 20
2453.6111336174
 30
0.0
 40
30.0
100
AcDbArc
 50
270.0
 51
0.0
  0
LINE
  5
159
330
1F
100
AcDbEntity
  8
0
  6
Continuous
 62
     7
370
    15
100
AcDbLine
 10
1589.0339877089
 20
2503.6111467305
 30
0.0
 11
1589.0339877089
 21
2453.6111348095
 31
0.0
  0
ARC
  5
15A
330
1F
100
AcDbEntity
  8
0
  6
Continuous
 62
     7
370
    15
100
AcDbCircle
 10
1579.0339877089
 20
2503.6111336174
 30
0.0
 40
10.00000000000045
100
AcDbArc
 50
0.0
 51
90.0
  0
LINE
  5
15B
330
1F
100
AcDbEntity
  8
0
  6
Continuous
 62
     7
370
    15
100
AcDbLine
 10
1349.0339856227
 20
2513.6111371937
 30
0.0
 11
1579.033989795
 21
2513.6111371937
 31
0.0
  0
ARC
  5
15C
330
1F
100
AcDbEntity
  8
0
  6
Continuous
 62
     7
370
    15
100
AcDbCircle
 10
1349.0339877089
 20
2503.6111336174
 30
0.0
 40
10.0
100
AcDbArc
 50
90.0
 51
180.0
  0
LINE
  5
15D
330
1F
100
AcDbEntity
  8
0
  6
Continuous
 62
     7
370
    15
100
AcDbLine
 10
1339.0339877089
 20
2503.6111467305
 30
0.0
 11
1339.0339877089
 21
2453.6111348095
 31
0.0
  0
ARC
  5
15E
330
1F
100
AcDbEntity
  8
0
  6
Continuous
 62
     7
370
    15
100
AcDbCircle
 10
1369.0339877089
 20
2453.6111336174
 30
0.0
 40
30.0
100
AcDbArc
 50
180.0
 51
270.0
  0
LINE
  5
15F
330
1F
100
AcDbEntity
  8
0
  6
Continuous
 62
     7
370
    15
100
AcDbLine
 10
1369.033988901
 20
2423.6111336174
 30
0.0
 11
1559.0339865168
 21
2423.6111336174
 31
0.0
  0
LINE
  5
160
330
1F
100
AcDbEntity
  8
0
  6
Continuous
 62
     7
370
    15
100
AcDbLine
 10
2064.0340115507
 20
1803.6111288491
 30
0.0
 11
2064.0340115507
 21
2543.6111383858
 31
0.0
  0
ARC
  5
161
330
1F
100
AcDbEntity
  8
0
  6
Continuous
 62
     7
370
    15
100
AcDbCircle
 10
2034.0339877089
 20
1803.6111336174
 30
0.0
 40
30.0
100
AcDbArc
 50
270.0
 51
0.0
  0
LINE
  5
162
330
1F
100
AcDbEntity
  8
0
  6
Continuous
 62
     7
370
    15
100
AcDbLine
 10
894.0339948614
 20
1773.611127657
 30
0.0
 11
2034.0339805563
 21
1773.611127657
 31
0.0
  0
ARC
  5
163
330
1F
100
AcDbEntity
  8
0
  6
Continuous
 62
     7
370
    15
100
AcDbCircle
 10
894.0339877089
 20
1803.6111336174
 30
0.0
 40
30.0
100
AcDbArc
 50
180.0
 51
270.0
  0
LINE
  5
164
330
1F
100
AcDbEntity
  8
0
  6
Continuous
 62
     7
370
    15
100
AcDbLine
 10
864.033963867
 20
1803.6111288491
 30
0.0
 11
864.033963867
 21
2543.6111383858
 31
0.0
  0
ARC
  5
165
330
1F
100
AcDbEntity
  8
0
  6
Continuous
 62
     7
370
    15
100
AcDbCircle
 10
894.0339877089
 20
2543.6111336174
 30
0.0
 40
30.0
100
AcDbArc
 50
90.0
 51
180.0
  0
CIRCLE
  5
166
330
1F
100
AcDbEntity
  8
0
  6
Continuous
 62
     7
370
    15
100
AcDbCircle
 10
974.0339877089
 20
2513.6111336174
 30
0.0
 40
5.5
  0
CIRCLE
  5
167
330
1F
100
AcDbEntity
  8
0
  6
Continuous
 62
     7
370
    15
100
AcDbCircle
 10
1954.0339877089
 20
2513.6111336174
 30
0.0
 40
5.5
  0
LINE
  5
168
330
1F
100
AcDbEntity
  8
0
  6
Continuous
 62
     7
370
    15
100
AcDbLine
 10
894.0339948614
 20
2573.6111395779
 30
0.0
 11
2034.0339805563
 21
2573.6111395779
 31
0.0
  0
ARC
  5
169
330
1F
100
AcDbEntity
  8
0
  6
Continuous
 62
     7
370
    15
100
AcDbCircle
 10
2034.0339877089
 20
2543.6111336174
 30
0.0
 40
30.0
100
AcDbArc
 50
0.0
 51
90.0
  0
ARC
  5
16A
330
1F
100
AcDbEntity
  8
0
  6
Continuous
 62
     7
370
    15
100
AcDbCircle
 10
1396.1050555207
 20
2428.6111336174
 30
0.0
 40
5.000000000000312
100
AcDbArc
 50
244.1580672368
 51
270.0
  0
ARC
  5
16B
330
1F
100
AcDbEntity
  8
0
  6
Continuous
 62
     7
370
    15
100
AcDbCircle
 10
1531.962919897
 20
2428.6111336174
 30
0.0
 40
5.00000000000041
100
AcDbArc
 50
270.0
 51
295.8419327632
  0
LINE
  5
16C
330
1F
100
AcDbEntity
  8
0
  6
Continuous
 62
     7
370
    15
100
AcDbLine
 10
3919.1337508513
 20
2462.6371713952
 30
0.0
 11
3919.1337508513
 21
2464.4397482977
 31
0.0
  0
LINE
  5
16D
330
1F
100
AcDbEntity
  8
0
  6
Continuous
 62
     7
370
    15
100
AcDbLine
 10
3696.2859824675
 20
2529.7523927423
 30
0.0
 11
3696.2859824675
 21
2526.6036626809
 31
0.0
  0
LINE
  5
16E
330
1F
100
AcDbEntity
  8
0
  6
Continuous
 62
     7
370
    15
100
AcDbLine
 10
4289.6516272918
 20
2287.6861863029
 30
0.0
 11
4289.6516272918
 21
2295.0350563354
 31
0.0
  0
LINE
  5
16F
330
1F
100
AcDbEntity
  8
0
  6
Continuous
 62
     7
370
    15
100
AcDbLine
 10
2900.290839227
 20
2458.3166932985
 30
0.0
 11
2900.290839227
 21
2450.967823266
 31
0.0
  0
LINE
  5
170
330
1F
100
AcDbEntity
  8
0
  6
Continuous
 62
     7
370
    15
100
AcDbLine
 10
3735.2701894181
 20
1423.4364815828
 30
0.0
 11
3734.6733057495
 21
1423.9252190585
 31
0.0
  0
LINE
  5
171
330
1F
100
AcDbEntity
  8
0
  6
Continuous
 62
     7
370
    15
100
AcDbLine
 10
3694.6732912612
 20
1423.9252433894
 30
0.0
 11
3694.076428666
 21
1423.4364694173
 31
0.0
  0
LINE
  5
172
330
1F
100
AcDbEntity
  8
0
  6
Continuous
 62
     7
370
    15
100
AcDbLine
 10
3739.673270682
 20
1411.1740352574
 30
0.0
 11
3739.673270682
 21
1415.256739178
 31
0.0
  0
LINE
  5
173
330
1F
100
AcDbEntity
  8
0
  6
Continuous
 62
     7
370
    15
100
AcDbLine
 10
3689.6732841818
 20
1415.256739178
 30
0.0
 11
3689.6732841818
 21
1411.1740352574
 31
0.0
  0
LINE
  5
174
330
1F
100
AcDbEntity
  8
0
  6
Continuous
 62
     7
370
    15
100
AcDbLine
 10
2934.068883057
 20
1863.0128220037
 30
0.0
 11
2933.4720204618
 21
1862.5240480317
 31
0.0
  0
LINE
  5
175
330
1F
100
AcDbEntity
  8
0
  6
Continuous
 62
     7
370
    15
100
AcDbLine
 10
2979.0689046247
 20
1850.2615895409
 30
0.0
 11
2979.0689046247
 21
1854.3442934615
 31
0.0
  0
LINE
  5
176
330
1F
100
AcDbEntity
  8
0
  6
Continuous
 62
     7
370
    15
100
AcDbLine
 10
2929.0689181245
 20
1854.3442934615
 30
0.0
 11
2929.0689181245
 21
1850.2615895409
 31
0.0
  0
LINE
  5
177
330
1F
100
AcDbEntity
  8
0
  6
Continuous
 62
     7
370
    15
100
AcDbLine
 10
4256.4704671304
 20
1724.3189974417
 30
0.0
 11
4255.8736045352
 21
1724.8077470828
 31
0.0
  0
LINE
  5
178
330
1F
100
AcDbEntity
  8
0
  6
Continuous
 62
     7
370
    15
100
AcDbLine
 10
4260.8735483944
 20
1712.0565511163
 30
0.0
 11
4260.8735483944
 21
1716.1392550369
 31
0.0
  0
LINE
  5
179
330
1F
100
AcDbEntity
  8
0
  6
Continuous
 62
     7
370
    15
100
AcDbLine
 10
4210.8735618941
 20
1716.1392550369
 30
0.0
 11
4210.8735618941
 21
1712.0565511163
 31
0.0
  0
LINE
  5
17A
330
1F
100
AcDbEntity
  8
0
  6
Continuous
 62
     7
370
    15
100
AcDbLine
 10
4255.8433009512
 20
1743.0631259237
 30
0.0
 11
4156.3964631905
 21
2203.5848108844
 31
0.0
  0
LINE
  5
17B
330
1F
100
AcDbEntity
  8
0
  6
Continuous
 62
     7
370
    15
100
AcDbLine
 10
3038.3608803756
 20
2364.0868767927
 30
0.0
 11
2934.0991444943
 21
1881.2681765138
 31
0.0
  0
LINE
  5
17C
330
1F
100
AcDbEntity
  8
0
  6
Continuous
 62
     7
370
    15
100
AcDbLine
 10
3739.4740688709
 20
2500.1576025817
 30
0.0
 11
3748.1603631274
 21
2500.1576041024
 31
0.0
  0
ARC
  5
17D
330
1F
100
AcDbEntity
  8
0
  6
Continuous
 62
     7
370
    15
100
AcDbCircle
 10
3739.1860085823
 20
2514.5839950038
 30
0.0
 40
14.42926807031698
100
AcDbArc
 50
241.9600323605
 51
271.1439066213
  0
LINE
  5
17E
330
1F
100
AcDbEntity
  8
0
  6
Continuous
 62
     7
370
    15
100
AcDbLine
 10
3704.926334025
 20
2517.71037302
 30
0.0
 11
3732.4029919975
 21
2501.8484360033
 31
0.0
  0
LWPOLYLINE
  5
17F
330
1F
100
AcDbEntity
  8
0
  6
Continuous
 62
     7
370
    15
100
AcDbPolyline
 90
       15
 70
   128
 43
0.0
 10
3704.9263392934
 20
2541.7944155061
 10
3702.7219537491
 20
2540.37041556
 10
3700.807617548
 20
2538.8128909081
 10
3699.2073965404
 20
2537.1414278906
 10
3697.9414369201
 20
2535.3770483688
 10
3697.0256175121
 20
2533.5419238367
 10
3696.4714760162
 20
2531.659150361
 10
3696.2859824675
 20
2529.7523927423
 10
3696.4714865529
 20
2527.8456472891
 10
3697.0256122437
 20
2525.9628646894
 10
3697.9414369201
 20
2524.1277492813
 10
3699.2074123455
 20
2522.3633667181
 10
3700.8076228163
 20
2520.6918976179
 10
3702.7219537491
 20
2519.1343699246
 10
3704.926334025
 20
2517.71037302
  0
LINE
  5
180
330
1F
100
AcDbEntity
  8
0
  6
Continuous
 62
     7
370
    15
100
AcDbLine
 10
3740.2816867821
 20
2562.2046231678
 30
0.0
 11
3704.9263392934
 21
2541.7944155061
 31
0.0
  0
ARC
  5
181
330
1F
100
AcDbEntity
  8
0
  6
Continuous
 62
     7
370
    15
100
AcDbCircle
 10
3746.9991990117
 20
2549.2398082198
 30
0.0
 40
14.60176007168554
100
AcDbArc
 50
62.6097875353
 51
117.3902124647
  0
LINE
  5
182
330
1F
100
AcDbEntity
  8
0
  6
Continuous
 62
     7
370
    15
100
AcDbLine
 10
3916.3512738645
 20
2468.317688605
 30
0.0
 11
3753.7167112413
 21
2562.2046231678
 31
0.0
  0
LWPOLYLINE
  5
183
330
1F
100
AcDbEntity
  8
0
  6
Continuous
 62
     7
370
    15
100
AcDbPolyline
 90
        9
 70
   128
 43
0.0
 10
3916.3512738645
 20
2460.5618140731
 10
3917.5327132486
 20
2461.3928710158
 10
3918.4105952245
 20
2462.3410171701
 10
3918.951207582
 20
2463.3698262004
 10
3919.1337508513
 20
2464.4397482977
 10
3918.9512181187
 20
2465.509670395
 10
3918.4106057613
 20
2466.5384733427
 10
3917.5327185169
 20
2467.486628621
 10
3916.3512738645
 20
2468.317688605
  0
LINE
  5
184
330
1F
100
AcDbEntity
  8
0
  6
Continuous
 62
     7
370
    15
100
AcDbLine
 10
3880.9959263758
 20
2440.1516064114
 30
0.0
 11
3916.3512738645
 21
2460.5618140731
 31
0.0
  0
LWPOLYLINE
  5
185
330
1F
100
AcDbEntity
  8
0
  6
Continuous
 62
     7
370
    15
100
AcDbPolyline
 90
       15
 70
   128
 43
0.0
 10
3839.2766207646
 20
2440.15160337
 10
3841.7433230256
 20
2438.879041724
 10
3844.4413324596
 20
2437.7739219996
 10
3847.3367155852
 20
2436.8501401581
 10
3850.3930469885
 20
2436.1193081012
 10
3853.5719045488
 20
2435.5906137691
 10
3856.8333330537
 20
2435.2707238168
 10
3860.136270936
 20
2435.1636345878
 10
3863.4392298918
 20
2435.2707177341
 10
3866.7006425916
 20
2435.5906168104
 10
3869.879515957
 20
2436.1193081012
 10
3872.9358420919
 20
2436.850131034
 10
3875.8312146808
 20
2437.7739189583
 10
3878.5292188464
 20
2438.879041724
 10
3880.9959263758
 20
2440.1516064114
  0
LINE
  5
186
330
1F
100
AcDbEntity
  8
0
  6
Continuous
 62
     7
370
    15
100
AcDbLine
 10
3811.7999627921
 20
2456.0135403867
 30
0.0
 11
3839.2766207646
 21
2440.15160337
 31
0.0
  0
ARC
  5
187
330
1F
100
AcDbEntity
  8
0
  6
Continuous
 62
     7
370
    15
100
AcDbCircle
 10
3813.8756652919
 20
2460.5946833726
 30
0.0
 40
5.029454436079749
100
AcDbArc
 50
185.6951119001
 51
245.6248586985
  0
LINE
  5
188
330
1F
100
AcDbEntity
  8
0
  6
Continuous
 62
     7
370
    15
100
AcDbLine
 10
3808.8710386777
 20
2465.1100771148
 30
0.0
 11
3808.8710360435
 21
2460.0955861769
 31
0.0
  0
ARC
  5
189
330
1F
100
AcDbEntity
  8
0
  6
Continuous
 62
     7
370
    15
100
AcDbCircle
 10
3803.8665029788
 20
2464.6110223072
 30
0.0
 40
5.029357142085804
100
AcDbArc
 50
5.6947371469
 51
65.6257571391
  0
LINE
  5
18A
330
1F
100
AcDbEntity
  8
0
  6
Continuous
 62
     7
370
    15
100
AcDbLine
 10
3755.2314162933
 20
2498.466760036
 30
0.0
 11
3805.9420934898
 21
2469.1921092189
 31
0.0
  0
ARC
  5
18B
330
1F
100
AcDbEntity
  8
0
  6
Continuous
 62
     7
370
    15
100
AcDbCircle
 10
3748.4484848881
 20
2485.7316440373
 30
0.0
 40
14.42883702685293
100
AcDbArc
 50
61.9595039571
 51
91.1441849483
  0
LINE
  5
18C
330
1F
100
AcDbEntity
  8
0
  6
Continuous
 62
     7
370
    15
100
AcDbLine
 10
3808.8710360435
 20
2457.2961580144
 30
0.0
 11
3808.8710360435
 21
2460.0955861769
 31
0.0
  0
ARC
  5
18D
330
1F
100
AcDbEntity
  8
0
  6
Continuous
 62
     7
370
    15
100
AcDbCircle
 10
3803.8665029788
 20
2457.2621522747
 30
0.0
 40
5.029357142086744
100
AcDbArc
 50
5.6947371469
 51
65.6257571391
  0
LINE
  5
18E
330
1F
100
AcDbEntity
  8
0
  6
Continuous
 62
     7
370
    15
100
AcDbLine
 10
3755.2314162933
 20
2491.1178900036
 30
0.0
 11
3805.9420934898
 21
2461.8432391865
 31
0.0
  0
ARC
  5
18F
330
1F
100
AcDbEntity
  8
0
  6
Continuous
 62
     7
370
    15
100
AcDbCircle
 10
3748.4484848881
 20
2478.3827740049
 30
0.0
 40
14.4288370268448
100
AcDbArc
 50
61.9595039571
 51
91.1441849483
  0
LINE
  5
190
330
1F
100
AcDbEntity
  8
0
  6
Continuous
 62
     7
370
    15
100
AcDbLine
 10
3747.354813046
 20
2492.8087325492
 30
0.0
 11
3748.1603631274
 21
2492.8087340699
 31
0.0
  0
LWPOLYLINE
  5
191
330
1F
100
AcDbEntity
  8
0
  6
Continuous
 62
     7
370
    15
100
AcDbPolyline
 90
       15
 70
   128
 43
0.0
 10
3715.1793767888
 20
1980.7179410695
 10
3717.6879150653
 20
1979.4238070767
 10
3720.43165383
 20
1978.2999525919
 10
3723.3760748138
 20
1977.3605138434
 10
3726.4842152307
 20
1976.6172912972
 10
3729.7169838786
 20
1976.0796401681
 10
3733.0336669019
 20
1975.7543244346
 10
3736.3926021408
 20
1975.6454195153
 10
3739.7515373797
 20
1975.7543244346
 10
3743.0681993296
 20
1976.0796523335
 10
3746.3009679775
 20
1976.6172791317
 10
3749.4090873209
 20
1977.3605138434
 10
3752.3535293782
 20
1978.2999647573
 10
3755.0972892162
 20
1979.4238070767
 10
3757.6058064193
 20
1980.7179289041
  0
LWPOLYLINE
  5
192
330
1F
100
AcDbEntity
  8
0
  6
Continuous
 62
     7
370
    15
100
AcDbPolyline
 90
       15
 70
   128
 43
0.0
 10
3715.1793767888
 20
1973.3690710371
 10
3717.6879150653
 20
1972.0749370443
 10
3720.43165383
 20
1970.9510825594
 10
3723.3760748138
 20
1970.0116438109
 10
3726.4842152307
 20
1969.2684212647
 10
3729.7169838786
 20
1968.7307701356
 10
3733.0336669019
 20
1968.4054544021
 10
3736.3926021408
 20
1968.2965494828
 10
3739.7515373797
 20
1968.4054544021
 10
3743.0681993296
 20
1968.730782301
 10
3746.3009679775
 20
1969.2684090993
 10
3749.4090873209
 20
1970.0116438109
 10
3752.3535293782
 20
1970.9510947249
 10
3755.0972892162
 20
1972.0749370443
 10
3757.6058064193
 20
1973.3690588716
  0
LWPOLYLINE
  5
193
330
1F
100
AcDbEntity
  8
0
  6
Continuous
 62
     7
370
    15
100
AcDbPolyline
 90
       15
 70
   128
 43
0.0
 10
3838.9230719258
 20
2439.9475039698
 10
3841.4315733239
 20
2438.6533669357
 10
3844.1753068202
 20
2437.5295154922
 10
3847.1197646825
 20
2436.590079785
 10
3850.2279050993
 20
2435.8468572388
 10
3853.4606368687
 20
2435.3092030684
 10
3856.7773515022
 20
2434.9838934175
 10
3860.1362762044
 20
2434.874994581
 10
3863.49522198
 20
2434.9838934175
 10
3866.8119050033
 20
2435.3092091511
 10
3870.0446420411
 20
2435.8468541975
 10
3873.1527824579
 20
2436.5900767437
 10
3876.0972350519
 20
2437.5295215749
 10
3878.8409738165
 20
2438.6533760597
 10
3881.3494804829
 20
2439.9475039698
  0
LINE
  5
194
330
1F
100
AcDbEntity
  8
0
  6
Continuous
 62
     7
370
    15
100
AcDbLine
 10
3916.7048279716
 20
2460.3577116315
 30
0.0
 11
3881.3494804829
 21
2439.9475039698
 31
0.0
  0
LWPOLYLINE
  5
195
330
1F
100
AcDbEntity
  8
0
  6
Continuous
 62
     7
370
    15
100
AcDbPolyline
 90
        9
 70
   128
 43
0.0
 10
3916.7048227033
 20
2468.5217880053
 10
3917.9484392256
 20
2467.6469780976
 10
3918.8725457576
 20
2466.6489293541
 10
3919.4415914328
 20
2465.5659750412
 10
3919.6337441835
 20
2464.4397452564
 10
3919.4416019695
 20
2463.3135154715
 10
3918.872551026
 20
2462.2305641999
 10
3917.9484444939
 20
2461.2325093737
 10
3916.7048279716
 20
2460.3577116315
  0
LINE
  5
196
330
1F
100
AcDbEntity
  8
0
  6
Continuous
 62
     7
370
    15
100
AcDbLine
 10
3754.0702600801
 20
2562.408722568
 30
0.0
 11
3916.7048227033
 21
2468.5217880053
 31
0.0
  0
ARC
  5
197
330
1F
100
AcDbEntity
  8
0
  6
Continuous
 62
     7
370
    15
100
AcDbCircle
 10
3746.9991934426
 20
2548.7615839358
 30
0.0
 40
15.37024320685548
100
AcDbArc
 50
62.609723769
 51
117.3902515873
  0
LINE
  5
198
330
1F
100
AcDbEntity
  8
0
  6
Continuous
 62
     7
370
    15
100
AcDbLine
 10
3739.928132675
 20
2562.4087256094
 30
0.0
 11
3704.5727851863
 21
2541.9985179476
 31
0.0
  0
LWPOLYLINE
  5
199
330
1F
100
AcDbEntity
  8
0
  6
Continuous
 62
     7
370
    15
100
AcDbPolyline
 90
       15
 70
   128
 43
0.0
 10
3704.5727851863
 20
2541.9985179476
 10
3702.3310469975
 20
2540.5503878735
 10
3700.3842629914
 20
2538.9664611995
 10
3698.7569204868
 20
2537.2666648982
 10
3697.4694817788
 20
2535.4723736281
 10
3696.5381523305
 20
2533.6061542598
 10
3695.9746278925
 20
2531.6914739055
 10
3695.7859891353
 20
2529.7523957837
 10
3695.9746278925
 20
2527.8133298273
 10
3696.5381417938
 20
2525.8986312249
 10
3697.4694870471
 20
2524.032414898
 10
3698.7569257552
 20
2522.2381236279
 10
3700.3842524547
 20
2520.5383242852
 10
3702.3310311925
 20
2518.9544006526
 10
3704.5727851863
 20
2517.5062736197
  0
LINE
  5
19A
330
1F
100
AcDbEntity
  8
0
  6
Continuous
 62
     7
370
    15
100
AcDbLine
 10
3704.5727851863
 20
2517.5062736197
 30
0.0
 11
3838.9230719258
 21
2439.9475039698
 31
0.0
  0
LINE
  5
19B
330
1F
100
AcDbEntity
  8
0
  6
Continuous
 62
     7
370
    15
100
AcDbLine
 10
3474.76308973
 20
2772.6338085643
 30
0.0
 11
4280.8648101674
 21
2307.2811906648
 31
0.0
  0
LWPOLYLINE
  5
19C
330
1F
100
AcDbEntity
  8
0
  6
Continuous
 62
     7
370
    15
100
AcDbPolyline
 90
       15
 70
   128
 43
0.0
 10
4280.8648101674
 20
2307.2811906648
 10
4283.1065588929
 20
2305.8330423425
 10
4285.053342899
 20
2304.2491156685
 10
4286.6806748669
 20
2302.5493376153
 10
4287.9681135749
 20
2300.7550463452
 10
4288.8994535599
 20
2298.8888087288
 10
4289.4629779979
 20
2296.9741283745
 10
4289.6516272918
 20
2295.0350563354
 10
4289.4629779979
 20
2293.0959842963
 10
4288.8994324865
 20
2291.1813161075
 10
4287.9681346483
 20
2289.315078491
 10
4286.6806748669
 20
2287.5207993864
 10
4285.0533218256
 20
2285.8210091678
 10
4283.1065588929
 20
2284.2370703283
 10
4280.8648312409
 20
2282.7889341714
  0
LINE
  5
19D
330
1F
100
AcDbEntity
  8
0
  6
Continuous
 62
     7
370
    15
100
AcDbLine
 10
3757.6058064193
 20
1980.7179289041
 30
0.0
 11
4280.8648312409
 21
2282.7889341714
 31
0.0
  0
LINE
  5
19E
330
1F
100
AcDbEntity
  8
0
  6
Continuous
 62
     7
370
    15
100
AcDbLine
 10
2909.0776563514
 20
2446.0705589691
 30
0.0
 11
3715.1793767888
 21
1980.7179410695
 31
0.0
  0
LWPOLYLINE
  5
19F
330
1F
100
AcDbEntity
  8
0
  6
Continuous
 62
     7
370
    15
100
AcDbPolyline
 90
       15
 70
   128
 43
0.0
 10
2909.0776563514
 20
2446.0705589691
 10
2906.835907626
 20
2447.5187072914
 10
2904.8891236198
 20
2449.1026339654
 10
2903.261791652
 20
2450.8024120186
 10
2901.9743529439
 20
2452.5967032887
 10
2901.043012959
 20
2454.4629409051
 10
2900.4794885209
 20
2456.3776212593
 10
2900.290839227
 20
2458.3166932985
 10
2900.4794885209
 20
2460.2557653376
 10
2901.0430340324
 20
2462.1704335264
 10
2901.9743318705
 20
2464.0366711428
 10
2903.261791652
 20
2465.8309502475
 10
2904.8891446932
 20
2467.5307404661
 10
2906.835907626
 20
2469.1146793055
 10
2909.077635278
 20
2470.5628154624
  0
LINE
  5
1A0
330
1F
100
AcDbEntity
  8
0
  6
Continuous
 62
     7
370
    15
100
AcDbLine
 10
2909.077635278
 20
2470.5628154624
 30
0.0
 11
3432.3366600995
 21
2772.6338207298
 31
0.0
  0
LWPOLYLINE
  5
1A1
330
1F
100
AcDbEntity
  8
0
  6
Continuous
 62
     7
370
    15
100
AcDbPolyline
 90
       15
 70
   128
 43
0.0
 10
3432.3366600995
 20
2772.6338207298
 10
3434.8451773026
 20
2773.9279425571
 10
3437.5889371407
 20
2775.0517848765
 10
3440.5333791979
 20
2775.9912357905
 10
3443.6414985414
 20
2776.7344705021
 10
3446.8742671893
 20
2777.2720973003
 10
3450.1909291391
 20
2777.5974251993
 10
3453.5498643781
 20
2777.7063301186
 10
3456.908799617
 20
2777.5974251993
 10
3460.2254826403
 20
2777.2721094658
 10
3463.4582512882
 20
2776.7344583367
 10
3466.566391705
 20
2775.9912357905
 10
3469.5108126889
 20
2775.0517970419
 10
3472.2545514535
 20
2773.9279425571
 10
3474.76308973
 20
2772.6338085643
  0
LWPOLYLINE
  5
1A2
330
1F
100
AcDbEntity
  8
0
  6
Continuous
 62
     7
370
    15
100
AcDbPolyline
 90
       25
 70
   128
 43
0.0
 10
3485.0161324938
 20
2713.2401288428
 10
3486.1552142951
 20
2712.7355433494
 10
3487.4817020583
 20
2712.4183419569
 10
3488.9052118668
 20
2712.3101669634
 10
3490.3287216752
 20
2712.4183419569
 10
3491.6552094384
 20
2712.7355433494
 10
3492.7943123131
 20
2713.2401166774
 10
3493.6683536575
 20
2713.8977067698
 10
3494.2178221216
 20
2714.6634718557
 10
3494.40520701
 20
2715.4852465761
 10
3494.2178010481
 20
2716.3070091312
 10
3493.6683536575
 20
2717.0727863825
 10
3492.7942912397
 20
2717.7303643095
 10
3491.6552094384
 20
2718.2349498029
 10
3490.3287216752
 20
2718.5521268645
 10
3488.9052118668
 20
2718.6603261889
 10
3487.4817231317
 20
2718.5521390299
 10
3486.1552142951
 20
2718.2349498029
 10
3485.0161324938
 20
2717.7303643095
 10
3484.142070076
 20
2717.0727863825
 10
3483.5926226854
 20
2716.3070091312
 10
3483.4052167235
 20
2715.4852465761
 10
3483.5926226854
 20
2714.6634596903
 10
3484.142070076
 20
2713.8977067698
 10
3485.0161324938
 20
2713.2401288428
  0
LWPOLYLINE
  5
1A3
330
1F
100
AcDbEntity
  8
0
  6
Continuous
 62
     7
370
    15
100
AcDbPolyline
 90
       25
 70
   128
 43
0.0
 10
4177.9807915436
 20
2313.2001462638
 10
4179.1198733449
 20
2312.6955607704
 10
4180.4463400347
 20
2312.3783715434
 10
4181.8698709166
 20
2312.2701843844
 10
4183.2933596516
 20
2312.3783715434
 10
4184.6198684882
 20
2312.6955607704
 10
4185.7589502895
 20
2313.2001462638
 10
4186.6330127073
 20
2313.8577241908
 10
4187.1824600979
 20
2314.6235014421
 10
4187.3698660598
 20
2315.4452639971
 10
4187.1824390245
 20
2316.2670387176
 10
4186.6330127073
 20
2317.0328038035
 10
4185.7589502895
 20
2317.6903817305
 10
4184.6198684882
 20
2318.1949672239
 10
4183.2933596516
 20
2318.5121564509
 10
4181.8698709166
 20
2318.6203436099
 10
4180.4463611081
 20
2318.5121686163
 10
4179.1198733449
 20
2318.1949672239
 10
4177.9807704702
 20
2317.6903938959
 10
4177.1067291258
 20
2317.0328038035
 10
4176.5572606618
 20
2316.2670387176
 10
4176.3698757733
 20
2315.4452639971
 10
4176.5572606618
 20
2314.6234892767
 10
4177.1067291258
 20
2313.8577241908
 10
4177.9807915436
 20
2313.2001462638
  0
ARC
  5
1A4
330
1F
100
AcDbEntity
  8
0
  6
Continuous
 62
     7
370
    15
100
AcDbCircle
 10
3736.3926033437
 20
1998.3530208729
 30
0.0
 40
32.27751331710837
100
AcDbArc
 50
242.6096797118
 51
297.3902733479
  0
LINE
  5
1A5
330
1F
100
AcDbEntity
  8
0
  6
Continuous
 62
     7
370
    15
100
AcDbLine
 10
2909.0776563514
 20
2438.7216889366
 30
0.0
 11
3715.1793767888
 21
1973.3690710371
 31
0.0
  0
LINE
  5
1A6
330
1F
100
AcDbEntity
  8
0
  6
Continuous
 62
     7
370
    15
100
AcDbLine
 10
3757.6058064193
 20
1973.3690588716
 30
0.0
 11
4280.8648312409
 21
2275.440064139
 31
0.0
  0
LINE
  5
1A7
330
1F
100
AcDbEntity
  8
0
  6
Continuous
 62
     7
370
    15
100
AcDbLine
 10
2915.4416197423
 20
2435.0466567699
 30
0.0
 11
2909.0776563514
 21
2438.7216889366
 31
0.0
  0
LINE
  5
1A8
330
1F
100
AcDbEntity
  8
0
  6
Continuous
 62
     7
370
    15
100
AcDbLine
 10
3721.5433401797
 20
1969.6940388703
 30
0.0
 11
2915.4416197423
 21
2435.0466567699
 31
0.0
  0
LINE
  5
1A9
330
1F
100
AcDbEntity
  8
0
  6
Continuous
 62
     7
370
    15
100
AcDbLine
 10
4280.8648312409
 20
2275.440064139
 30
0.0
 11
4274.50086785
 21
2271.7650319722
 31
0.0
  0
LINE
  5
1AA
330
1F
100
AcDbEntity
  8
0
  6
Continuous
 62
     7
370
    15
100
AcDbLine
 10
4274.50086785
 20
2271.7650319722
 30
0.0
 11
3751.2418430284
 21
1969.6940267049
 31
0.0
  0
LWPOLYLINE
  5
1AB
330
1F
100
AcDbEntity
  8
0
  6
Continuous
 62
     7
370
    15
100
AcDbPolyline
 90
        8
 70
   128
 43
0.0
 10
4280.8648312409
 20
2275.440064139
 10
4283.1065588929
 20
2276.8882002959
 10
4285.0533218256
 20
2278.4721391353
 10
4286.6806748669
 20
2280.1719293539
 10
4287.9681346483
 20
2281.9662084586
 10
4288.8994324865
 20
2283.832446075
 10
4289.4629779979
 20
2285.7471142638
 10
4289.6516272918
 20
2287.6861863029
  0
LWPOLYLINE
  5
1AC
330
1F
100
AcDbEntity
  8
0
  6
Continuous
 62
     7
370
    15
100
AcDbPolyline
 90
        8
 70
   128
 43
0.0
 10
2900.290839227
 20
2450.967823266
 10
2900.4794885209
 20
2449.0287512269
 10
2901.043012959
 20
2447.1140708726
 10
2901.9743529439
 20
2445.2478332562
 10
2903.261791652
 20
2443.4535419861
 10
2904.8891236198
 20
2441.7537639329
 10
2906.835907626
 20
2440.1698372589
 10
2909.0776563514
 20
2438.7216889366
  0
ARC
  5
1AD
330
1F
100
AcDbEntity
  8
0
  6
Continuous
 62
     7
370
    15
100
AcDbCircle
 10
3714.6733238573
 20
1431.599235606
 30
0.0
 40
11.62677127000137
100
AcDbArc
 50
244.3653399345
 51
295.6343829216
  0
ARC
  5
1AE
330
1F
100
AcDbEntity
  8
0
  6
Continuous
 62
     7
370
    15
100
AcDbCircle
 10
3700.8871896131
 20
1414.4952700836
 30
0.0
 40
11.23972909831373
100
AcDbArc
 50
127.2975360036
 51
176.1153504044
  0
LWPOLYLINE
  5
1AF
330
1F
100
AcDbEntity
  8
0
  6
Continuous
 62
     7
370
    15
100
AcDbPolyline
 90
       34
 70
   128
 43
0.0
 10
3735.2701894181
 20
1423.4364815828
 10
3736.1993588404
 20
1422.595947771
 10
3737.5519355028
 20
1421.0746852211
 10
3738.5833110327
 20
1419.4717439818
 10
3739.2790501345
 20
1417.8096422618
 10
3739.6293958127
 20
1416.1117011884
 10
3739.6293747393
 20
1414.4017650022
 10
3739.2790501345
 20
1412.7038117633
 10
3738.5833321061
 20
1411.041697878
 10
3737.5519144293
 20
1409.4387809695
 10
3736.1994009872
 20
1407.9175062542
 10
3734.5446524944
 20
1406.4992727215
 10
3732.6109761581
 20
1405.2039586821
 10
3730.425472402
 20
1404.0497879485
 10
3728.0188452052
 20
1403.0529283757
 10
3725.424938487
 20
1402.2273702068
 10
3722.6800406841
 20
1401.5847192611
 10
3719.8227372361
 20
1401.1340144522
 10
3716.8931730164
 20
1400.8815453068
 10
3713.9324833491
 20
1400.8308641301
 10
3710.982140733
 20
1400.9827008479
 10
3708.0836176672
 20
1401.3349143446
 10
3705.2775858605
 20
1401.8825654563
 10
3702.6034736896
 20
1402.6179534663
 10
3700.0987918497
 20
1403.530762091
 10
3697.7987329594
 20
1404.6081689684
 10
3695.7354972108
 20
1405.8350889666
 10
3693.938144856
 20
1407.1942350113
 10
3692.4318586371
 20
1408.6665682063
 10
3691.2377962719
 20
1410.2314073224
 10
3690.3727322063
 20
1411.8668059259
 10
3689.848783659
 20
1413.5497835218
 10
3689.6732841818
 20
1415.256739178
 10
3689.6732841818
 20
1415.256739178
  0
LWPOLYLINE
  5
1B0
330
1F
100
AcDbEntity
  8
0
  6
Continuous
 62
     7
370
    15
100
AcDbPolyline
 90
       29
 70
   128
 43
0.0
 10
3739.673270682
 20
1411.1740352574
 10
3739.6293747393
 20
1410.3190610815
 10
3739.2790501345
 20
1408.6211078427
 10
3738.5833321061
 20
1406.9589939573
 10
3737.5519144293
 20
1405.3560770488
 10
3736.1994009872
 20
1403.8348023335
 10
3734.5446524944
 20
1402.4165688008
 10
3732.6109761581
 20
1401.1212547614
 10
3730.425472402
 20
1399.9670840278
 10
3728.0188452052
 20
1398.970224455
 10
3725.424938487
 20
1398.1446662862
 10
3722.6800406841
 20
1397.5020153405
 10
3719.8227372361
 20
1397.0513105316
 10
3716.8931730164
 20
1396.7988413861
 10
3713.9324833491
 20
1396.7481602094
 10
3710.982140733
 20
1396.8999969272
 10
3708.0836176672
 20
1397.252210424
 10
3705.2775858605
 20
1397.7998615356
 10
3702.6034736896
 20
1398.5352495456
 10
3700.0987918497
 20
1399.4480581704
 10
3697.7987329594
 20
1400.5254650477
 10
3695.7354972108
 20
1401.752385046
 10
3693.938144856
 20
1403.1115310907
 10
3692.4318586371
 20
1404.5838642856
 10
3691.2377962719
 20
1406.1487034017
 10
3690.3727322063
 20
1407.7841020053
 10
3689.848783659
 20
1409.4670796012
 10
3689.6732841818
 20
1411.1740352574
 10
3689.6732841818
 20
1411.1740352574
  0
ARC
  5
1B1
330
1F
100
AcDbEntity
  8
0
  6
Continuous
 62
     7
370
    15
100
AcDbCircle
 10
2953.8459041009
 20
1869.9564762884
 30
0.0
 40
10.87244524105327
100
AcDbArc
 50
243.7597939602
 51
271.1751785113
  0
ARC
  5
1B2
330
1F
100
AcDbEntity
  8
0
  6
Continuous
 62
     7
370
    15
100
AcDbCircle
 10
2954.291700359
 20
1869.9574809153
 30
0.0
 40
10.87344604585963
100
AcDbArc
 50
268.8258580166
 51
296.238641323
  0
LWPOLYLINE
  5
1B3
330
1F
100
AcDbEntity
  8
0
  6
Continuous
 62
     7
370
    15
100
AcDbPolyline
 90
       20
 70
   128
 43
0.0
 10
2954.0689113746
 20
1839.912104556
 10
2951.1120570705
 20
1840.0134182477
 10
2948.1967384856
 20
1840.3158873058
 10
2945.3638380629
 20
1840.815278161
 10
2942.6531635009
 20
1841.5045956919
 10
2940.102731257
 20
1842.374156217
 10
2937.7483661523
 20
1843.4117456457
 10
2935.6230480959
 20
1844.6028262905
 10
2933.7567224235
 20
1845.9306220249
 10
2932.1755201814
 20
1847.3765440738
 10
2930.9016527586
 20
1848.9202761708
 10
2929.9529904189
 20
1850.5401638525
 10
2929.3428726398
 20
1852.2134456016
 10
2929.0798552317
 20
1853.9166421403
 10
2929.1676471171
 20
1855.6258119045
 10
2929.6049838907
 20
1857.3170133304
 10
2930.3857121125
 20
1858.9664995006
 10
2931.4989368222
 20
1860.5510952731
 10
2932.9290004656
 20
1862.0485257478
 10
2933.4720204618
 20
1862.5240480317
  0
LWPOLYLINE
  5
1B4
330
1F
100
AcDbEntity
  8
0
  6
Continuous
 62
     7
370
    15
100
AcDbPolyline
 90
       20
 70
   128
 43
0.0
 10
2974.8006722026
 20
1862.4096686694
 10
2975.2088012102
 20
1862.0485379133
 10
2976.6388437801
 20
1860.5510709423
 10
2977.752026343
 20
1858.9664995006
 10
2978.5327967117
 20
1857.3170376612
 10
2978.9701334852
 20
1855.6258119045
 10
2979.0579042973
 20
1853.9166299749
 10
2978.7949079626
 20
1852.2134212708
 10
2978.1847691101
 20
1850.540176018
 10
2977.2361278438
 20
1848.9202761708
 10
2975.9622393476
 20
1847.3765562392
 10
2974.3810581788
 20
1845.9306220249
 10
2972.5147325065
 20
1844.6028019596
 10
2970.3894355235
 20
1843.4117578111
 10
2968.0350493454
 20
1842.374156217
 10
2965.4846171014
 20
1841.5045956919
 10
2962.7739425395
 20
1840.815278161
 10
2959.9410421168
 20
1840.3158873058
 10
2957.0257235319
 20
1840.0133939168
 10
2954.0689113746
 20
1839.912104556
  0
LWPOLYLINE
  5
1B5
330
1F
100
AcDbEntity
  8
0
  6
Continuous
 62
     7
370
    15
100
AcDbPolyline
 90
       15
 70
   128
 43
0.0
 10
2954.0689113746
 20
1835.8294006354
 10
2951.1120570705
 20
1835.930714327
 10
2948.1967384856
 20
1836.2331833851
 10
2945.3638380629
 20
1836.7325742404
 10
2942.6531635009
 20
1837.4218917713
 10
2940.102731257
 20
1838.2914522963
 10
2937.7483661523
 20
1839.329041725
 10
2935.6230480959
 20
1840.5201223698
 10
2933.7567224235
 20
1841.8479181043
 10
2932.1755201814
 20
1843.2938401531
 10
2930.9016527586
 20
1844.8375722501
 10
2929.9529904189
 20
1846.4574599319
 10
2929.3428726398
 20
1848.130741681
 10
2929.0798552317
 20
1849.8339382196
 10
2929.0689181245
 20
1850.2615895409
  0
LWPOLYLINE
  5
1B6
330
1F
100
AcDbEntity
  8
0
  6
Continuous
 62
     7
370
    15
100
AcDbPolyline
 90
       15
 70
   128
 43
0.0
 10
2979.0689046247
 20
1850.2615895409
 10
2979.0579042973
 20
1849.8339260542
 10
2978.7949079626
 20
1848.1307173501
 10
2978.1847691101
 20
1846.4574720973
 10
2977.2361278438
 20
1844.8375722501
 10
2975.9622393476
 20
1843.2938523186
 10
2974.3810581788
 20
1841.8479181043
 10
2972.5147325065
 20
1840.520098039
 10
2970.3894355235
 20
1839.3290538905
 10
2968.0350493454
 20
1838.2914522963
 10
2965.4846171014
 20
1837.4218917713
 10
2962.7739425395
 20
1836.7325742404
 10
2959.9410421168
 20
1836.2331833851
 10
2957.0257235319
 20
1835.9306899962
 10
2954.0689113746
 20
1835.8294006354
  0
ARC
  5
1B7
330
1F
100
AcDbEntity
  8
0
  6
Continuous
 62
     7
370
    15
100
AcDbCircle
 10
4235.8735994088
 20
1732.4639756687
 30
0.0
 40
11.61074673872576
100
AcDbArc
 50
244.3273997535
 51
295.6724616749
  0
LWPOLYLINE
  5
1B8
330
1F
100
AcDbEntity
  8
0
  6
Continuous
 62
     7
370
    15
100
AcDbPolyline
 90
       38
 70
   128
 43
0.0
 10
4256.4704671304
 20
1724.3189974417
 10
4257.7669463375
 20
1723.1070044246
 10
4259.0408137603
 20
1721.5632723276
 10
4259.9894761
 20
1719.9433846459
 10
4260.599593879
 20
1718.2701028968
 10
4260.8626112872
 20
1716.5669063581
 10
4260.7748194017
 20
1714.8577365939
 10
4260.3374826281
 20
1713.1665351681
 10
4259.5567544063
 20
1711.5170489979
 10
4258.4435296966
 20
1709.9324532253
 10
4257.0134660532
 20
1708.4350227506
 10
4255.2866675229
 20
1707.0457064423
 10
4253.2873685435
 20
1705.7840419792
 10
4251.0435756959
 20
1704.6677543911
 10
4248.5868569696
 20
1703.7124884196
 10
4245.9516463399
 20
1702.931699029
 10
4243.17501196
 20
1702.3362742782
 10
4240.2958342977
 20
1701.9346448093
 10
4237.3545743275
 20
1701.7324067197
 10
4234.3925570344
 20
1701.7323945543
 10
4231.4513181377
 20
1701.9346448093
 10
4228.5721615488
 20
1702.3362864436
 10
4225.795485022
 20
1702.9316868636
 10
4223.1602954657
 20
1703.7125127505
 10
4220.7035767394
 20
1704.6677543911
 10
4218.4598260387
 20
1705.7840419792
 10
4216.4604849125
 20
1707.0457064423
 10
4214.7336653087
 20
1708.4350105851
 10
4213.3036227387
 20
1709.9324775561
 10
4212.1904401758
 20
1711.5170489979
 10
4211.4096698072
 20
1713.1665108372
 10
4210.9723330336
 20
1714.8577365939
 10
4210.8845622216
 20
1716.5669185236
 10
4211.1475585563
 20
1718.2701272277
 10
4211.7576974088
 20
1719.9433724805
 10
4212.706338675
 20
1721.5632723276
 10
4213.9802271713
 20
1723.1069922592
 10
4215.1417943162
 20
1724.2046059139
  0
LWPOLYLINE
  5
1B9
330
1F
100
AcDbEntity
  8
0
  6
Continuous
 62
     7
370
    15
100
AcDbPolyline
 90
       28
 70
   128
 43
0.0
 10
4260.8735483944
 20
1712.0565511163
 10
4260.7748194017
 20
1710.7750326732
 10
4260.3374826281
 20
1709.0838312474
 10
4259.5567544063
 20
1707.4343450772
 10
4258.4435296966
 20
1705.8497493046
 10
4257.0134660532
 20
1704.3523188299
 10
4255.2866675229
 20
1702.9630025216
 10
4253.2873685435
 20
1701.7013380585
 10
4251.0435756959
 20
1700.5850504704
 10
4248.5868569696
 20
1699.629784499
 10
4245.9516463399
 20
1698.8489951084
 10
4243.17501196
 20
1698.2535703576
 10
4240.2958342977
 20
1697.8519408887
 10
4237.3545743275
 20
1697.6497027991
 10
4234.3925570344
 20
1697.6496906337
 10
4231.4513181377
 20
1697.8519408887
 10
4228.5721615488
 20
1698.253582523
 10
4225.795485022
 20
1698.8489829429
 10
4223.1602954657
 20
1699.6298088298
 10
4220.7035767394
 20
1700.5850504704
 10
4218.4598260387
 20
1701.7013380585
 10
4216.4604849125
 20
1702.9630025216
 10
4214.7336653087
 20
1704.3523066645
 10
4213.3036227387
 20
1705.8497736355
 10
4212.1904401758
 20
1707.4343450772
 10
4211.4096698072
 20
1709.0838069166
 10
4210.9723330336
 20
1710.7750326732
 10
4210.8735618941
 20
1712.0565511163
  0
LINE
  5
1BA
330
1F
100
AcDbEntity
  8
0
  6
Continuous
 62
     7
370
    15
100
AcDbLine
 10
3694.6732701878
 20
1423.4616403252
 30
0.0
 11
3694.6732912612
 21
1985.2057934095
 31
0.0
  0
ELLIPSE
  5
1BB
330
1F
100
AcDbEntity
  8
0
  6
Continuous
 62
     7
370
    15
100
AcDbEllipse
 10
3698.6732894067
 20
1423.4616398974
 30
0.0
 11
4.0
 21
0.0
 31
0.0
210
0.0
220
0.0
230
1.0
 40
0.5861933056
 41
3.141592653589914
 42
4.712388980384698
  0
LINE
  5
1BC
330
1F
100
AcDbEntity
  8
0
  6
Continuous
 62
     7
370
    15
100
AcDbLine
 10
3730.6733169447
 20
1421.1168633985
 30
0.0
 11
3698.6733011394
 21
1421.1168512331
 31
0.0
  0
LINE
  5
1BD
330
1F
100
AcDbEntity
  8
0
  6
Continuous
 62
     7
370
    15
100
AcDbLine
 10
3734.6732846761
 20
1966.1839660291
 30
0.0
 11
3734.6733057495
 21
1423.4616281598
 31
0.0
  0
ELLIPSE
  5
1BE
330
1F
100
AcDbEntity
  8
0
  6
Continuous
 62
     7
370
    15
100
AcDbEllipse
 10
3730.6732894067
 20
1423.4616398974
 30
0.0
 11
4.000000000000455
 21
0.0
 31
0.0
210
0.0
220
0.0
230
1.0
 40
0.5861933056
 41
4.712388980384698
 42
6.283185307179586
  0
LINE
  5
1BF
330
1F
100
AcDbEntity
  8
0
  6
Continuous
 62
     7
370
    15
100
AcDbLine
 10
4072.1931184753
 20
2154.9752306008
 30
0.0
 11
4215.8735689735
 21
1721.9994035883
 31
0.0
  0
LINE
  5
1C0
330
1F
100
AcDbEntity
  8
0
  6
Continuous
 62
     7
370
    15
100
AcDbLine
 10
4215.8735689735
 20
1721.9994035883
 30
0.0
 11
4251.8118916708
 21
1721.9993792574
 31
0.0
  0
ELLIPSE
  5
1C1
330
1F
100
AcDbEntity
  8
0
  6
Continuous
 62
     7
370
    15
100
AcDbEllipse
 10
4251.8118703479
 20
1724.3085389684
 30
0.0
 11
4.061706447541837
 21
0.0
 31
0.0
210
0.0
220
0.0
230
1.0
 40
0.5685174146
 41
4.712388980384698
 42
6.283185307179586
  0
LINE
  5
1C2
330
1F
100
AcDbEntity
  8
0
  6
Continuous
 62
     7
370
    15
100
AcDbLine
 10
4255.8736045352
 20
1742.7817395539
 30
0.0
 11
4255.8735834618
 21
1724.3085236429
 31
0.0
  0
ELLIPSE
  5
1C3
330
1F
100
AcDbEntity
  8
0
  6
Continuous
 62
     7
370
    15
100
AcDbEllipse
 10
4251.8118703479
 20
1742.7817457552
 30
0.0
 11
4.061706447542747
 21
0.0
 31
0.0
210
0.0
220
0.0
230
1.0
 40
0.5685174146
 41
0.0
 42
0.1221565840281681
  0
LINE
  5
1C4
330
1F
100
AcDbEntity
  8
0
  6
Continuous
 62
     7
370
    15
100
AcDbLine
 10
3124.7330070849
 20
2314.2253251574
 30
0.0
 11
2974.0688975453
 21
1860.2044420129
 31
0.0
  0
LINE
  5
1C5
330
1F
100
AcDbEntity
  8
0
  6
Continuous
 62
     7
370
    15
100
AcDbLine
 10
2974.0688975453
 20
1860.2044420129
 30
0.0
 11
2938.1305959215
 21
1860.2044298475
 31
0.0
  0
ELLIPSE
  5
1C6
330
1F
100
AcDbEntity
  8
0
  6
Continuous
 62
     7
370
    15
100
AcDbEllipse
 10
2938.130596171
 20
1862.5135912188
 30
0.0
 11
4.061706447542747
 21
0.0
 31
0.0
210
0.0
220
0.0
230
1.0
 40
0.5685174146
 41
3.141592653589793
 42
4.712388980384698
  0
LINE
  5
1C7
330
1F
100
AcDbEntity
  8
0
  6
Continuous
 62
     7
370
    15
100
AcDbLine
 10
2934.0688619836
 20
1862.5135985638
 30
0.0
 11
2934.068883057
 21
1880.9868144748
 31
0.0
  0
ELLIPSE
  5
1C8
330
1F
100
AcDbEntity
  8
0
  6
Continuous
 62
     7
370
    15
100
AcDbEllipse
 10
2938.130596171
 20
1880.9867980056
 30
0.0
 11
4.061706447543202
 21
0.0
 31
0.0
210
0.0
220
0.0
230
1.0
 40
0.5685174146
 41
3.019436069561501
 42
3.141592653589793
  0
ENDSEC
  0
SECTION
  2
OBJECTS
  0
DICTIONARY
  5
C
330
0
100
AcDbDictionary
281
     1
  3
ACAD_GROUP
350
D
  3
ACAD_LAYOUT
350
1A
  3
ACAD_MLINESTYLE
350
17
  3
ACAD_PLOTSETTINGS
350
19
  3
ACAD_PLOTSTYLENAME
350
E
  3
ACAD_SCALELIST
350
47
  0
DICTIONARY
  5
D
102
{ACAD_REACTORS
330
C
102
}
330
C
100
AcDbDictionary
281
     1
  0
DICTIONARY
  5
1A
102
{ACAD_REACTORS
330
C
102
}
330
C
100
AcDbDictionary
281
     1
  3
Layout1
350
1E
  3
Layout2
350
26
  3
Model
350
22
  0
DICTIONARY
  5
17
102
{ACAD_REACTORS
330
C
102
}
330
C
100
AcDbDictionary
281
     1
  3
Standard
350
18
  0
DICTIONARY
  5
19
102
{ACAD_REACTORS
330
C
102
}
330
C
100
AcDbDictionary
281
     1
  0
ACDBDICTIONARYWDFLT
  5
E
102
{ACAD_REACTORS
330
C
102
}
330
C
100
AcDbDictionary
281
     1
  3
Normal
350
F
100
AcDbDictionaryWithDefault
340
F
  0
DICTIONARY
  5
47
102
{ACAD_REACTORS
330
C
102
}
330
C
100
AcDbDictionary
281
     1
  3
A0
350
48
  3
A1
350
49
  3
A2
350
4A
  3
A3
350
4B
  3
A4
350
4C
  3
A5
350
4D
  3
A6
350
4E
  3
A7
350
4F
  3
A8
350
50
  3
A9
350
51
  3
B0
350
52
  3
B1
350
53
  3
B2
350
54
  3
B3
350
55
  3
B4
350
56
  3
B5
350
57
  3
B6
350
58
  3
B7
350
59
  3
B8
350
5A
  3
B9
350
5B
  3
C0
350
5C
  3
C1
350
5D
  3
C2
350
5E
  3
C3
350
5F
  3
C4
350
60
  3
C5
350
61
  3
C6
350
62
  3
C7
350
63
  3
C8
350
64
  3
C9
350
65
  3
D0
350
66
  3
D1
350
67
  3
D2
350
68
  0
LAYOUT
  5
1E
102
{ACAD_REACTORS
330
1A
102
}
330
1A
100
AcDbPlotSettings
  1

  2
none_device
  4

  6

 40
0.0
 41
0.0
 42
0.0
 43
0.0
 44
0.0
 45
0.0
 46
0.0
 47
0.0
 48
0.0
 49
0.0
140
0.0
141
0.0
142
1.0
143
1.0
 70
   688
 72
     1
 73
     0
 74
     5
  7

 75
    16
147
1.0
148
0.0
149
0.0
100
AcDbLayout
  1
Layout1
 70
     1
 71
     1
 10
0.0
 20
0.0
 11
420.0
 21
297.0
 12
0.0
 22
0.0
 32
0.0
 14
1.0000000000E+20
 24
1.0000000000E+20
 34
1.0000000000E+20
 15
-1.0000000000E+20
 25
-1.0000000000E+20
 35
-1.0000000000E+20
146
0.0
 13
0.0
 23
0.0
 33
0.0
 16
1.0
 26
0.0
 36
0.0
 17
0.0
 27
1.0
 37
0.0
 76
     0
330
1B
  0
LAYOUT
  5
26
102
{ACAD_REACTORS
330
1A
102
}
330
1A
100
AcDbPlotSettings
  1

  2
none_device
  4

  6

 40
0.0
 41
0.0
 42
0.0
 43
0.0
 44
0.0
 45
0.0
 46
0.0
 47
0.0
 48
0.0
 49
0.0
140
0.0
141
0.0
142
1.0
143
1.0
 70
   688
 72
     1
 73
     0
 74
     5
  7

 75
    16
147
1.0
148
0.0
149
0.0
100
AcDbLayout
  1
Layout2
 70
     1
 71
     2
 10
0.0
 20
0.0
 11
0.0
 21
0.0
 12
0.0
 22
0.0
 32
0.0
 14
0.0
 24
0.0
 34
0.0
 15
0.0
 25
0.0
 35
0.0
146
0.0
 13
0.0
 23
0.0
 33
0.0
 16
1.0
 26
0.0
 36
0.0
 17
0.0
 27
1.0
 37
0.0
 76
     0
330
23
  0
LAYOUT
  5
22
102
{ACAD_REACTORS
330
1A
102
}
330
1A
100
AcDbPlotSettings
  1

  2
none_device
  4
Letter_(8.50_x_11.00_Inches)
  6

 40
6.35
 41
6.35
 42
6.35000508
 43
6.35000508
 44
215.9
 45
279.4
 46
0.0
 47
0.0
 48
0.0
 49
0.0
140
0.0
141
0.0
142
1.0
143
1.0
 70
  1712
 72
     1
 73
     0
 74
     0
  7

 75
     0
147
1.0
148
0.0
149
0.0
100
AcDbLayout
  1
Model
 70
     1
 71
     0
 10
0.0
 20
0.0
 11
5000.0
 21
3000.0
 12
0.0
 22
0.0
 32
0.0
 14
0.0
 24
0.0
 34
0.0
 15
5000.0
 25
3000.0
 35
0.0
146
0.0
 13
0.0
 23
0.0
 33
0.0
 16
1.0
 26
0.0
 36
0.0
 17
0.0
 27
1.0
 37
0.0
 76
     0
330
1F
331
29
  0
MLINESTYLE
  5
18
102
{ACAD_REACTORS
330
17
102
}
330
17
100
AcDbMlineStyle
  2
Standard
 70
     0
  3

 62
   256
 51
90.0
 52
90.0
 71
     2
 49
0.5
 62
   256
  6
BYLAYER
 49
-0.5
 62
   256
  6
BYLAYER
  0
ACDBPLACEHOLDER
  5
F
102
{ACAD_REACTORS
330
E
102
}
330
E
  0
SCALE
  5
48
102
{ACAD_REACTORS
330
47
102
}
330
47
100
AcDbScale
 70
     0
300
1:1
140
1.0
141
1.0
290
     1
  0
SCALE
  5
49
102
{ACAD_REACTORS
330
47
102
}
330
47
100
AcDbScale
 70
     0
300
1:2
140
1.0
141
2.0
290
     0
  0
SCALE
  5
4A
102
{ACAD_REACTORS
330
47
102
}
330
47
100
AcDbScale
 70
     0
300
1:4
140
1.0
141
4.0
290
     0
  0
SCALE
  5
4B
102
{ACAD_REACTORS
330
47
102
}
330
47
100
AcDbScale
 70
     0
300
1:5
140
1.0
141
5.0
290
     0
  0
SCALE
  5
4C
102
{ACAD_REACTORS
330
47
102
}
330
47
100
AcDbScale
 70
     0
300
1:8
140
1.0
141
8.0
290
     0
  0
SCALE
  5
4D
102
{ACAD_REACTORS
330
47
102
}
330
47
100
AcDbScale
 70
     0
300
1:10
140
1.0
141
10.0
290
     0
  0
SCALE
  5
4E
102
{ACAD_REACTORS
330
47
102
}
330
47
100
AcDbScale
 70
     0
300
1:16
140
1.0
141
16.0
290
     0
  0
SCALE
  5
4F
102
{ACAD_REACTORS
330
47
102
}
330
47
100
AcDbScale
 70
     0
300
1:20
140
1.0
141
20.0
290
     0
  0
SCALE
  5
50
102
{ACAD_REACTORS
330
47
102
}
330
47
100
AcDbScale
 70
     0
300
1:30
140
1.0
141
30.0
290
     0
  0
SCALE
  5
51
102
{ACAD_REACTORS
330
47
102
}
330
47
100
AcDbScale
 70
     0
300
1:40
140
1.0
141
40.0
290
     0
  0
SCALE
  5
52
102
{ACAD_REACTORS
330
47
102
}
330
47
100
AcDbScale
 70
     0
300
1:50
140
1.0
141
50.0
290
     0
  0
SCALE
  5
53
102
{ACAD_REACTORS
330
47
102
}
330
47
100
AcDbScale
 70
     0
300
1:100
140
1.0
141
100.0
290
     0
  0
SCALE
  5
54
102
{ACAD_REACTORS
330
47
102
}
330
47
100
AcDbScale
 70
     0
300
2:1
140
2.0
141
1.0
290
     0
  0
SCALE
  5
55
102
{ACAD_REACTORS
330
47
102
}
330
47
100
AcDbScale
 70
     0
300
4:1
140
4.0
141
1.0
290
     0
  0
SCALE
  5
56
102
{ACAD_REACTORS
330
47
102
}
330
47
100
AcDbScale
 70
     0
300
8:1
140
8.0
141
1.0
290
     0
  0
SCALE
  5
57
102
{ACAD_REACTORS
330
47
102
}
330
47
100
AcDbScale
 70
     0
300
10:1
140
10.0
141
1.0
290
     0
  0
SCALE
  5
58
102
{ACAD_REACTORS
330
47
102
}
330
47
100
AcDbScale
 70
     0
300
100:1
140
100.0
141
1.0
290
     0
  0
SCALE
  5
59
102
{ACAD_REACTORS
330
47
102
}
330
47
100
AcDbScale
 70
     0
300
1/128" = 1'-0"
140
0.0078125
141
12.0
290
     0
  0
SCALE
  5
5A
102
{ACAD_REACTORS
330
47
102
}
330
47
100
AcDbScale
 70
     0
300
1/64" = 1'-0"
140
0.015625
141
12.0
290
     0
  0
SCALE
  5
5B
102
{ACAD_REACTORS
330
47
102
}
330
47
100
AcDbScale
 70
     0
300
1/32" = 1'-0"
140
0.03125
141
12.0
290
     0
  0
SCALE
  5
5C
102
{ACAD_REACTORS
330
47
102
}
330
47
100
AcDbScale
 70
     0
300
1/16" = 1'-0"
140
0.0625
141
12.0
290
     0
  0
SCALE
  5
5D
102
{ACAD_REACTORS
330
47
102
}
330
47
100
AcDbScale
 70
     0
300
3/32" = 1'-0"
140
0.09375
141
12.0
290
     0
  0
SCALE
  5
5E
102
{ACAD_REACTORS
330
47
102
}
330
47
100
AcDbScale
 70
     0
300
1/8" = 1'-0"
140
0.125
141
12.0
290
     0
  0
SCALE
  5
5F
102
{ACAD_REACTORS
330
47
102
}
330
47
100
AcDbScale
 70
     0
300
3/16" = 1'-0"
140
0.1875
141
12.0
290
     0
  0
SCALE
  5
60
102
{ACAD_REACTORS
330
47
102
}
330
47
100
AcDbScale
 70
     0
300
1/4" = 1'-0"
140
0.25
141
12.0
290
     0
  0
SCALE
  5
61
102
{ACAD_REACTORS
330
47
102
}
330
47
100
AcDbScale
 70
     0
300
3/8" = 1'-0"
140
0.375
141
12.0
290
     0
  0
SCALE
  5
62
102
{ACAD_REACTORS
330
47
102
}
330
47
100
AcDbScale
 70
     0
300
1/2" = 1'-0"
140
0.5
141
12.0
290
     0
  0
SCALE
  5
63
102
{ACAD_REACTORS
330
47
102
}
330
47
100
AcDbScale
 70
     0
300
3/4" = 1'-0"
140
0.75
141
12.0
290
     0
  0
SCALE
  5
64
102
{ACAD_REACTORS
330
47
102
}
330
47
100
AcDbScale
 70
     0
300
1" = 1'-0"
140
1.0
141
12.0
290
     0
  0
SCALE
  5
65
102
{ACAD_REACTORS
330
47
102
}
330
47
100
AcDbScale
 70
     0
300
1-1/2" = 1'-0"
140
1.5
141
12.0
290
     0
  0
SCALE
  5
66
102
{ACAD_REACTORS
330
47
102
}
330
47
100
AcDbScale
 70
     0
300
3" = 1'-0"
140
3.0
141
12.0
290
     0
  0
SCALE
  5
67
102
{ACAD_REACTORS
330
47
102
}
330
47
100
AcDbScale
 70
     0
300
6" = 1'-0"
140
6.0
141
12.0
290
     0
  0
SCALE
  5
68
102
{ACAD_REACTORS
330
47
102
}
330
47
100
AcDbScale
 70
     0
300
1'-0" = 1'-0"
140
12.0
141
12.0
290
     0
  0
ENDSEC
  0
EOF
