  0
SECTION
  2
HEADER
  9
$ACADVER
  1
AC1015
  9
$ACADMAINTVER
 70
     6
  9
$DWGCODEPAGE
  3
ANSI_1252
  9
$INSBASE
 10
0.0
 20
0.0
 30
0.0
  9
$EXTMIN
 10
0.0
 20
0.0
 30
0.0
  9
$EXTMAX
 10
1189.0
 20
841.0
 30
0.0
  9
$LIMMIN
 10
0.0
 20
0.0
  9
$LIMMAX
 10
1189.0
 20
841.0
  9
$ORTHOMODE
 70
     0
  9
$REGENMODE
 70
     1
  9
$FILLMODE
 70
     1
  9
$QTEXTMODE
 70
     0
  9
$MIRRTEXT
 70
     1
  9
$LTSCALE
 40
1.0
  9
$ATTMODE
 70
     1
  9
$TEXTSIZE
 40
3.5
  9
$TRACEWID
 40
1.0
  9
$TEXTSTYLE
  7
Standard
  9
$CLAYER
  8
0
  9
$CELTYPE
  6
ByLayer
  9
$CECOLOR
 62
   256
  9
$CELTSCALE
 40
1.0
  9
$DISPSILH
 70
     0
  9
$DIMSCALE
 40
1.0
  9
$DIMASZ
 40
3.302
  9
$DIMEXO
 40
1.0
  9
$DIMDLI
 40
3.75
  9
$DIMRND
 40
0.0
  9
$DIMDLE
 40
0.0
  9
$DIMEXE
 40
1.0
  9
$DIMTP
 40
0.0
  9
$DIMTM
 40
0.0
  9
$DIMTXT
 40
3.5
  9
$DIMCEN
 40
2.5
  9
$DIMTSZ
 40
0.0
  9
$DIMTOL
 70
     0
  9
$DIMLIM
 70
     0
  9
$DIMTIH
 70
     1
  9
$DIMTOH
 70
     1
  9
$DIMSE1
 70
     0
  9
$DIMSE2
 70
     0
  9
$DIMTAD
 70
     1
  9
$DIMZIN
 70
     0
  9
$DIMBLK
  1

  9
$DIMASO
 70
     1
  9
$DIMSHO
 70
     1
  9
$DIMPOST
  1

  9
$DIMAPOST
  1

  9
$DIMALT
 70
     0
  9
$DIMALTD
 70
     3
  9
$DIMALTF
 40
0.0393700787
  9
$DIMLFAC
 40
5.0
  9
$DIMTOFL
 70
     1
  9
$DIMTVP
 40
0.0
  9
$DIMTIX
 70
     0
  9
$DIMSOXD
 70
     0
  9
$DIMSAH
 70
     0
  9
$DIMBLK1
  1

  9
$DIMBLK2
  1

  9
$DIMSTYLE
  2
ISO-25
  9
$DIMCLRD
 70
     0
  9
$DIMCLRE
 70
     0
  9
$DIMCLRT
 70
     0
  9
$DIMTFAC
 40
1.0
  9
$DIMGAP
 40
1.524
  9
$DIMJUST
 70
     0
  9
$DIMSD1
 70
     0
  9
$DIMSD2
 70
     0
  9
$DIMTOLJ
 70
     0
  9
$DIMTZIN
 70
     0
  9
$DIMALTZ
 70
     0
  9
$DIMALTTZ
 70
     0
  9
$DIMUPT
 70
     0
  9
$DIMDEC
 70
     2
  9
$DIMTDEC
 70
     2
  9
$DIMALTU
 70
     2
  9
$DIMALTTD
 70
     3
  9
$DIMTXSTY
  7
Standard
  9
$DIMAUNIT
 70
     0
  9
$DIMADEC
 70
     2
  9
$DIMALTRND
 40
0.0
  9
$DIMAZIN
 70
     0
  9
$DIMDSEP
 70
    44
  9
$DIMATFIT
 70
     3
  9
$DIMFRAC
 70
     0
  9
$DIMLDRBLK
  1

  9
$DIMLUNIT
 70
     2
  9
$DIMLWD
 70
    -2
  9
$DIMLWE
 70
    -2
  9
$DIMTMOVE
 70
     0
  9
$LUNITS
 70
     2
  9
$LUPREC
 70
     2
  9
$SKETCHINC
 40
1.0
  9
$FILLETRAD
 40
10.0
  9
$AUNITS
 70
     0
  9
$AUPREC
 70
     2
  9
$MENU
  1
.
  9
$ELEVATION
 40
0.0
  9
$PELEVATION
 40
0.0
  9
$THICKNESS
 40
0.0
  9
$LIMCHECK
 70
     0
  9
$CHAMFERA
 40
0.0
  9
$CHAMFERB
 40
0.0
  9
$CHAMFERC
 40
0.0
  9
$CHAMFERD
 40
0.0
  9
$SKPOLY
 70
     0
  9
$TDCREATE
 40
2458057.494364965
  9
$TDUCREATE
 40
2458057.494364965
  9
$TDUPDATE
 40
2458057.494365139
  9
$TDUUPDATE
 40
2458057.494365139
  9
$TDINDWG
 40
0.0000000116
  9
$TDUSRTIMER
 40
0.0000000116
  9
$USRTIMER
 70
     1
  9
$ANGBASE
 50
0.0
  9
$ANGDIR
 70
     0
  9
$PDMODE
 70
     0
  9
$PDSIZE
 40
-1.0
  9
$PLINEWID
 40
0.0
  9
$SPLFRAME
 70
     0
  9
$SPLINETYPE
 70
     6
  9
$SPLINESEGS
 70
     8
  9
$HANDSEED
  5
1DE
  9
$SURFTAB1
 70
     6
  9
$SURFTAB2
 70
     6
  9
$SURFTYPE
 70
     6
  9
$SURFU
 70
     6
  9
$SURFV
 70
     6
  9
$UCSBASE
  2

  9
$UCSNAME
  2

  9
$UCSORG
 10
0.0
 20
0.0
 30
0.0
  9
$UCSXDIR
 10
1.0
 20
0.0
 30
0.0
  9
$UCSYDIR
 10
0.0
 20
1.0
 30
0.0
  9
$UCSORTHOREF
  2

  9
$UCSORTHOVIEW
 70
     0
  9
$UCSORGTOP
 10
0.0
 20
0.0
 30
0.0
  9
$UCSORGBOTTOM
 10
0.0
 20
0.0
 30
0.0
  9
$UCSORGLEFT
 10
0.0
 20
0.0
 30
0.0
  9
$UCSORGRIGHT
 10
0.0
 20
0.0
 30
0.0
  9
$UCSORGFRONT
 10
0.0
 20
0.0
 30
0.0
  9
$UCSORGBACK
 10
0.0
 20
0.0
 30
0.0
  9
$PUCSBASE
  2

  9
$PUCSNAME
  2

  9
$PUCSORG
 10
0.0
 20
0.0
 30
0.0
  9
$PUCSXDIR
 10
1.0
 20
0.0
 30
0.0
  9
$PUCSYDIR
 10
0.0
 20
1.0
 30
0.0
  9
$PUCSORTHOREF
  2

  9
$PUCSORTHOVIEW
 70
     0
  9
$PUCSORGTOP
 10
0.0
 20
0.0
 30
0.0
  9
$PUCSORGBOTTOM
 10
0.0
 20
0.0
 30
0.0
  9
$PUCSORGLEFT
 10
0.0
 20
0.0
 30
0.0
  9
$PUCSORGRIGHT
 10
0.0
 20
0.0
 30
0.0
  9
$PUCSORGFRONT
 10
0.0
 20
0.0
 30
0.0
  9
$PUCSORGBACK
 10
0.0
 20
0.0
 30
0.0
  9
$USERI1
 70
     0
  9
$USERI2
 70
     0
  9
$USERI3
 70
     0
  9
$USERI4
 70
     0
  9
$USERI5
 70
     0
  9
$USERR1
 40
0.0
  9
$USERR2
 40
0.0
  9
$USERR3
 40
0.0
  9
$USERR4
 40
0.0
  9
$USERR5
 40
0.0
  9
$WORLDVIEW
 70
     1
  9
$SHADEDGE
 70
     3
  9
$SHADEDIF
 70
    70
  9
$TILEMODE
 70
     1
  9
$MAXACTVP
 70
    64
  9
$PINSBASE
 10
0.0
 20
0.0
 30
0.0
  9
$PLIMCHECK
 70
     0
  9
$PEXTMIN
 10
1.0000000000E+20
 20
1.0000000000E+20
 30
1.0000000000E+20
  9
$PEXTMAX
 10
-1.0000000000E+20
 20
-1.0000000000E+20
 30
-1.0000000000E+20
  9
$PLIMMIN
 10
0.0
 20
0.0
  9
$PLIMMAX
 10
420.0
 20
297.0
  9
$UNITMODE
 70
     0
  9
$VISRETAIN
 70
     1
  9
$PLINEGEN
 70
     0
  9
$PSLTSCALE
 70
     1
  9
$TREEDEPTH
 70
  3020
  9
$CMLSTYLE
  2
Standard
  9
$CMLJUST
 70
     0
  9
$CMLSCALE
 40
20.0
  9
$PROXYGRAPHICS
 70
     1
  9
$MEASUREMENT
 70
     1
  9
$CELWEIGHT
370
    -1
  9
$ENDCAPS
280
     0
  9
$JOINSTYLE
280
     0
  9
$LWDISPLAY
290
     1
  9
$INSUNITS
 70
     4
  9
$HYPERLINKBASE
  1

  9
$STYLESHEET
  1

  9
$XEDIT
290
     1
  9
$CEPSNTYPE
380
     0
  9
$PSTYLEMODE
290
     1
  9
$FINGERPRINTGUID
  2
{59336C3A-D23A-460F-95DA-E8AA707CDDD7}
  9
$VERSIONGUID
  2
{FAEB1C32-E019-11D5-929B-00C0DF256EC4}
  9
$EXTNAMES
290
     1
  9
$PSVPSCALE
 40
0.0
  9
$OLESTARTUP
290
     0
  0
ENDSEC
  0
SECTION
  2
CLASSES
  0
CLASS
  1
ACDBDICTIONARYWDFLT
  2
AcDbDictionaryWithDefault
  3
ObjectDBX Classes
 90
        0
280
     0
281
     0
  0
CLASS
  1
VISUALSTYLE
  2
AcDbVisualStyle
  3
ObjectDBX Classes
 90
     4095
280
     0
281
     0
  0
CLASS
  1
MATERIAL
  2
AcDbMaterial
  3
ObjectDBX Classes
 90
     1153
280
     0
281
     0
  0
CLASS
  1
SCALE
  2
AcDbScale
  3
ObjectDBX Classes
 90
     1153
280
     0
281
     0
  0
CLASS
  1
TABLESTYLE
  2
AcDbTableStyle
  3
ObjectDBX Classes
 90
     4095
280
     0
281
     0
  0
CLASS
  1
MLEADERSTYLE
  2
AcDbMLeaderStyle
  3
ACDB_MLEADERSTYLE_CLASS
 90
     4095
280
     0
281
     0
  0
CLASS
  1
SUN
  2
AcDbSun
  3
SCENEOE
 90
     1153
280
     0
281
     0
  0
CLASS
  1
ACDBPLACEHOLDER
  2
AcDbPlaceHolder
  3
ObjectDBX Classes
 90
        0
280
     0
281
     0
  0
CLASS
  1
LAYOUT
  2
AcDbLayout
  3
ObjectDBX Classes
 90
        0
280
     0
281
     0
  0
ENDSEC
  0
SECTION
  2
TABLES
  0
TABLE
  2
VPORT
  5
8
330
0
100
AcDbSymbolTable
 70
     1
  0
VPORT
  5
29
330
8
100
AcDbSymbolTableRecord
100
AcDbViewportTableRecord
  2
*Active
 70
     0
 10
0.0
 20
0.0
 11
1.0
 21
1.0
 12
594.5
 22
420.5
 13
0.0
 23
0.0
 14
10.0
 24
10.0
 15
10.0
 25
10.0
 16
0.0
 26
0.0
 36
1.0
 17
0.0
 27
0.0
 37
0.0
 40
841.0
 41
1.4137931034
 42
50.0
 43
0.0
 44
0.0
 50
0.0
 51
0.0
 71
     0
 72
  2000
 73
     1
 74
     3
 75
     0
 76
     0
 77
     0
 78
     0
281
     0
 65
     1
110
0.0
120
0.0
130
0.0
111
1.0
121
0.0
131
0.0
112
0.0
122
1.0
132
0.0
 79
     0
146
0.0
  0
ENDTAB
  0
TABLE
  2
LTYPE
  5
5
330
0
100
AcDbSymbolTable
 70
     6
  0
LTYPE
  5
14
330
5
100
AcDbSymbolTableRecord
100
AcDbLinetypeTableRecord
  2
ByBlock
 70
     0
  3

 72
    65
 73
     0
 40
0.0
  0
LTYPE
  5
15
330
5
100
AcDbSymbolTableRecord
100
AcDbLinetypeTableRecord
  2
ByLayer
 70
     0
  3

 72
    65
 73
     0
 40
0.0
  0
LTYPE
  5
16
330
5
100
AcDbSymbolTableRecord
100
AcDbLinetypeTableRecord
  2
Continuous
 70
     0
  3
Solid line
 72
    65
 73
     0
 40
0.0
  0
LTYPE
  5
6E
330
5
100
AcDbSymbolTableRecord
100
AcDbLinetypeTableRecord
  2
HIDDEN
 70
     0
  3
Hidden __ __ __ __ __ __ __ __ __ __ __ __ __ __
 72
    65
 73
     2
 40
1.905
 49
1.27
 74
     0
 49
-0.635
 74
     0
  0
LTYPE
  5
6F
330
5
100
AcDbSymbolTableRecord
100
AcDbLinetypeTableRecord
  2
PHANTOM
 70
     0
  3
Phantom ______  __  __  ______  __  __  ______
 72
    65
 73
     6
 40
12.7
 49
6.35
 74
     0
 49
-1.27
 74
     0
 49
1.27
 74
     0
 49
-1.27
 74
     0
 49
1.27
 74
     0
 49
-1.27
 74
     0
  0
LTYPE
  5
70
330
5
100
AcDbSymbolTableRecord
100
AcDbLinetypeTableRecord
  2
CENTER
 70
     0
  3
Center ____ _ ____ _ ____ _ ____ _ ____ _ ____
 72
    65
 73
     4
 40
10.16
 49
6.35
 74
     0
 49
-1.27
 74
     0
 49
1.27
 74
     0
 49
-1.27
 74
     0
  0
LTYPE
  5
71
330
5
100
AcDbSymbolTableRecord
100
AcDbLinetypeTableRecord
  2
CENTERX2
 70
     0
  3
Center (2x) ________  __  ________  __  _____
 72
    65
 73
     4
 40
20.32
 49
12.7
 74
     0
 49
-2.54
 74
     0
 49
2.54
 74
     0
 49
-2.54
 74
     0
  0
LTYPE
  5
72
330
5
100
AcDbSymbolTableRecord
100
AcDbLinetypeTableRecord
  2
DOT2
 70
     0
  3
Dot (.5x) ........................................
 72
    65
 73
     2
 40
0.635
 49
0.0
 74
     0
 49
-0.635
 74
     0
  0
ENDTAB
  0
TABLE
  2
LAYER
  5
2
330
0
100
AcDbSymbolTable
 70
     2
  0
LAYER
  5
10
330
2
100
AcDbSymbolTableRecord
100
AcDbLayerTableRecord
  2
0
 70
     0
 62
     7
  6
Continuous
370
    -3
390
F
  0
LAYER
  5
73
330
2
100
AcDbSymbolTableRecord
100
AcDbLayerTableRecord
  2
FORMAT
 70
     0
 62
     7
  6
Continuous
370
    -3
390
F
  0
ENDTAB
  0
TABLE
  2
STYLE
  5
3
330
0
100
AcDbSymbolTable
 70
     1
  0
STYLE
  5
11
330
3
100
AcDbSymbolTableRecord
100
AcDbTextStyleTableRecord
  2
Standard
 70
     0
 40
0.0
 41
1.0
 50
0.0
 71
     0
 42
3.5
  3
txt
  4

  0
ENDTAB
  0
TABLE
  2
VIEW
  5
6
330
0
100
AcDbSymbolTable
 70
     0
  0
ENDTAB
  0
TABLE
  2
UCS
  5
7
330
0
100
AcDbSymbolTable
 70
     0
  0
ENDTAB
  0
TABLE
  2
APPID
  5
9
330
0
100
AcDbSymbolTable
 70
     1
  0
APPID
  5
12
330
9
100
AcDbSymbolTableRecord
100
AcDbRegAppTableRecord
  2
ACAD
 70
     0
  0
ENDTAB
  0
TABLE
  2
DIMSTYLE
  5
A
330
0
100
AcDbSymbolTable
 70
     1
100
AcDbDimStyleTable
  0
DIMSTYLE
105
27
330
A
100
AcDbSymbolTableRecord
100
AcDbDimStyleTableRecord
  2
ISO-25
 70
     0
 41
2.5
 42
0.625
 43
3.75
 44
1.25
 73
     0
 74
     0
 77
     1
 78
     8
140
2.5
141
2.5
143
0.0393700787
147
0.625
171
     3
172
     1
178
     0
271
     2
272
     2
274
     3
278
    44
283
     0
284
     8
340
11
  0
ENDTAB
  0
TABLE
  2
BLOCK_RECORD
  5
1
330
0
100
AcDbSymbolTable
 70
     1
  0
BLOCK_RECORD
  5
1F
330
1
100
AcDbSymbolTableRecord
100
AcDbBlockTableRecord
  2
*Model_Space
340
22
  0
BLOCK_RECORD
  5
1B
330
1
100
AcDbSymbolTableRecord
100
AcDbBlockTableRecord
  2
*Paper_Space
340
1E
  0
BLOCK_RECORD
  5
23
330
1
100
AcDbSymbolTableRecord
100
AcDbBlockTableRecord
  2
*Paper_Space0
340
26
  0
ENDTAB
  0
ENDSEC
  0
SECTION
  2
BLOCKS
  0
BLOCK
  5
20
330
1F
100
AcDbEntity
  8
0
100
AcDbBlockBegin
  2
*Model_Space
 70
     0
 10
0.0
 20
0.0
 30
0.0
  3
*Model_Space
  1

  0
ENDBLK
  5
21
330
1F
100
AcDbEntity
  8
0
100
AcDbBlockEnd
  0
BLOCK
  5
1C
330
1B
100
AcDbEntity
 67
     1
  8
0
100
AcDbBlockBegin
  2
*Paper_Space
 70
     0
 10
0.0
 20
0.0
 30
0.0
  3
*Paper_Space
  1

  0
ENDBLK
  5
1D
330
1B
100
AcDbEntity
 67
     1
  8
0
100
AcDbBlockEnd
  0
BLOCK
  5
24
330
23
100
AcDbEntity
  8
0
100
AcDbBlockBegin
  2
*Paper_Space0
 70
     0
 10
0.0
 20
0.0
 30
0.0
  3
*Paper_Space0
  1

  0
ENDBLK
  5
25
330
23
100
AcDbEntity
  8
0
100
AcDbBlockEnd
  0
ENDSEC
  0
SECTION
  2
ENTITIES
  0
LINE
  5
74
330
1F
100
AcDbEntity
  8
0
  6
Continuous
 62
     7
370
    15
100
AcDbLine
 10
295.5652217429
 20
187.3827572441
 30
0.0
 11
295.5652217429
 21
200.363160809
 31
0.0
  0
LINE
  5
75
330
1F
100
AcDbEntity
  8
0
  6
Continuous
 62
     7
370
    15
100
AcDbLine
 10
290.5652265113
 20
200.363160809
 30
0.0
 11
290.5652265113
 21
187.3827572441
 31
0.0
  0
LINE
  5
76
330
1F
100
AcDbEntity
  8
0
  6
Continuous
 62
     7
370
    15
100
AcDbLine
 10
295.5652217429
 20
200.363160809
 30
0.0
 11
295.5652217429
 21
313.167974492
 31
0.0
  0
LINE
  5
77
330
1F
100
AcDbEntity
  8
0
  6
Continuous
 62
     7
370
    15
100
AcDbLine
 10
290.5652265113
 20
313.167974492
 30
0.0
 11
290.5652265113
 21
200.363160809
 31
0.0
  0
LWPOLYLINE
  5
78
330
1F
100
AcDbEntity
  8
0
  6
Continuous
 62
     7
370
    15
100
AcDbPolyline
 90
       17
 70
   128
 43
0.0
 10
295.5652217429
 20
313.167974492
 10
295.5710153144
 20
313.4691090783
 10
295.6196050208
 20
314.081284543
 10
295.7164744895
 20
314.6718473634
 10
295.8602289718
 20
315.2371735772
 10
296.0492472213
 20
315.7733769616
 10
296.281860308
 20
316.2770600519
 10
296.5565185111
 20
316.7452664575
 10
296.8718866866
 20
317.1753378114
 10
297.2270111602
 20
317.5647468767
 10
297.6210455459
 20
317.9107399186
 10
298.0529408019
 20
318.2100148401
 10
298.5205392402
 20
318.4587211808
 10
299.0198592704
 20
318.6527462205
 10
299.5437602561
 20
318.7885256013
 10
300.0858645004
 20
318.8647003373
 10
300.5181412261
 20
318.8827605447
  0
LWPOLYLINE
  5
79
330
1F
100
AcDbEntity
  8
0
  6
Continuous
 62
     7
370
    15
100
AcDbPolyline
 90
       22
 70
   128
 43
0.0
 10
300.5181412261
 20
323.8827557763
 10
300.040278868
 20
323.8715858659
 10
299.2481569808
 20
323.8029570779
 10
298.4695057433
 20
323.6722798547
 10
297.7092723411
 20
323.4806509218
 10
296.9712237876
 20
323.2293815812
 10
296.2589602035
 20
322.9200573167
 10
295.5758552116
 20
322.5544901094
 10
294.9251155418
 20
322.1346588334
 10
294.3099240821
 20
321.6628642282
 10
293.7331060928
 20
321.1414427957
 10
293.1973080199
 20
320.572909852
 10
292.7050809425
 20
319.9599356851
 10
292.2587732833
 20
319.3053574762
 10
291.8606261771
 20
318.6122150621
 10
291.5126900237
 20
317.8837866983
 10
291.2168364089
 20
317.123553296
 10
290.9747104209
 20
316.335258027
 10
290.7876710456
 20
315.5228109559
 10
290.6568388503
 20
314.690372487
 10
290.5829767745
 20
313.8421983918
 10
290.5652265113
 20
313.167974492
  0
LINE
  5
7A
330
1F
100
AcDbEntity
  8
0
  6
Continuous
 62
     7
370
    15
100
AcDbLine
 10
300.5181412261
 20
318.8827605447
 30
0.0
 11
318.0652241271
 21
318.8827605447
 31
0.0
  0
LINE
  5
7B
330
1F
100
AcDbEntity
  8
0
  6
Continuous
 62
     7
370
    15
100
AcDbLine
 10
314.5550827544
 20
323.0827541551
 30
0.0
 11
314.5550827544
 21
323.8827557763
 31
0.0
  0
LINE
  5
7C
330
1F
100
AcDbEntity
  8
0
  6
Continuous
 62
     7
370
    15
100
AcDbLine
 10
318.0652241271
 20
318.8827605447
 30
0.0
 11
323.0652253192
 21
318.8827605447
 31
0.0
  0
LWPOLYLINE
  5
7D
330
1F
100
AcDbEntity
  8
0
  6
Continuous
 62
     7
370
    15
100
AcDbPolyline
 90
       18
 70
   128
 43
0.0
 10
295.6175188583
 20
312.3379440507
 10
295.6210236114
 20
312.3852820596
 10
295.721087889
 20
313.0517573556
 10
295.8702783149
 20
313.7037129602
 10
296.0670213264
 20
314.3357129297
 10
296.3093142074
 20
314.9425955018
 10
296.5947489303
 20
315.5194730958
 10
296.9205717605
 20
316.0618515214
 10
297.2837905448
 20
316.5656776628
 10
297.6812104743
 20
317.0272917947
 10
298.1095771354
 20
317.4435229501
 10
298.5656361144
 20
317.8115935525
 10
299.0462283653
 20
318.1290598115
 10
299.5483617347
 20
318.3937282762
 10
300.0691155952
 20
318.6035127839
 10
300.6055454772
 20
318.7563271722
 10
301.1543850463
 20
318.8500733575
 10
301.7254809898
 20
318.8827605447
  0
LINE
  5
7E
330
1F
100
AcDbEntity
  8
0
  6
Continuous
 62
     7
370
    15
100
AcDbLine
 10
509.5652322334
 20
200.363160809
 30
0.0
 11
509.5652322334
 21
187.3827572441
 31
0.0
  0
LINE
  5
7F
330
1F
100
AcDbEntity
  8
0
  6
Continuous
 62
     7
370
    15
100
AcDbLine
 10
514.565227465
 20
187.3827572441
 30
0.0
 11
514.565227465
 21
200.363160809
 31
0.0
  0
LINE
  5
80
330
1F
100
AcDbEntity
  8
0
  6
Continuous
 62
     7
370
    15
100
AcDbLine
 10
514.565227465
 20
200.363160809
 30
0.0
 11
514.565227465
 21
313.167974492
 31
0.0
  0
LINE
  5
81
330
1F
100
AcDbEntity
  8
0
  6
Continuous
 62
     7
370
    15
100
AcDbLine
 10
509.5652322334
 20
313.167974492
 30
0.0
 11
509.5652322334
 21
200.363160809
 31
0.0
  0
LWPOLYLINE
  5
82
330
1F
100
AcDbEntity
  8
0
  6
Continuous
 62
     7
370
    15
100
AcDbPolyline
 90
       17
 70
   128
 43
0.0
 10
504.6123127502
 20
318.8827605447
 10
504.8558811706
 20
318.8770742616
 10
505.3865055602
 20
318.8238949975
 10
505.9004525703
 20
318.7150211534
 10
506.3980202239
 20
318.5493798456
 10
506.8754176658
 20
318.3262319764
 10
507.3276977103
 20
318.04575636
 10
507.748423056
 20
317.7103491029
 10
508.1316332381
 20
317.3244447908
 10
508.4734062713
 20
316.8928117952
 10
508.7712149184
 20
316.420170804
 10
509.0234617751
 20
315.9107895097
 10
509.2289189857
 20
315.3686852655
 10
509.3864898246
 20
314.7978277406
 10
509.495149092
 20
314.2023177347
 10
509.5540027183
 20
313.5865540704
 10
509.5652322334
 20
313.167974492
  0
LWPOLYLINE
  5
83
330
1F
100
AcDbEntity
  8
0
  6
Continuous
 62
     7
370
    15
100
AcDbPolyline
 90
       22
 70
   128
 43
0.0
 10
514.565227465
 20
313.167974492
 10
514.5557145637
 20
313.6620373926
 10
514.4931773704
 20
314.5198793611
 10
514.3722872298
 20
315.3643937311
 10
514.1936282676
 20
316.1902399263
 10
513.9581183952
 20
316.9928760728
 10
513.6670808357
 20
317.7679271898
 10
513.3221964401
 20
318.5111375055
 10
512.9255036872
 20
319.2185135087
 10
512.479374842
 20
319.8863120279
 10
511.9864563506
 20
320.5111236772
 10
511.4496330779
 20
321.0898490152
 10
510.8719448608
 20
321.6197104654
 10
510.25661035
 20
322.0982880792
 10
509.606907801
 20
322.5234599313
 10
508.9261869949
 20
322.8933901986
 10
508.2178811591
 20
323.2064814767
 10
507.4856380981
 20
323.4613390168
 10
506.7329864066
 20
323.6569018564
 10
505.9634666007
 20
323.7923116884
 10
505.1807026428
 20
323.8669247827
 10
504.6123127502
 20
323.8827557763
  0
LINE
  5
84
330
1F
100
AcDbEntity
  8
0
  6
Continuous
 62
     7
370
    15
100
AcDbLine
 10
487.0652298492
 20
318.8827605447
 30
0.0
 11
504.6123127502
 21
318.8827605447
 31
0.0
  0
LINE
  5
85
330
1F
100
AcDbEntity
  8
0
  6
Continuous
 62
     7
370
    15
100
AcDbLine
 10
490.5753712219
 20
323.8827557763
 30
0.0
 11
490.5753712219
 21
323.0827541551
 31
0.0
  0
LINE
  5
86
330
1F
100
AcDbEntity
  8
0
  6
Continuous
 62
     7
370
    15
100
AcDbLine
 10
482.0652286571
 20
318.8827605447
 30
0.0
 11
487.0652298492
 21
318.8827605447
 31
0.0
  0
LWPOLYLINE
  5
87
330
1F
100
AcDbEntity
  8
0
  6
Continuous
 62
     7
370
    15
100
AcDbPolyline
 90
       18
 70
   128
 43
0.0
 10
503.4049729865
 20
318.8827605447
 10
503.6462525886
 20
318.8769312105
 10
504.2068819564
 20
318.8181848726
 10
504.761848883
 20
318.6964721879
 10
505.3050498527
 20
318.5131402215
 10
505.8312277358
 20
318.2704539499
 10
506.3358645004
 20
317.9711909494
 10
506.8150977653
 20
317.6183433732
 10
507.2654943031
 20
317.2151060304
 10
507.683823542
 20
316.7647571763
 10
508.0670337241
 20
316.2708611688
 10
508.4121684592
 20
315.7372327051
 10
508.7164501708
 20
315.1680083474
 10
508.977339701
 20
314.5676822862
 10
509.1925482314
 20
313.9410824975
 10
509.3601684135
 20
313.29332306
 10
509.4786982101
 20
312.6297803125
 10
509.5082978767
 20
312.3379440507
  0
LINE
  5
88
330
1F
100
AcDbEntity
  8
0
  6
Continuous
 62
     7
370
    15
100
AcDbLine
 10
515.5652265113
 20
311.8476124009
 30
0.0
 11
514.565227465
 21
311.8476124009
 31
0.0
  0
LINE
  5
89
330
1F
100
AcDbEntity
  8
0
  6
Continuous
 62
     7
370
    15
100
AcDbLine
 10
509.5652322334
 20
311.8476124009
 30
0.0
 11
295.5652217429
 21
311.8476124009
 31
0.0
  0
LINE
  5
8A
330
1F
100
AcDbEntity
  8
0
  6
Continuous
 62
     7
370
    15
100
AcDbLine
 10
290.5652265113
 20
311.8476124009
 30
0.0
 11
289.565227465
 21
311.8476124009
 31
0.0
  0
LINE
  5
8B
330
1F
100
AcDbEntity
  8
0
  6
Continuous
 62
     7
370
    15
100
AcDbLine
 10
515.5652265113
 20
311.6779060563
 30
0.0
 11
514.565227465
 21
311.6779060563
 31
0.0
  0
LINE
  5
8C
330
1F
100
AcDbEntity
  8
0
  6
Continuous
 62
     7
370
    15
100
AcDbLine
 10
509.5652322334
 20
311.6779060563
 30
0.0
 11
295.5652217429
 21
311.6779060563
 31
0.0
  0
LINE
  5
8D
330
1F
100
AcDbEntity
  8
0
  6
Continuous
 62
     7
370
    15
100
AcDbLine
 10
290.5652265113
 20
311.6779060563
 30
0.0
 11
289.565227465
 21
311.6779060563
 31
0.0
  0
LINE
  5
8E
330
1F
100
AcDbEntity
  8
0
  6
Continuous
 62
     7
370
    15
100
AcDbLine
 10
287.5652293723
 20
310.2636904916
 30
0.0
 11
287.5652293723
 21
307.742342492
 31
0.0
  0
LWPOLYLINE
  5
8F
330
1F
100
AcDbEntity
  8
0
  6
Continuous
 62
     7
370
    15
100
AcDbPolyline
 90
        9
 70
   128
 43
0.0
 10
289.565227465
 20
311.6779060563
 10
289.1750435394
 20
311.6507263383
 10
288.7998561424
 20
311.5702481469
 10
288.454089598
 20
311.4395709237
 10
288.1510119003
 20
311.2636895379
 10
287.9022936385
 20
311.0493869981
 10
287.717471556
 20
310.8048887452
 10
287.6036505264
 20
310.5395884713
 10
287.5652293723
 20
310.2636904916
  0
LWPOLYLINE
  5
90
330
1F
100
AcDbEntity
  8
0
  6
Continuous
 62
     7
370
    15
100
AcDbPolyline
 90
        9
 70
   128
 43
0.0
 10
517.565224604
 20
310.2636904916
 10
517.5268034499
 20
310.5395884713
 10
517.4129824203
 20
310.8048887452
 10
517.2281603378
 20
311.0493869981
 10
516.979442076
 20
311.2636895379
 10
516.6763643783
 20
311.4395709237
 10
516.3305978339
 20
311.5702481469
 10
515.9554104369
 20
311.6507263383
 10
515.5652265113
 20
311.6779060563
  0
LINE
  5
91
330
1F
100
AcDbEntity
  8
0
  6
Continuous
 62
     7
370
    15
100
AcDbLine
 10
517.565224604
 20
310.2636904916
 30
0.0
 11
517.565224604
 21
307.742342492
 31
0.0
  0
LWPOLYLINE
  5
92
330
1F
100
AcDbEntity
  8
0
  6
Continuous
 62
     7
370
    15
100
AcDbPolyline
 90
        9
 70
   128
 43
0.0
 10
515.5652265113
 20
311.8476124009
 10
515.9554104369
 20
311.8204326829
 10
516.3305978339
 20
311.7399544915
 10
516.6763643783
 20
311.6092772683
 10
516.979442076
 20
311.4333958825
 10
517.2281603378
 20
311.2190933427
 10
517.4129824203
 20
310.9745950898
 10
517.5268034499
 20
310.709294816
 10
517.565224604
 20
310.4333968362
  0
LINE
  5
93
330
1F
100
AcDbEntity
  8
0
  6
Continuous
 62
     7
370
    15
100
AcDbLine
 10
517.565224604
 20
310.4333968362
 30
0.0
 11
517.565224604
 21
310.2636904916
 31
0.0
  0
LINE
  5
94
330
1F
100
AcDbEntity
  8
0
  6
Continuous
 62
     7
370
    15
100
AcDbLine
 10
287.5652293723
 20
310.2636904916
 30
0.0
 11
287.5652293723
 21
310.4333968362
 31
0.0
  0
LWPOLYLINE
  5
95
330
1F
100
AcDbEntity
  8
0
  6
Continuous
 62
     7
370
    15
100
AcDbPolyline
 90
        9
 70
   128
 43
0.0
 10
287.5652293723
 20
310.4333968362
 10
287.6036505264
 20
310.709294816
 10
287.717471556
 20
310.9745950898
 10
287.9022936385
 20
311.2190933427
 10
288.1510119003
 20
311.4333958825
 10
288.454089598
 20
311.6092772683
 10
288.7998561424
 20
311.7399544915
 10
289.1750435394
 20
311.8204326829
 10
289.565227465
 20
311.8476124009
  0
LINE
  5
96
330
1F
100
AcDbEntity
  8
0
  6
Continuous
 62
     7
370
    15
100
AcDbLine
 10
287.5652293723
 20
307.6427550515
 30
0.0
 11
290.5652265113
 21
307.6427550515
 31
0.0
  0
LINE
  5
97
330
1F
100
AcDbEntity
  8
0
  6
Continuous
 62
     7
370
    15
100
AcDbLine
 10
295.5652217429
 20
307.6427550515
 30
0.0
 11
509.5652322334
 21
307.6427550515
 31
0.0
  0
LINE
  5
98
330
1F
100
AcDbEntity
  8
0
  6
Continuous
 62
     7
370
    15
100
AcDbLine
 10
514.565227465
 20
307.6427550515
 30
0.0
 11
517.565224604
 21
307.6427550515
 31
0.0
  0
LINE
  5
99
330
1F
100
AcDbEntity
  8
0
  6
Continuous
 62
     7
370
    15
100
AcDbLine
 10
517.565224604
 20
307.742342492
 30
0.0
 11
517.565224604
 21
307.6427550515
 31
0.0
  0
LINE
  5
9A
330
1F
100
AcDbEntity
  8
0
  6
Continuous
 62
     7
370
    15
100
AcDbLine
 10
287.5652293723
 20
307.6427550515
 30
0.0
 11
287.5652293723
 21
307.742342492
 31
0.0
  0
LWPOLYLINE
  5
9B
330
1F
100
AcDbEntity
  8
0
  6
Continuous
 62
     7
370
    15
100
AcDbPolyline
 90
        9
 70
   128
 43
0.0
 10
289.565227465
 20
312.3379440507
 10
289.1750435394
 20
312.3107762536
 10
288.7998561424
 20
312.2302980623
 10
288.454089598
 20
312.0996089181
 10
288.1510119003
 20
311.9237275323
 10
287.9022936385
 20
311.7094249925
 10
287.717471556
 20
311.4649267396
 10
287.6036505264
 20
311.1996264657
 10
287.5652293723
 20
310.923728486
  0
LINE
  5
9C
330
1F
100
AcDbEntity
  8
0
  6
Continuous
 62
     7
370
    15
100
AcDbLine
 10
289.565227465
 20
312.3379440507
 30
0.0
 11
290.5652265113
 21
312.3379440507
 31
0.0
  0
LINE
  5
9D
330
1F
100
AcDbEntity
  8
0
  6
Continuous
 62
     7
370
    15
100
AcDbLine
 10
295.5652217429
 20
312.3379440507
 30
0.0
 11
320.5652277034
 21
312.3379440507
 31
0.0
  0
LWPOLYLINE
  5
9E
330
1F
100
AcDbEntity
  8
0
  6
Continuous
 62
     7
370
    15
100
AcDbPolyline
 90
        9
 70
   128
 43
0.0
 10
322.5652257961
 20
313.7521596155
 10
322.5267986816
 20
313.4762616357
 10
322.4129836124
 20
313.2109613618
 10
322.2281674903
 20
312.966463109
 10
321.9794432681
 20
312.7521605691
 10
321.6763655704
 20
312.5762791833
 10
321.3305930656
 20
312.4456019601
 10
320.9554056686
 20
312.3651237687
 10
320.5652277034
 20
312.3379440507
  0
LINE
  5
9F
330
1F
100
AcDbEntity
  8
0
  6
Continuous
 62
     7
370
    15
100
AcDbLine
 10
322.5652257961
 20
318.8827605447
 30
0.0
 11
322.5652257961
 21
313.7521596155
 31
0.0
  0
LINE
  5
A0
330
1F
100
AcDbEntity
  8
0
  6
Continuous
 62
     7
370
    15
100
AcDbLine
 10
482.5652281802
 20
318.8827605447
 30
0.0
 11
482.5652281802
 21
313.7521596155
 31
0.0
  0
LWPOLYLINE
  5
A1
330
1F
100
AcDbEntity
  8
0
  6
Continuous
 62
     7
370
    15
100
AcDbPolyline
 90
        9
 70
   128
 43
0.0
 10
484.5652262729
 20
312.3379440507
 10
484.1750483077
 20
312.3651237687
 10
483.7998609107
 20
312.4456019601
 10
483.4540884059
 20
312.5762791833
 10
483.1510107082
 20
312.7521605691
 10
482.902286486
 20
312.966463109
 10
482.7174703639
 20
313.2109613618
 10
482.6036552947
 20
313.4762616357
 10
482.5652281802
 20
313.7521596155
  0
LINE
  5
A2
330
1F
100
AcDbEntity
  8
0
  6
Continuous
 62
     7
370
    15
100
AcDbLine
 10
515.5652265113
 20
312.3379440507
 30
0.0
 11
514.565227465
 21
312.3379440507
 31
0.0
  0
LINE
  5
A3
330
1F
100
AcDbEntity
  8
0
  6
Continuous
 62
     7
370
    15
100
AcDbLine
 10
509.5652322334
 20
312.3379440507
 30
0.0
 11
484.5652262729
 21
312.3379440507
 31
0.0
  0
LWPOLYLINE
  5
A4
330
1F
100
AcDbEntity
  8
0
  6
Continuous
 62
     7
370
    15
100
AcDbPolyline
 90
        9
 70
   128
 43
0.0
 10
517.565224604
 20
310.923728486
 10
517.5268034499
 20
311.1996264657
 10
517.4129824203
 20
311.4649267396
 10
517.2281603378
 20
311.7094249925
 10
516.979442076
 20
311.9237275323
 10
516.6763643783
 20
312.0996089181
 10
516.3305978339
 20
312.2302980623
 10
515.9554104369
 20
312.3107762536
 10
515.5652265113
 20
312.3379440507
  0
LWPOLYLINE
  5
A5
330
1F
100
AcDbEntity
  8
0
  6
Continuous
 62
     7
370
    15
100
AcDbPolyline
 90
        9
 70
   128
 43
0.0
 10
336.5652243655
 20
317.1179623803
 10
336.3701383632
 20
317.1315522394
 10
336.1825446647
 20
317.1717853746
 10
336.0096554321
 20
317.2371359071
 10
335.8581225436
 20
317.3250646791
 10
335.7337574523
 20
317.4322219095
 10
335.6413464111
 20
317.5544710359
 10
335.5844418567
 20
317.6871152124
 10
335.5652253192
 20
317.8250761232
  0
LINE
  5
A6
330
1F
100
AcDbEntity
  8
0
  6
Continuous
 62
     7
370
    15
100
AcDbLine
 10
340.5652265113
 20
317.1179623803
 30
0.0
 11
336.5652243655
 21
317.1179623803
 31
0.0
  0
LWPOLYLINE
  5
A7
330
1F
100
AcDbEntity
  8
0
  6
Continuous
 62
     7
370
    15
100
AcDbPolyline
 90
        9
 70
   128
 43
0.0
 10
341.5652255576
 20
317.8250761232
 10
341.5460149806
 20
317.6871152124
 10
341.4891044658
 20
317.5544710359
 10
341.396699385
 20
317.4322219095
 10
341.2723342937
 20
317.3250646791
 10
341.1207954448
 20
317.2371359071
 10
340.9479121726
 20
317.1717853746
 10
340.7603184741
 20
317.1315522394
 10
340.5652265113
 20
317.1179623803
  0
LINE
  5
A8
330
1F
100
AcDbEntity
  8
0
  6
Continuous
 62
     7
370
    15
100
AcDbLine
 10
341.5652255576
 20
320.6534953317
 30
0.0
 11
341.5652255576
 21
317.8250761232
 31
0.0
  0
LWPOLYLINE
  5
A9
330
1F
100
AcDbEntity
  8
0
  6
Continuous
 62
     7
370
    15
100
AcDbPolyline
 90
        9
 70
   128
 43
0.0
 10
340.5652265113
 20
321.3606090745
 10
340.7603184741
 20
321.3470192155
 10
340.9479121726
 20
321.3067741594
 10
341.1207954448
 20
321.2414355478
 10
341.2723342937
 20
321.1534948549
 10
341.396699385
 20
321.0463495454
 10
341.4891044658
 20
320.924100419
 10
341.5460149806
 20
320.7914443216
 10
341.5652255576
 20
320.6534953317
  0
LINE
  5
AA
330
1F
100
AcDbEntity
  8
0
  6
Continuous
 62
     7
370
    15
100
AcDbLine
 10
336.5652243655
 20
321.3606090745
 30
0.0
 11
340.5652265113
 21
321.3606090745
 31
0.0
  0
LWPOLYLINE
  5
AB
330
1F
100
AcDbEntity
  8
0
  6
Continuous
 62
     7
370
    15
100
AcDbPolyline
 90
        9
 70
   128
 43
0.0
 10
335.5652253192
 20
320.6534953317
 10
335.5844418567
 20
320.7914443216
 10
335.6413464111
 20
320.924100419
 10
335.7337574523
 20
321.0463495454
 10
335.8581225436
 20
321.1534948549
 10
336.0096554321
 20
321.2414355478
 10
336.1825446647
 20
321.3067741594
 10
336.3701383632
 20
321.3470192155
 10
336.5652243655
 20
321.3606090745
  0
LINE
  5
AC
330
1F
100
AcDbEntity
  8
0
  6
Continuous
 62
     7
370
    15
100
AcDbLine
 10
335.5652253192
 20
317.8250761232
 30
0.0
 11
335.5652253192
 21
320.6534953317
 31
0.0
  0
LWPOLYLINE
  5
AD
330
1F
100
AcDbEntity
  8
0
  6
Continuous
 62
     7
370
    15
100
AcDbPolyline
 90
        9
 70
   128
 43
0.0
 10
400.5652270329
 20
317.1179623803
 10
400.3701367464
 20
317.1315522394
 10
400.1825436067
 20
317.1717853746
 10
400.0096567955
 20
317.2371359071
 10
399.8581201818
 20
317.3250646791
 10
399.7337573257
 20
317.4322219095
 10
399.641347402
 20
317.5544710359
 10
399.58444173
 20
317.6871152124
 10
399.5652270552
 20
317.8250761232
  0
LINE
  5
AE
330
1F
100
AcDbEntity
  8
0
  6
Continuous
 62
     7
370
    15
100
AcDbLine
 10
404.5652269434
 20
317.1179623803
 30
0.0
 11
400.5652270329
 21
317.1179623803
 31
0.0
  0
LWPOLYLINE
  5
AF
330
1F
100
AcDbEntity
  8
0
  6
Continuous
 62
     7
370
    15
100
AcDbPolyline
 90
        9
 70
   128
 43
0.0
 10
405.5652269211
 20
317.8250761232
 10
405.5460122463
 20
317.6871152124
 10
405.4891065743
 20
317.5544710359
 10
405.3966966506
 20
317.4322219095
 10
405.2723337945
 20
317.3250646791
 10
405.1207971808
 20
317.2371359071
 10
404.9479103696
 20
317.1717853746
 10
404.7603172299
 20
317.1315522394
 10
404.5652269434
 20
317.1179623803
  0
LINE
  5
B0
330
1F
100
AcDbEntity
  8
0
  6
Continuous
 62
     7
370
    15
100
AcDbLine
 10
405.5652269211
 20
320.6534953317
 30
0.0
 11
405.5652269211
 21
317.8250761232
 31
0.0
  0
LWPOLYLINE
  5
B1
330
1F
100
AcDbEntity
  8
0
  6
Continuous
 62
     7
370
    15
100
AcDbPolyline
 90
        9
 70
   128
 43
0.0
 10
404.5652269434
 20
321.3606090745
 10
404.7603172299
 20
321.3470192155
 10
404.9479103696
 20
321.3067741594
 10
405.1207971808
 20
321.2414355478
 10
405.2723337945
 20
321.1534948549
 10
405.3966966506
 20
321.0463495454
 10
405.4891065743
 20
320.924100419
 10
405.5460122463
 20
320.7914443216
 10
405.5652269211
 20
320.6534953317
  0
LINE
  5
B2
330
1F
100
AcDbEntity
  8
0
  6
Continuous
 62
     7
370
    15
100
AcDbLine
 10
400.5652270329
 20
321.3606090745
 30
0.0
 11
404.5652269434
 21
321.3606090745
 31
0.0
  0
LWPOLYLINE
  5
B3
330
1F
100
AcDbEntity
  8
0
  6
Continuous
 62
     7
370
    15
100
AcDbPolyline
 90
        9
 70
   128
 43
0.0
 10
399.5652270552
 20
320.6534953317
 10
399.58444173
 20
320.7914443216
 10
399.641347402
 20
320.924100419
 10
399.7337573257
 20
321.0463495454
 10
399.8581201818
 20
321.1534948549
 10
400.0096567955
 20
321.2414355478
 10
400.1825436067
 20
321.3067741594
 10
400.3701367464
 20
321.3470192155
 10
400.5652270329
 20
321.3606090745
  0
LINE
  5
B4
330
1F
100
AcDbEntity
  8
0
  6
Continuous
 62
     7
370
    15
100
AcDbLine
 10
399.5652270552
 20
317.8250761232
 30
0.0
 11
399.5652270552
 21
320.6534953317
 31
0.0
  0
LWPOLYLINE
  5
B5
330
1F
100
AcDbEntity
  8
0
  6
Continuous
 62
     7
370
    15
100
AcDbPolyline
 90
        9
 70
   128
 43
0.0
 10
464.565227465
 20
317.1179623803
 10
464.3701355022
 20
317.1315522394
 10
464.1825418037
 20
317.1717853746
 10
464.0096585315
 20
317.2371359071
 10
463.8581196826
 20
317.3250646791
 10
463.7337545913
 20
317.4322219095
 10
463.6413495105
 20
317.5544710359
 10
463.5844389957
 20
317.6871152124
 10
463.5652284187
 20
317.8250761232
  0
LINE
  5
B6
330
1F
100
AcDbEntity
  8
0
  6
Continuous
 62
     7
370
    15
100
AcDbLine
 10
468.5652296108
 20
317.1179623803
 30
0.0
 11
464.565227465
 21
317.1179623803
 31
0.0
  0
LWPOLYLINE
  5
B7
330
1F
100
AcDbEntity
  8
0
  6
Continuous
 62
     7
370
    15
100
AcDbPolyline
 90
        9
 70
   128
 43
0.0
 10
469.5652286571
 20
317.8250761232
 10
469.5460121196
 20
317.6871152124
 10
469.4891075652
 20
317.5544710359
 10
469.396696524
 20
317.4322219095
 10
469.2723314327
 20
317.3250646791
 10
469.1207985442
 20
317.2371359071
 10
468.9479093116
 20
317.1717853746
 10
468.7603156131
 20
317.1315522394
 10
468.5652296108
 20
317.1179623803
  0
LINE
  5
B8
330
1F
100
AcDbEntity
  8
0
  6
Continuous
 62
     7
370
    15
100
AcDbLine
 10
469.5652286571
 20
320.6534953317
 30
0.0
 11
469.5652286571
 21
317.8250761232
 31
0.0
  0
LWPOLYLINE
  5
B9
330
1F
100
AcDbEntity
  8
0
  6
Continuous
 62
     7
370
    15
100
AcDbPolyline
 90
        9
 70
   128
 43
0.0
 10
468.5652296108
 20
321.3606090745
 10
468.7603156131
 20
321.3470192155
 10
468.9479093116
 20
321.3067741594
 10
469.1207985442
 20
321.2414355478
 10
469.2723314327
 20
321.1534948549
 10
469.396696524
 20
321.0463495454
 10
469.4891075652
 20
320.924100419
 10
469.5460121196
 20
320.7914443216
 10
469.5652286571
 20
320.6534953317
  0
LINE
  5
BA
330
1F
100
AcDbEntity
  8
0
  6
Continuous
 62
     7
370
    15
100
AcDbLine
 10
464.565227465
 20
321.3606090745
 30
0.0
 11
468.5652296108
 21
321.3606090745
 31
0.0
  0
LWPOLYLINE
  5
BB
330
1F
100
AcDbEntity
  8
0
  6
Continuous
 62
     7
370
    15
100
AcDbPolyline
 90
        9
 70
   128
 43
0.0
 10
463.5652284187
 20
320.6534953317
 10
463.5844389957
 20
320.7914443216
 10
463.6413495105
 20
320.924100419
 10
463.7337545913
 20
321.0463495454
 10
463.8581196826
 20
321.1534948549
 10
464.0096585315
 20
321.2414355478
 10
464.1825418037
 20
321.3067741594
 10
464.3701355022
 20
321.3470192155
 10
464.565227465
 20
321.3606090745
  0
LINE
  5
BC
330
1F
100
AcDbEntity
  8
0
  6
Continuous
 62
     7
370
    15
100
AcDbLine
 10
463.5652284187
 20
317.8250761232
 30
0.0
 11
463.5652284187
 21
320.6534953317
 31
0.0
  0
LINE
  5
BD
330
1F
100
AcDbEntity
  8
0
  6
Continuous
 62
     7
370
    15
100
AcDbLine
 10
287.5652293723
 20
310.4333968362
 30
0.0
 11
287.5652293723
 21
310.923728486
 31
0.0
  0
LINE
  5
BE
330
1F
100
AcDbEntity
  8
0
  6
Continuous
 62
     7
370
    15
100
AcDbLine
 10
517.565224604
 20
310.4333968362
 30
0.0
 11
517.565224604
 21
310.923728486
 31
0.0
  0
LINE
  5
BF
330
1F
100
AcDbEntity
  8
0
  6
Continuous
 62
     7
370
    15
100
AcDbLine
 10
473.967150883
 20
323.6427517137
 30
0.0
 11
331.1633030933
 21
323.6427517137
 31
0.0
  0
LWPOLYLINE
  5
C0
330
1F
100
AcDbEntity
  8
0
  6
Continuous
 62
     7
370
    15
100
AcDbPolyline
 90
        9
 70
   128
 43
0.0
 10
336.5652243655
 20
321.1909027299
 10
336.3701383632
 20
321.1773128709
 10
336.1825446647
 20
321.1370678148
 10
336.0096554321
 20
321.0717292032
 10
335.8581225436
 20
320.9837885103
 10
335.7337574523
 20
320.8766432008
 10
335.6413464111
 20
320.7543940744
 10
335.5844418567
 20
320.621737977
 10
335.5652253192
 20
320.4837889871
  0
LWPOLYLINE
  5
C1
330
1F
100
AcDbEntity
  8
0
  6
Continuous
 62
     7
370
    15
100
AcDbPolyline
 90
        9
 70
   128
 43
0.0
 10
405.5652269211
 20
320.4837889871
 10
405.5460122463
 20
320.621737977
 10
405.4891065743
 20
320.7543940744
 10
405.3966966506
 20
320.8766432008
 10
405.2723337945
 20
320.9837885103
 10
405.1207971808
 20
321.0717292032
 10
404.9479103696
 20
321.1370678148
 10
404.7603172299
 20
321.1773128709
 10
404.5652269434
 20
321.1909027299
  0
LWPOLYLINE
  5
C2
330
1F
100
AcDbEntity
  8
0
  6
Continuous
 62
     7
370
    15
100
AcDbPolyline
 90
        9
 70
   128
 43
0.0
 10
469.5652286571
 20
320.4837889871
 10
469.5460121196
 20
320.621737977
 10
469.4891075652
 20
320.7543940744
 10
469.396696524
 20
320.8766432008
 10
469.2723314327
 20
320.9837885103
 10
469.1207985442
 20
321.0717292032
 10
468.9479093116
 20
321.1370678148
 10
468.7603156131
 20
321.1773128709
 10
468.5652296108
 20
321.1909027299
  0
LWPOLYLINE
  5
C3
330
1F
100
AcDbEntity
  8
0
  6
Continuous
 62
     7
370
    15
100
AcDbPolyline
 90
        9
 70
   128
 43
0.0
 10
400.5652270329
 20
321.1909027299
 10
400.3701367464
 20
321.1773128709
 10
400.1825436067
 20
321.1370678148
 10
400.0096567955
 20
321.0717292032
 10
399.8581201818
 20
320.9837885103
 10
399.7337573257
 20
320.8766432008
 10
399.641347402
 20
320.7543940744
 10
399.58444173
 20
320.621737977
 10
399.5652270552
 20
320.4837889871
  0
LWPOLYLINE
  5
C4
330
1F
100
AcDbEntity
  8
0
  6
Continuous
 62
     7
370
    15
100
AcDbPolyline
 90
        9
 70
   128
 43
0.0
 10
464.565227465
 20
321.1909027299
 10
464.3701355022
 20
321.1773128709
 10
464.1825418037
 20
321.1370678148
 10
464.0096585315
 20
321.0717292032
 10
463.8581196826
 20
320.9837885103
 10
463.7337545913
 20
320.8766432008
 10
463.6413495105
 20
320.7543940744
 10
463.5844389957
 20
320.621737977
 10
463.5652284187
 20
320.4837889871
  0
LWPOLYLINE
  5
C5
330
1F
100
AcDbEntity
  8
0
  6
Continuous
 62
     7
370
    15
100
AcDbPolyline
 90
        9
 70
   128
 43
0.0
 10
341.5652255576
 20
320.4837889871
 10
341.5460149806
 20
320.621737977
 10
341.4891044658
 20
320.7543940744
 10
341.396699385
 20
320.8766432008
 10
341.2723342937
 20
320.9837885103
 10
341.1207954448
 20
321.0717292032
 10
340.9479121726
 20
321.1370678148
 10
340.7603184741
 20
321.1773128709
 10
340.5652265113
 20
321.1909027299
  0
LINE
  5
C6
330
1F
100
AcDbEntity
  8
0
  6
Continuous
 62
     7
370
    15
100
AcDbLine
 10
400.5652270329
 20
321.1909027299
 30
0.0
 11
404.5652269434
 21
321.1909027299
 31
0.0
  0
LINE
  5
C7
330
1F
100
AcDbEntity
  8
0
  6
Continuous
 62
     7
370
    15
100
AcDbLine
 10
464.565227465
 20
321.1909027299
 30
0.0
 11
468.5652296108
 21
321.1909027299
 31
0.0
  0
LINE
  5
C8
330
1F
100
AcDbEntity
  8
0
  6
Continuous
 62
     7
370
    15
100
AcDbLine
 10
336.5652243655
 20
321.1909027299
 30
0.0
 11
340.5652265113
 21
321.1909027299
 31
0.0
  0
LINE
  5
C9
330
1F
100
AcDbEntity
  8
0
  6
Continuous
 62
     7
370
    15
100
AcDbLine
 10
304.0652255576
 20
249.8827548227
 30
0.0
 11
501.0652284187
 21
249.8827548227
 31
0.0
  0
ARC
  5
CA
330
1F
100
AcDbEntity
  8
0
  6
Continuous
 62
     7
370
    15
100
AcDbCircle
 10
304.0652269881
 20
257.8827572069
 30
0.0
 40
8.000000000000028
100
AcDbArc
 50
180.0
 51
270.0
  0
LINE
  5
CB
330
1F
100
AcDbEntity
  8
0
  6
Continuous
 62
     7
370
    15
100
AcDbLine
 10
296.0652212661
 20
287.8827543458
 30
0.0
 11
296.0652212661
 21
257.8827591142
 31
0.0
  0
ARC
  5
CC
330
1F
100
AcDbEntity
  8
0
  6
Continuous
 62
     7
370
    15
100
AcDbCircle
 10
304.0652269881
 20
287.8827572069
 30
0.0
 40
8.0
100
AcDbArc
 50
90.0
 51
180.0
  0
ARC
  5
CD
330
1F
100
AcDbEntity
  8
0
  6
Continuous
 62
     7
370
    15
100
AcDbCircle
 10
501.0652269881
 20
287.8827572069
 30
0.0
 40
8.0
100
AcDbArc
 50
0.0
 51
90.0
  0
LINE
  5
CE
330
1F
100
AcDbEntity
  8
0
  6
Continuous
 62
     7
370
    15
100
AcDbLine
 10
509.0652327102
 20
257.8827591142
 30
0.0
 11
509.0652327102
 21
287.8827543458
 31
0.0
  0
ARC
  5
CF
330
1F
100
AcDbEntity
  8
0
  6
Continuous
 62
     7
370
    15
100
AcDbCircle
 10
501.0652269881
 20
257.8827572069
 30
0.0
 40
8.000000000000028
100
AcDbArc
 50
270.0
 51
0.0
  0
LINE
  5
D0
330
1F
100
AcDbEntity
  8
0
  6
Continuous
 62
     7
370
    15
100
AcDbLine
 10
501.0652284187
 20
295.8827586374
 30
0.0
 11
304.0652255576
 21
295.8827586374
 31
0.0
  0
ARC
  5
D1
330
1F
100
AcDbEntity
  8
0
  6
Continuous
 62
     7
370
    15
100
AcDbCircle
 10
293.0652269881
 20
187.3827572069
 30
0.0
 40
2.5
100
AcDbArc
 50
180.0
 51
313.9905650018
  0
ARC
  5
D2
330
1F
100
AcDbEntity
  8
0
  6
Continuous
 62
     7
370
    15
100
AcDbCircle
 10
293.0652269881
 20
187.3827572069
 30
0.0
 40
2.5
100
AcDbArc
 50
313.9905650018
 51
0.0
  0
LINE
  5
D3
330
1F
100
AcDbEntity
  8
0
  6
Continuous
 62
     7
370
    15
100
AcDbLine
 10
313.3407275241
 20
323.0827541551
 30
0.0
 11
313.3407275241
 21
323.8827557763
 31
0.0
  0
LINE
  5
D4
330
1F
100
AcDbEntity
  8
0
  6
Continuous
 62
     7
370
    15
100
AcDbLine
 10
309.8766247791
 20
323.0827541551
 30
0.0
 11
313.3407275241
 21
323.0827541551
 31
0.0
  0
ARC
  5
D5
330
1F
100
AcDbEntity
  8
0
  6
Continuous
 62
     7
370
    15
100
AcDbCircle
 10
306.9420643239
 20
322.7463174584
 30
0.0
 40
1.151326791194336
100
AcDbArc
 50
16.9907019337
 51
80.7757188859
  0
LINE
  5
D6
330
1F
100
AcDbEntity
  8
0
  6
Continuous
 62
     7
370
    15
100
AcDbLine
 10
313.3407275241
 20
323.0827541551
 30
0.0
 11
314.5550827544
 21
323.0827541551
 31
0.0
  0
LINE
  5
D7
330
1F
100
AcDbEntity
  8
0
  6
Continuous
 62
     7
370
    15
100
AcDbLine
 10
309.8766247791
 20
323.0827541551
 30
0.0
 11
308.0431382221
 21
323.0827541551
 31
0.0
  0
ARC
  5
D8
330
1F
100
AcDbEntity
  8
0
  6
Continuous
 62
     7
370
    15
100
AcDbCircle
 10
323.0652269881
 20
321.3827572069
 30
0.0
 40
2.5
100
AcDbArc
 50
0.0
 51
90.0
  0
ARC
  5
D9
330
1F
100
AcDbEntity
  8
0
  6
Continuous
 62
     7
370
    15
100
AcDbCircle
 10
323.0652269881
 20
321.3827572069
 30
0.0
 40
2.5
100
AcDbArc
 50
270.0
 51
0.0
  0
LINE
  5
DA
330
1F
100
AcDbEntity
  8
0
  6
Continuous
 62
     7
370
    15
100
AcDbLine
 10
328.5652260345
 20
323.0827541551
 30
0.0
 11
324.8982588809
 21
323.0827541551
 31
0.0
  0
LINE
  5
DB
330
1F
100
AcDbEntity
  8
0
  6
Continuous
 62
     7
370
    15
100
AcDbLine
 10
331.1633030933
 20
323.0827541551
 30
0.0
 11
331.1633030933
 21
323.8827557763
 31
0.0
  0
LINE
  5
DC
330
1F
100
AcDbEntity
  8
0
  6
Continuous
 62
     7
370
    15
100
AcDbLine
 10
328.5652260345
 20
323.0827541551
 30
0.0
 11
331.1633030933
 21
323.0827541551
 31
0.0
  0
LINE
  5
DD
330
1F
100
AcDbEntity
  8
0
  6
Continuous
 62
     7
370
    15
100
AcDbLine
 10
296.2071160835
 20
289.3827529153
 30
0.0
 11
295.5652217429
 21
289.3827529153
 31
0.0
  0
LINE
  5
DE
330
1F
100
AcDbEntity
  8
0
  6
Continuous
 62
     7
370
    15
100
AcDbLine
 10
296.0652212661
 20
284.3827576837
 30
0.0
 11
295.5652217429
 21
284.3827576837
 31
0.0
  0
LINE
  5
DF
330
1F
100
AcDbEntity
  8
0
  6
Continuous
 62
     7
370
    15
100
AcDbLine
 10
296.0652212661
 20
262.3827548227
 30
0.0
 11
295.5652217429
 21
262.3827548227
 31
0.0
  0
LINE
  5
E0
330
1F
100
AcDbEntity
  8
0
  6
Continuous
 62
     7
370
    15
100
AcDbLine
 10
296.0808615249
 20
257.382759591
 30
0.0
 11
295.5652217429
 21
257.382759591
 31
0.0
  0
ARC
  5
E1
330
1F
100
AcDbEntity
  8
0
  6
Continuous
 62
     7
370
    15
100
AcDbCircle
 10
512.0652269881
 20
187.3827572069
 30
0.0
 40
2.500000000000061
100
AcDbArc
 50
226.0094349982
 51
0.0
  0
ARC
  5
E2
330
1F
100
AcDbEntity
  8
0
  6
Continuous
 62
     7
370
    15
100
AcDbCircle
 10
512.0652269881
 20
187.3827572069
 30
0.0
 40
2.500000000000114
100
AcDbArc
 50
180.0
 51
226.0094349982
  0
LINE
  5
E3
330
1F
100
AcDbEntity
  8
0
  6
Continuous
 62
     7
370
    15
100
AcDbLine
 10
495.2538291972
 20
323.0827541551
 30
0.0
 11
491.7897264522
 21
323.0827541551
 31
0.0
  0
LINE
  5
E4
330
1F
100
AcDbEntity
  8
0
  6
Continuous
 62
     7
370
    15
100
AcDbLine
 10
491.7897264522
 20
323.0827541551
 30
0.0
 11
491.7897264522
 21
323.8827557763
 31
0.0
  0
ARC
  5
E5
330
1F
100
AcDbEntity
  8
0
  6
Continuous
 62
     7
370
    15
100
AcDbCircle
 10
498.1883896524
 20
322.7463174584
 30
0.0
 40
1.151326791194458
100
AcDbArc
 50
99.2242811141
 51
163.0092980663
  0
LINE
  5
E6
330
1F
100
AcDbEntity
  8
0
  6
Continuous
 62
     7
370
    15
100
AcDbLine
 10
491.7897264522
 20
323.0827541551
 30
0.0
 11
490.5753712219
 21
323.0827541551
 31
0.0
  0
LINE
  5
E7
330
1F
100
AcDbEntity
  8
0
  6
Continuous
 62
     7
370
    15
100
AcDbLine
 10
495.2538291972
 20
323.0827541551
 30
0.0
 11
497.0873157542
 21
323.0827541551
 31
0.0
  0
ARC
  5
E8
330
1F
100
AcDbEntity
  8
0
  6
Continuous
 62
     7
370
    15
100
AcDbCircle
 10
482.0652269881
 20
321.3827572069
 30
0.0
 40
2.5
100
AcDbArc
 50
90.0
 51
180.0
  0
ARC
  5
E9
330
1F
100
AcDbEntity
  8
0
  6
Continuous
 62
     7
370
    15
100
AcDbCircle
 10
482.0652269881
 20
321.3827572069
 30
0.0
 40
2.5
100
AcDbArc
 50
180.0
 51
270.0
  0
LINE
  5
EA
330
1F
100
AcDbEntity
  8
0
  6
Continuous
 62
     7
370
    15
100
AcDbLine
 10
476.5652279418
 20
323.0827541551
 30
0.0
 11
473.967150883
 21
323.0827541551
 31
0.0
  0
LINE
  5
EB
330
1F
100
AcDbEntity
  8
0
  6
Continuous
 62
     7
370
    15
100
AcDbLine
 10
473.967150883
 20
323.0827541551
 30
0.0
 11
473.967150883
 21
323.8827557763
 31
0.0
  0
LINE
  5
EC
330
1F
100
AcDbEntity
  8
0
  6
Continuous
 62
     7
370
    15
100
AcDbLine
 10
476.5652279418
 20
323.0827541551
 30
0.0
 11
480.2321950954
 21
323.0827541551
 31
0.0
  0
LINE
  5
ED
330
1F
100
AcDbEntity
  8
0
  6
Continuous
 62
     7
370
    15
100
AcDbLine
 10
509.0652327102
 20
284.3827576837
 30
0.0
 11
509.5652322334
 21
284.3827576837
 31
0.0
  0
LINE
  5
EE
330
1F
100
AcDbEntity
  8
0
  6
Continuous
 62
     7
370
    15
100
AcDbLine
 10
508.9233378928
 20
289.3827529153
 30
0.0
 11
509.5652322334
 21
289.3827529153
 31
0.0
  0
LINE
  5
EF
330
1F
100
AcDbEntity
  8
0
  6
Continuous
 62
     7
370
    15
100
AcDbLine
 10
509.0495924514
 20
257.382759591
 30
0.0
 11
509.5652322334
 21
257.382759591
 31
0.0
  0
LINE
  5
F0
330
1F
100
AcDbEntity
  8
0
  6
Continuous
 62
     7
370
    15
100
AcDbLine
 10
509.0652327102
 20
262.3827548227
 30
0.0
 11
509.5652322334
 21
262.3827548227
 31
0.0
  0
LINE
  5
F1
330
1F
100
AcDbEntity
  8
0
  6
Continuous
 62
     7
370
    15
100
AcDbLine
 10
290.5652265113
 20
323.8827557763
 30
0.0
 11
514.565227465
 21
323.8827557763
 31
0.0
  0
LINE
  5
F2
330
1F
100
AcDbEntity
  8
0
  6
Continuous
 62
     7
370
    15
100
AcDbLine
 10
514.565227465
 20
327.2827596864
 30
0.0
 11
290.5652265113
 21
327.2827596864
 31
0.0
  0
LINE
  5
F3
330
1F
100
AcDbEntity
  8
0
  6
Continuous
 62
     7
370
    15
100
AcDbLine
 10
290.5652265113
 20
323.8827557763
 30
0.0
 11
282.5652222198
 21
323.8827557763
 31
0.0
  0
LINE
  5
F4
330
1F
100
AcDbEntity
  8
0
  6
Continuous
 62
     7
370
    15
100
AcDbLine
 10
282.5652222198
 20
323.8827557763
 30
0.0
 11
282.5652222198
 21
327.2827596864
 31
0.0
  0
LINE
  5
F5
330
1F
100
AcDbEntity
  8
0
  6
Continuous
 62
     7
370
    15
100
AcDbLine
 10
290.5652265113
 20
327.2827596864
 30
0.0
 11
282.5652222198
 21
327.2827596864
 31
0.0
  0
LINE
  5
F6
330
1F
100
AcDbEntity
  8
0
  6
Continuous
 62
     7
370
    15
100
AcDbLine
 10
514.565227465
 20
328.8827629289
 30
0.0
 11
520.965228514
 21
328.8827629289
 31
0.0
  0
LINE
  5
F7
330
1F
100
AcDbEntity
  8
0
  6
Continuous
 62
     7
370
    15
100
AcDbLine
 10
520.965228514
 20
328.8827629289
 30
0.0
 11
522.5652317565
 21
327.2827596864
 31
0.0
  0
LINE
  5
F8
330
1F
100
AcDbEntity
  8
0
  6
Continuous
 62
     7
370
    15
100
AcDbLine
 10
522.5652317565
 20
327.2827596864
 30
0.0
 11
514.565227465
 21
327.2827596864
 31
0.0
  0
LINE
  5
F9
330
1F
100
AcDbEntity
  8
0
  6
Continuous
 62
     7
370
    15
100
AcDbLine
 10
522.5652317565
 20
323.8827557763
 30
0.0
 11
522.5652317565
 21
327.2827596864
 31
0.0
  0
LINE
  5
FA
330
1F
100
AcDbEntity
  8
0
  6
Continuous
 62
     7
370
    15
100
AcDbLine
 10
514.565227465
 20
323.8827557763
 30
0.0
 11
522.5652317565
 21
323.8827557763
 31
0.0
  0
LINE
  5
FB
330
1F
100
AcDbEntity
  8
0
  6
Continuous
 62
     7
370
    15
100
AcDbLine
 10
290.5652265113
 20
328.8827629289
 30
0.0
 11
514.565227465
 21
328.8827629289
 31
0.0
  0
LINE
  5
FC
330
1F
100
AcDbEntity
  8
0
  6
Continuous
 62
     7
370
    15
100
AcDbLine
 10
282.5652222198
 20
327.2827596864
 30
0.0
 11
284.1652254623
 21
328.8827629289
 31
0.0
  0
LINE
  5
FD
330
1F
100
AcDbEntity
  8
0
  6
Continuous
 62
     7
370
    15
100
AcDbLine
 10
284.1652254623
 20
328.8827629289
 30
0.0
 11
290.5652265113
 21
328.8827629289
 31
0.0
  0
LINE
  5
FE
330
1F
100
AcDbEntity
  8
0
  6
Continuous
 62
     7
370
    15
100
AcDbLine
 10
482.5652281802
 20
666.2442873205
 30
0.0
 11
322.5652257961
 21
666.2442873205
 31
0.0
  0
LINE
  5
FF
330
1F
100
AcDbEntity
  8
0
  6
Continuous
 62
     7
370
    15
100
AcDbLine
 10
322.5652257961
 20
666.14469988
 30
0.0
 11
322.5652257961
 21
666.2442873205
 31
0.0
  0
LINE
  5
100
330
1F
100
AcDbEntity
  8
0
  6
Continuous
 62
     7
370
    15
100
AcDbLine
 10
482.5652281802
 20
666.2442873205
 30
0.0
 11
482.5652281802
 21
666.14469988
 31
0.0
  0
ARC
  5
101
330
1F
100
AcDbEntity
  8
0
  6
Continuous
 62
     7
370
    15
100
AcDbCircle
 10
290.5652269881
 20
658.1447022642
 30
0.0
 40
8.000000000000057
100
AcDbArc
 50
90.0
 51
180.0
  0
ARC
  5
102
330
1F
100
AcDbEntity
  8
0
  6
Continuous
 62
     7
370
    15
100
AcDbCircle
 10
290.5652269881
 20
658.1447022642
 30
0.0
 40
6.400000000000034
100
AcDbArc
 50
90.0
 51
180.0
  0
ARC
  5
103
330
1F
100
AcDbEntity
  8
0
  6
Continuous
 62
     7
370
    15
100
AcDbCircle
 10
514.5652269881
 20
658.1447022642
 30
0.0
 40
6.400000000000091
100
AcDbArc
 50
0.0
 51
90.0
  0
ARC
  5
104
330
1F
100
AcDbEntity
  8
0
  6
Continuous
 62
     7
370
    15
100
AcDbCircle
 10
514.5652269881
 20
658.1447022642
 30
0.0
 40
8.0
100
AcDbArc
 50
0.0
 51
90.0
  0
LINE
  5
105
330
1F
100
AcDbEntity
  8
0
  6
Continuous
 62
     7
370
    15
100
AcDbLine
 10
290.5652265113
 20
666.14469988
 30
0.0
 11
514.565227465
 21
666.14469988
 31
0.0
  0
LINE
  5
106
330
1F
100
AcDbEntity
  8
0
  6
Continuous
 62
     7
370
    15
100
AcDbLine
 10
514.565227465
 20
664.544702598
 30
0.0
 11
290.5652265113
 21
664.544702598
 31
0.0
  0
LINE
  5
107
330
1F
100
AcDbEntity
  8
0
  6
Continuous
 62
     7
370
    15
100
AcDbLine
 10
520.965228514
 20
544.1447029795
 30
0.0
 11
520.965228514
 21
658.144701549
 31
0.0
  0
ARC
  5
108
330
1F
100
AcDbEntity
  8
0
  6
Continuous
 62
     7
370
    15
100
AcDbCircle
 10
514.5652269881
 20
544.1447022642
 30
0.0
 40
6.400000000000091
100
AcDbArc
 50
270.0
 51
0.0
  0
LINE
  5
109
330
1F
100
AcDbEntity
  8
0
  6
Continuous
 62
     7
370
    15
100
AcDbLine
 10
290.5652265113
 20
537.7447019304
 30
0.0
 11
514.565227465
 21
537.7447019304
 31
0.0
  0
ARC
  5
10A
330
1F
100
AcDbEntity
  8
0
  6
Continuous
 62
     7
370
    15
100
AcDbCircle
 10
290.5652269881
 20
544.1447022642
 30
0.0
 40
6.400000000000034
100
AcDbArc
 50
180.0
 51
270.0
  0
LINE
  5
10B
330
1F
100
AcDbEntity
  8
0
  6
Continuous
 62
     7
370
    15
100
AcDbLine
 10
284.1652254623
 20
658.144701549
 30
0.0
 11
284.1652254623
 21
544.1447029795
 31
0.0
  0
LINE
  5
10C
330
1F
100
AcDbEntity
  8
0
  6
Continuous
 62
     7
370
    15
100
AcDbLine
 10
449.5652268689
 20
644.3447033848
 30
0.0
 11
439.0773545068
 21
644.3447033848
 31
0.0
  0
ARC
  5
10D
330
1F
100
AcDbEntity
  8
0
  6
Continuous
 62
     7
370
    15
100
AcDbCircle
 10
449.5652269881
 20
648.1447022642
 30
0.0
 40
3.799999999999955
100
AcDbArc
 50
270.0
 51
0.0
  0
LINE
  5
10E
330
1F
100
AcDbEntity
  8
0
  6
Continuous
 62
     7
370
    15
100
AcDbLine
 10
453.3652286094
 20
654.1446994032
 30
0.0
 11
453.3652286094
 21
648.144702145
 31
0.0
  0
ARC
  5
10F
330
1F
100
AcDbEntity
  8
0
  6
Continuous
 62
     7
370
    15
100
AcDbCircle
 10
449.5652269881
 20
654.1447022642
 30
0.0
 40
3.799999999999955
100
AcDbArc
 50
0.0
 51
90.0
  0
LINE
  5
110
330
1F
100
AcDbEntity
  8
0
  6
Continuous
 62
     7
370
    15
100
AcDbLine
 10
353.4652273219
 20
657.9447041239
 30
0.0
 11
449.5652268689
 21
657.9447041239
 31
0.0
  0
ARC
  5
111
330
1F
100
AcDbEntity
  8
0
  6
Continuous
 62
     7
370
    15
100
AcDbCircle
 10
353.4652269881
 20
656.2447022642
 30
0.0
 40
1.700000000000045
100
AcDbArc
 50
90.0
 51
180.0
  0
LINE
  5
112
330
1F
100
AcDbEntity
  8
0
  6
Continuous
 62
     7
370
    15
100
AcDbLine
 10
351.7652253669
 20
655.5047045435
 30
0.0
 11
351.7652253669
 21
656.2447021689
 31
0.0
  0
ARC
  5
113
330
1F
100
AcDbEntity
  8
0
  6
Continuous
 62
     7
370
    15
100
AcDbCircle
 10
353.4652269881
 20
655.5047022642
 30
0.0
 40
1.699999999999932
100
AcDbArc
 50
180.0
 51
270.0
  0
LINE
  5
114
330
1F
100
AcDbEntity
  8
0
  6
Continuous
 62
     7
370
    15
100
AcDbLine
 10
429.0530989927
 20
653.8047025885
 30
0.0
 11
353.4652273219
 21
653.8047025885
 31
0.0
  0
ARC
  5
115
330
1F
100
AcDbEntity
  8
0
  6
Continuous
 62
     7
370
    15
100
AcDbCircle
 10
429.053098423
 20
651.6047022642
 30
0.0
 40
2.200000000000159
100
AcDbArc
 50
36.4998756621
 51
90.0
  0
LINE
  5
116
330
1F
100
AcDbEntity
  8
0
  6
Continuous
 62
     7
370
    15
100
AcDbLine
 10
436.0226939481
 20
645.8843837465
 30
0.0
 11
430.8215866845
 21
652.9133091654
 31
0.0
  0
ARC
  5
117
330
1F
100
AcDbEntity
  8
0
  6
Continuous
 62
     7
370
    15
100
AcDbCircle
 10
439.0773555533
 20
648.1447022642
 30
0.0
 40
3.800000000000006
100
AcDbArc
 50
216.4998756621
 51
270.0
  0
LINE
  5
118
330
1F
100
AcDbEntity
  8
0
  6
Continuous
 62
     7
370
    15
100
AcDbLine
 10
352.5652269881
 20
656.2447021689
 30
0.0
 11
352.5652269881
 21
655.5047045435
 31
0.0
  0
LINE
  5
119
330
1F
100
AcDbEntity
  8
0
  6
Continuous
 62
     7
370
    15
100
AcDbLine
 10
449.5652268689
 20
657.1447025026
 30
0.0
 11
353.4652273219
 21
657.1447025026
 31
0.0
  0
ARC
  5
11A
330
1F
100
AcDbEntity
  8
0
  6
Continuous
 62
     7
370
    15
100
AcDbCircle
 10
353.4652269881
 20
656.2447022642
 30
0.0
 40
0.900000000000091
100
AcDbArc
 50
90.0
 51
180.0
  0
ARC
  5
11B
330
1F
100
AcDbEntity
  8
0
  6
Continuous
 62
     7
370
    15
100
AcDbCircle
 10
449.5652269881
 20
654.1447022642
 30
0.0
 40
3.0
100
AcDbArc
 50
0.0
 51
90.0
  0
LINE
  5
11C
330
1F
100
AcDbEntity
  8
0
  6
Continuous
 62
     7
370
    15
100
AcDbLine
 10
282.5652222198
 20
544.1447029795
 30
0.0
 11
282.5652222198
 21
658.144701549
 31
0.0
  0
LINE
  5
11D
330
1F
100
AcDbEntity
  8
0
  6
Continuous
 62
     7
370
    15
100
AcDbLine
 10
522.5652317565
 20
658.144701549
 30
0.0
 11
522.5652317565
 21
544.1447029795
 31
0.0
  0
ARC
  5
11E
330
1F
100
AcDbEntity
  8
0
  6
Continuous
 62
     7
370
    15
100
AcDbCircle
 10
353.4652269881
 20
655.5047022642
 30
0.0
 40
0.900000000000091
100
AcDbArc
 50
180.0
 51
270.0
  0
LINE
  5
11F
330
1F
100
AcDbEntity
  8
0
  6
Continuous
 62
     7
370
    15
100
AcDbLine
 10
431.4646731179
 20
653.389162847
 30
0.0
 11
436.6657803815
 21
646.3602404083
 31
0.0
  0
LINE
  5
120
330
1F
100
AcDbEntity
  8
0
  6
Continuous
 62
     7
370
    15
100
AcDbLine
 10
353.4652273219
 20
654.6047042097
 30
0.0
 11
429.0530989927
 21
654.6047042097
 31
0.0
  0
LINE
  5
121
330
1F
100
AcDbEntity
  8
0
  6
Continuous
 62
     7
370
    15
100
AcDbLine
 10
452.5652269881
 20
648.144702145
 30
0.0
 11
452.5652269881
 21
654.1446994032
 31
0.0
  0
ARC
  5
122
330
1F
100
AcDbEntity
  8
0
  6
Continuous
 62
     7
370
    15
100
AcDbCircle
 10
429.053098423
 20
651.6047022642
 30
0.0
 40
3.0
100
AcDbArc
 50
36.4998756621
 51
90.0
  0
LINE
  5
123
330
1F
100
AcDbEntity
  8
0
  6
Continuous
 62
     7
370
    15
100
AcDbLine
 10
439.0773545068
 20
645.1447020258
 30
0.0
 11
449.5652268689
 21
645.1447020258
 31
0.0
  0
ARC
  5
124
330
1F
100
AcDbEntity
  8
0
  6
Continuous
 62
     7
370
    15
100
AcDbCircle
 10
449.5652269881
 20
648.1447022642
 30
0.0
 40
3.0
100
AcDbArc
 50
270.0
 51
0.0
  0
ARC
  5
125
330
1F
100
AcDbEntity
  8
0
  6
Continuous
 62
     7
370
    15
100
AcDbCircle
 10
439.0773555533
 20
648.1447022642
 30
0.0
 40
3.0
100
AcDbArc
 50
216.4998756621
 51
270.0
  0
ARC
  5
126
330
1F
100
AcDbEntity
  8
0
  6
Continuous
 62
     7
370
    15
100
AcDbCircle
 10
514.5652269881
 20
544.1447022642
 30
0.0
 40
8.0
100
AcDbArc
 50
270.0
 51
0.0
  0
ARC
  5
127
330
1F
100
AcDbEntity
  8
0
  6
Continuous
 62
     7
370
    15
100
AcDbCircle
 10
290.5652269881
 20
544.1447022642
 30
0.0
 40
8.000000000000057
100
AcDbArc
 50
180.0
 51
270.0
  0
LINE
  5
128
330
1F
100
AcDbEntity
  8
0
  6
Continuous
 62
     7
370
    15
100
AcDbLine
 10
514.565227465
 20
536.1447046484
 30
0.0
 11
290.5652265113
 21
536.1447046484
 31
0.0
  0
LINE
  5
129
330
1F
100
AcDbEntity
  8
0
  6
Continuous
 62
     7
370
    15
100
AcDbLine
 10
878.0769585009
 20
561.1482834551
 30
0.0
 11
880.4161212373
 21
562.4986533594
 31
0.0
  0
LINE
  5
12A
330
1F
100
AcDbEntity
  8
0
  6
Continuous
 62
     7
370
    15
100
AcDbLine
 10
645.3247766012
 20
556.8918275941
 30
0.0
 11
665.2535135245
 21
642.1015657339
 31
0.0
  0
LINE
  5
12B
330
1F
100
AcDbEntity
  8
0
  6
Continuous
 62
     7
370
    15
100
AcDbLine
 10
660.729407585
 20
644.7132809185
 30
0.0
 11
640.4561581073
 21
558.0304939978
 31
0.0
  0
LWPOLYLINE
  5
12C
330
1F
100
AcDbEntity
  8
0
  6
Continuous
 62
     7
370
    15
100
AcDbPolyline
 90
       24
 70
   128
 43
0.0
 10
648.3902812661
 20
552.9237796638
 10
648.1757200897
 20
552.8050741978
 10
647.7840072796
 20
552.6157586246
 10
647.4197657854
 20
552.4736630958
 10
647.0879352177
 20
552.3759578084
 10
646.793096939
 20
552.3185966059
 10
646.537687037
 20
552.2960723507
 10
646.3217729467
 20
552.3021628218
 10
646.1418775532
 20
552.3310609692
 10
645.9888001995
 20
552.3801754197
 10
645.8417751331
 20
552.459091569
 10
645.7099861525
 20
552.5672128739
 10
645.5919876207
 20
552.7023504671
 10
645.4785873101
 20
552.8749437627
 10
645.3712772191
 20
553.0896203801
 10
645.2653621888
 20
553.3753031731
 10
645.1782193648
 20
553.7093099454
 10
645.1140718614
 20
554.0908486417
 10
645.0769868494
 20
554.5180628473
 10
645.0706142459
 20
554.9872313187
 10
645.0978579688
 20
555.4943961183
 10
645.1609686597
 20
556.0349896959
 10
645.2614720347
 20
556.603882361
 10
645.3247766012
 20
556.8918275941
  0
LWPOLYLINE
  5
12D
330
1F
100
AcDbEntity
  8
0
  6
Continuous
 62
     7
370
    15
100
AcDbPolyline
 90
       29
 70
   128
 43
0.0
 10
640.4561581073
 20
558.0304939978
 10
640.3587314523
 20
557.5854826033
 10
640.2140371067
 20
556.7615805382
 10
640.1180603032
 20
555.943767288
 10
640.0726892208
 20
555.1356067129
 10
640.0798457557
 20
554.3410471946
 10
640.141266358
 20
553.5649284125
 10
640.2581690718
 20
552.8130683442
 10
640.4309037157
 20
552.0916256921
 10
640.6587242906
 20
551.4070335557
 10
640.9395613863
 20
550.7653965058
 10
641.2702919213
 20
550.1718189169
 10
641.6470805323
 20
549.6300870599
 10
642.0658136869
 20
549.142682479
 10
642.5224157849
 20
548.711097129
 10
643.0130093163
 20
548.3361847249
 10
643.5339654373
 20
548.0184053316
 10
644.0820599141
 20
547.7580123043
 10
644.6535838239
 20
547.5554359209
 10
645.2458439833
 20
547.4106885088
 10
645.8568510608
 20
547.3238237806
 10
646.4849613295
 20
547.2951592178
 10
647.1286996496
 20
547.3253027827
 10
647.7864012206
 20
547.4150587247
 10
648.4558491183
 20
547.5652246368
 10
649.1340171989
 20
547.7762060803
 10
649.8170026644
 20
548.0476528941
 10
650.5002072934
 20
548.3782371075
 10
650.8900782862
 20
548.5935353276
  0
LINE
  5
12E
330
1F
100
AcDbEntity
  8
0
  6
Continuous
 62
     7
370
    15
100
AcDbLine
 10
725.5597278967
 20
607.2875288342
 30
0.0
 11
725.5597278967
 21
604.1947067878
 31
0.0
  0
LINE
  5
12F
330
1F
100
AcDbEntity
  8
0
  6
Continuous
 62
     7
370
    15
100
AcDbLine
 10
730.5597307614
 20
604.1947092209
 30
0.0
 11
730.5597307614
 21
604.4010927659
 31
0.0
  0
LINE
  5
130
330
1F
100
AcDbEntity
  8
0
  6
Continuous
 62
     7
370
    15
100
AcDbLine
 10
719.7387634286
 20
594.1123816922
 30
0.0
 11
648.3902812661
 21
552.9237796638
 31
0.0
  0
LINE
  5
131
330
1F
100
AcDbEntity
  8
0
  6
Continuous
 62
     7
370
    15
100
AcDbLine
 10
650.8900782862
 20
548.5935353276
 30
0.0
 11
722.2385604487
 21
589.782137356
 31
0.0
  0
LWPOLYLINE
  5
132
330
1F
100
AcDbEntity
  8
0
  6
Continuous
 62
     7
370
    15
100
AcDbPolyline
 90
       21
 70
   128
 43
0.0
 10
725.5597278967
 20
604.1947067878
 10
725.5551296755
 20
603.9385829237
 10
725.519949701
 20
603.4230960994
 10
725.4485065781
 20
602.8756509147
 10
725.3394221048
 20
602.3011349196
 10
725.1920177168
 20
601.7052015894
 10
725.0063271317
 20
601.0937653639
 10
724.7830162695
 20
600.4728817978
 10
724.5233621799
 20
599.8486690753
 10
724.2292277535
 20
599.2272161496
 10
723.9029816432
 20
598.6145146059
 10
723.5474814054
 20
598.0163972181
 10
723.1660819292
 20
597.438546159
 10
722.762669154
 20
596.8864431157
 10
722.3413987591
 20
596.3650648186
 10
721.9068310334
 20
595.8789724699
 10
721.4638465822
 20
595.432252431
 10
721.0176294676
 20
595.0284274083
 10
720.5736672094
 20
594.6703496949
 10
720.1376159148
 20
594.3601041455
 10
719.7387634286
 20
594.1123816922
  0
LWPOLYLINE
  5
133
330
1F
100
AcDbEntity
  8
0
  6
Continuous
 62
     7
370
    15
100
AcDbPolyline
 90
       22
 70
   128
 43
0.0
 10
722.2385604487
 20
589.782137356
 10
722.6100048393
 20
590.0055130181
 10
723.2791366356
 20
590.4537930238
 10
723.9329480525
 20
590.9507886112
 10
724.5692558832
 20
591.4935274099
 10
725.1852742211
 20
592.0784456942
 10
725.778529046
 20
592.7020620418
 10
726.3467655017
 20
593.3609688271
 10
726.8878172401
 20
594.0517968704
 10
727.3996190656
 20
594.771206924
 10
727.8801395002
 20
595.515849376
 10
728.3273976419
 20
596.2823817389
 10
728.7394631651
 20
597.0674347397
 10
729.1143509532
 20
597.8674918625
 10
729.4502234037
 20
598.6791847019
 10
729.7452850608
 20
599.4991868066
 10
729.9977446833
 20
600.324210029
 10
730.2058405332
 20
601.1509905312
 10
730.3677560811
 20
601.9762553246
 10
730.4816579392
 20
602.7966760309
 10
730.5456494993
 20
603.6087727567
 10
730.5597307614
 20
604.1947092209
  0
LINE
  5
134
330
1F
100
AcDbEntity
  8
0
  6
Continuous
 62
     7
370
    15
100
AcDbLine
 10
800.1811657271
 20
467.4951370137
 30
0.0
 11
825.0862253083
 21
573.9822584615
 31
0.0
  0
LINE
  5
135
330
1F
100
AcDbEntity
  8
0
  6
Continuous
 62
     7
370
    15
100
AcDbLine
 10
819.7314934931
 20
573.0424368024
 30
0.0
 11
795.3125472333
 21
468.6338034175
 31
0.0
  0
ARC
  5
136
330
1F
100
AcDbEntity
  8
0
  6
Continuous
 62
     7
370
    15
100
AcDbCircle
 10
800.6405376144
 20
579.7378884725
 30
0.0
 40
25.11411801460831
100
AcDbArc
 50
346.7512554725
 51
352.339608003
  0
ARC
  5
137
330
1F
100
AcDbEntity
  8
0
  6
Continuous
 62
     7
370
    15
100
AcDbCircle
 10
876.1330254516
 20
607.9480062371
 30
0.0
 40
9.28331737317197
100
AcDbArc
 50
359.6029196633
 51
17.3570704386
  0
LINE
  5
138
330
1F
100
AcDbEntity
  8
0
  6
Continuous
 62
     7
370
    15
100
AcDbLine
 10
880.4081049067
 20
608.0702989511
 30
0.0
 11
880.4161170226
 21
607.8836675944
 31
0.0
  0
LWPOLYLINE
  5
139
330
1F
100
AcDbEntity
  8
0
  6
Continuous
 62
     7
370
    15
100
AcDbPolyline
 90
       29
 70
   128
 43
0.0
 10
795.3125472333
 20
468.6338034175
 10
795.2151121489
 20
468.1887968891
 10
795.0704262326
 20
467.3648899579
 10
794.9744409998
 20
466.5470815739
 10
794.9290699174
 20
465.7389209987
 10
794.9362264523
 20
464.9443614805
 10
794.997655484
 20
464.1682378321
 10
795.1145497683
 20
463.41638263
 10
795.2872928416
 20
462.6949351117
 10
795.5151049872
 20
462.0103478415
 10
795.7959505123
 20
461.3687059255
 10
796.1266810472
 20
460.7751283366
 10
796.5034696582
 20
460.2333964796
 10
796.9222028129
 20
459.7459918986
 10
797.3787964815
 20
459.3144114148
 10
797.8693900129
 20
458.9394990108
 10
798.3903545633
 20
458.6217147513
 10
798.9384406107
 20
458.3613265901
 10
799.5099645205
 20
458.1587502067
 10
800.1022246799
 20
458.0140027946
 10
800.7132317574
 20
457.9271380664
 10
801.3413504554
 20
457.8984686374
 10
801.9850887755
 20
457.9286122024
 10
802.6427819172
 20
458.0183730106
 10
803.3122298149
 20
458.1685389226
 10
803.9904063249
 20
458.3795155
 10
804.673383361
 20
458.65096718
 10
805.3565964194
 20
458.9815465271
 10
805.7464674122
 20
459.1968447473
  0
LWPOLYLINE
  5
13A
330
1F
100
AcDbEntity
  8
0
  6
Continuous
 62
     7
370
    15
100
AcDbPolyline
 90
       24
 70
   128
 43
0.0
 10
803.246670392
 20
463.5270890835
 10
803.0321092156
 20
463.4083836175
 10
802.6403879762
 20
463.2190729105
 10
802.276146482
 20
463.0769773816
 10
801.9443159143
 20
462.9792720943
 10
801.6494860649
 20
462.9219060255
 10
801.3940761629
 20
462.8993817703
 10
801.1781536433
 20
462.9054771076
 10
800.9982582498
 20
462.934375255
 10
800.845180896
 20
462.9834897055
 10
800.6981558297
 20
463.0624058548
 10
800.5663752784
 20
463.1705222935
 10
800.4483683173
 20
463.3056647529
 10
800.3349764361
 20
463.4782531823
 10
800.2276663451
 20
463.6929297998
 10
800.1217513148
 20
463.9786125927
 10
800.0346084908
 20
464.3126193651
 10
799.9704609874
 20
464.6941580613
 10
799.933367546
 20
465.1213771332
 10
799.9269949425
 20
465.5905456045
 10
799.9542386654
 20
466.0977104041
 10
800.0173493563
 20
466.6383039818
 10
800.1178611607
 20
467.2071917806
 10
800.1811657271
 20
467.4951370137
  0
LINE
  5
13B
330
1F
100
AcDbEntity
  8
0
  6
Continuous
 62
     7
370
    15
100
AcDbLine
 10
880.4161170226
 20
607.8836675944
 30
0.0
 11
880.4161170226
 21
605.3685673813
 31
0.0
  0
LINE
  5
13C
330
1F
100
AcDbEntity
  8
0
  6
Continuous
 62
     7
370
    15
100
AcDbLine
 10
880.4161170226
 20
599.8141756258
 30
0.0
 11
880.4161170226
 21
514.7980162075
 31
0.0
  0
LINE
  5
13D
330
1F
100
AcDbEntity
  8
0
  6
Continuous
 62
     7
370
    15
100
AcDbLine
 10
885.4161198873
 20
514.7980186406
 30
0.0
 11
885.4161198873
 21
607.8836700275
 31
0.0
  0
LINE
  5
13E
330
1F
100
AcDbEntity
  8
0
  6
Continuous
 62
     7
370
    15
100
AcDbLine
 10
874.5951525545
 20
504.7156911118
 30
0.0
 11
803.246670392
 21
463.5270890835
 31
0.0
  0
LINE
  5
13F
330
1F
100
AcDbEntity
  8
0
  6
Continuous
 62
     7
370
    15
100
AcDbLine
 10
805.7464674122
 20
459.1968447473
 30
0.0
 11
877.0949495746
 21
500.3854467756
 31
0.0
  0
LWPOLYLINE
  5
140
330
1F
100
AcDbEntity
  8
0
  6
Continuous
 62
     7
370
    15
100
AcDbPolyline
 90
       22
 70
   128
 43
0.0
 10
877.0949495746
 20
500.3854467756
 10
877.4663939653
 20
500.6088224378
 10
878.1355257616
 20
501.0571024434
 10
878.7893371785
 20
501.5540980308
 10
879.4256450092
 20
502.0968368296
 10
880.0416549177
 20
502.68175998
 10
880.634918172
 20
503.3053714614
 10
881.2031546277
 20
503.9642782467
 10
881.7441979367
 20
504.6551111562
 10
882.2559997622
 20
505.3745212098
 10
882.7365201968
 20
506.1191636618
 10
883.1837867678
 20
506.8856911586
 10
883.5958438617
 20
507.6707490255
 10
883.9707316498
 20
508.4708061484
 10
884.3066041003
 20
509.2824989877
 10
884.6016657573
 20
510.1025010925
 10
884.8541253799
 20
510.9275243149
 10
885.0622212298
 20
511.754304817
 10
885.224145207
 20
512.5795647443
 10
885.3380470651
 20
513.3999854505
 10
885.4020301959
 20
514.2120870425
 10
885.4161198873
 20
514.7980186406
  0
LWPOLYLINE
  5
141
330
1F
100
AcDbEntity
  8
0
  6
Continuous
 62
     7
370
    15
100
AcDbPolyline
 90
       21
 70
   128
 43
0.0
 10
880.4161170226
 20
514.7980162075
 10
880.4115103721
 20
514.5418972096
 10
880.3763303976
 20
514.0264103852
 10
880.3048957041
 20
513.4789603343
 10
880.1958112308
 20
512.9044443393
 10
880.0484068428
 20
512.308511009
 10
879.8627162576
 20
511.6970747836
 10
879.6394053955
 20
511.0761912174
 10
879.3797513058
 20
510.4519784949
 10
879.0856168795
 20
509.8305255692
 10
878.7593707692
 20
509.2178240256
 10
878.403862102
 20
508.6197115039
 10
878.0224626258
 20
508.0418604448
 10
877.6190498506
 20
507.4897574015
 10
877.197787885
 20
506.9683742382
 10
876.7632201594
 20
506.4822818895
 10
876.3202272787
 20
506.0355667169
 10
875.8740185936
 20
505.6317368279
 10
875.430047906
 20
505.2736639807
 10
874.9939966113
 20
504.9634184313
 10
874.5951525545
 20
504.7156911118
  0
LINE
  5
142
330
1F
100
AcDbEntity
  8
0
  6
Continuous
 62
     7
370
    15
100
AcDbLine
 10
890.9161150306
 20
616.049411843
 30
0.0
 11
890.9161150306
 21
618.8256537961
 31
0.0
  0
LINE
  5
143
330
1F
100
AcDbEntity
  8
0
  6
Continuous
 62
     7
370
    15
100
AcDbLine
 10
820.8254339123
 20
648.2861535937
 30
0.0
 11
820.8254339123
 21
651.7156295202
 31
0.0
  0
LINE
  5
144
330
1F
100
AcDbEntity
  8
0
  6
Continuous
 62
     7
370
    15
100
AcDbLine
 10
635.9140259608
 20
663.7280960534
 30
0.0
 11
635.9140259608
 21
660.9518541003
 31
0.0
  0
LWPOLYLINE
  5
145
330
1F
100
AcDbEntity
  8
0
  6
Continuous
 62
     7
370
    15
100
AcDbPolyline
 90
        9
 70
   128
 43
0.0
 10
865.5040098957
 20
595.3540212375
 10
865.7991263437
 20
595.1836456656
 10
866.1213305712
 20
594.9976304448
 10
866.4582335121
 20
594.8031304752
 10
866.7969045133
 20
594.6075916621
 10
867.1243117693
 20
594.4185574716
 10
867.4278870897
 20
594.2432747244
 10
867.695964227
 20
594.0884794487
 10
867.918221418
 20
593.9601364918
  0
LWPOLYLINE
  5
146
330
1F
100
AcDbEntity
  8
0
  6
Continuous
 62
     7
370
    15
100
AcDbPolyline
 90
        9
 70
   128
 43
0.0
 10
867.7982230182
 20
593.7522907338
 10
867.5759637199
 20
593.8806324741
 10
867.3078865826
 20
594.0354277498
 10
867.0043112622
 20
594.210710497
 10
866.6769040062
 20
594.3997446875
 10
866.338233005
 20
594.5952835006
 10
866.0013300641
 20
594.7897834702
 10
865.6791258366
 20
594.975798691
 10
865.3840093887
 20
595.1461742629
  0
LINE
  5
147
330
1F
100
AcDbEntity
  8
0
  6
Continuous
 62
     7
370
    15
100
AcDbLine
 10
869.5810852865
 20
592.7227316709
 30
0.0
 11
861.7017656748
 21
597.2713660623
 31
0.0
  0
LINE
  5
148
330
1F
100
AcDbEntity
  8
0
  6
Continuous
 62
     7
370
    15
100
AcDbLine
 10
865.3840093887
 20
595.1461742629
 30
0.0
 11
861.7022208608
 21
597.2716255386
 31
0.0
  0
LINE
  5
149
330
1F
100
AcDbEntity
  8
0
  6
Continuous
 62
     7
370
    15
100
AcDbLine
 10
867.7982230182
 20
593.7522907338
 30
0.0
 11
869.5810852865
 21
592.7227316709
 31
0.0
  0
LINE
  5
14A
330
1F
100
AcDbEntity
  8
0
  6
Continuous
 62
     7
370
    15
100
AcDbLine
 10
865.5040098957
 20
595.3540212375
 30
0.0
 11
861.9422387337
 21
597.4101879626
 31
0.0
  0
LINE
  5
14B
330
1F
100
AcDbEntity
  8
0
  6
Continuous
 62
     7
370
    15
100
AcDbLine
 10
867.918221418
 20
593.9601364918
 30
0.0
 11
869.7010857935
 21
592.9305786455
 31
0.0
  0
LINE
  5
14C
330
1F
100
AcDbEntity
  8
0
  6
Continuous
 62
     7
370
    15
100
AcDbLine
 10
881.2870774324
 20
604.8657679889
 30
0.0
 11
878.0720821105
 21
606.7217452826
 31
0.0
  0
LWPOLYLINE
  5
14D
330
1F
100
AcDbEntity
  8
0
  6
Continuous
 62
     7
370
    15
100
AcDbPolyline
 90
        9
 70
   128
 43
0.0
 10
881.7012924449
 20
602.3173098339
 10
881.8692139187
 20
602.6708981395
 10
881.9763217048
 20
603.0422830612
 10
882.0185233443
 20
603.4171785984
 10
881.9941877539
 20
603.7811723374
 10
881.9042421645
 20
604.1202972744
 10
881.7521594764
 20
604.4215014388
 10
881.5437643839
 20
604.6732172747
 10
881.2870774324
 20
604.8657679889
  0
LINE
  5
14E
330
1F
100
AcDbEntity
  8
0
  6
Continuous
 62
     7
370
    15
100
AcDbLine
 10
879.57170702
 20
598.6287669902
 30
0.0
 11
881.7012924449
 21
602.3173098339
 31
0.0
  0
ARC
  5
14F
330
1F
100
AcDbEntity
  8
0
  6
Continuous
 62
     7
370
    15
100
AcDbCircle
 10
869.6514981101
 20
592.8785620587
 30
0.0
 40
0.1710002207342136
100
AcDbArc
 50
245.6839048837
 51
305.6187274137
  0
LINE
  5
150
330
1F
100
AcDbEntity
  8
0
  6
Continuous
 62
     7
370
    15
100
AcDbLine
 10
869.7510867073
 20
592.9355273049
 30
0.0
 11
879.5217082137
 21
598.5759870399
 31
0.0
  0
LINE
  5
151
330
1F
100
AcDbEntity
  8
0
  6
Continuous
 62
     7
370
    15
100
AcDbLine
 10
869.7510867073
 20
592.7395541927
 30
0.0
 11
879.5217082137
 21
598.3800139278
 31
0.0
  0
LINE
  5
152
330
1F
100
AcDbEntity
  8
0
  6
Continuous
 62
     7
370
    15
100
AcDbLine
 10
879.6917075271
 20
598.559469652
 30
0.0
 11
881.821292952
 21
602.2480124956
 31
0.0
  0
LINE
  5
153
330
1F
100
AcDbEntity
  8
0
  6
Continuous
 62
     7
370
    15
100
AcDbLine
 10
881.2870774324
 20
604.8657679889
 30
0.0
 11
881.4070779395
 21
604.7964706506
 31
0.0
  0
LWPOLYLINE
  5
154
330
1F
100
AcDbEntity
  8
0
  6
Continuous
 62
     7
370
    15
100
AcDbPolyline
 90
        9
 70
   128
 43
0.0
 10
881.4070779395
 20
604.7964706506
 10
881.663764891
 20
604.6039199365
 10
881.8721599834
 20
604.3522041006
 10
882.0242426716
 20
604.0509999362
 10
882.114188261
 20
603.7118749992
 10
882.1385196367
 20
603.3478788271
 10
882.0963222119
 20
602.972985723
 10
881.9892144258
 20
602.6016105352
 10
881.821292952
 20
602.2480124956
  0
ARC
  5
155
330
1F
100
AcDbEntity
  8
0
  6
Continuous
 62
     7
370
    15
100
AcDbCircle
 10
879.4453956576
 20
598.6983505241
 30
0.0
 40
0.1442096684643852
100
AcDbArc
 50
301.9499193642
 51
331.1501168218
  0
ARC
  5
156
330
1F
100
AcDbEntity
  8
0
  6
Continuous
 62
     7
370
    15
100
AcDbCircle
 10
879.2621205868
 20
598.7961710631
 30
0.0
 40
0.4904819031116847
100
AcDbArc
 50
301.9548053048
 51
331.145337349
  0
LWPOLYLINE
  5
157
330
1F
100
AcDbEntity
  8
0
  6
Continuous
 62
     7
370
    15
100
AcDbPolyline
 90
       12
 70
   128
 43
0.0
 10
879.7341388669
 20
589.3072628469
 10
879.706895144
 20
589.9632684325
 10
879.6254421446
 20
590.6444067928
 10
879.4905553706
 20
591.3441173351
 10
879.303532945
 20
592.0556643051
 10
879.0661787529
 20
592.772185455
 10
878.7807855829
 20
593.486789381
 10
878.4500845508
 20
594.1925944544
 10
878.0772788169
 20
594.882806696
 10
877.6659508636
 20
595.5507635704
 10
877.2200624944
 20
596.1900410588
 10
876.7540953667
 20
596.7823018054
  0
ARC
  5
158
330
1F
100
AcDbEntity
  8
0
  6
Continuous
 62
     7
370
    15
100
AcDbCircle
 10
868.962823039
 20
589.643644548
 30
0.0
 40
13.45182527541802
100
AcDbArc
 50
31.6324017421
 51
39.7864107141
  0
LINE
  5
159
330
1F
100
AcDbEntity
  8
0
  6
Continuous
 62
     7
370
    15
100
AcDbLine
 10
836.945669915
 20
582.9799697295
 30
0.0
 11
874.0772815828
 21
561.5443465837
 31
0.0
  0
LINE
  5
15A
330
1F
100
AcDbEntity
  8
0
  6
Continuous
 62
     7
370
    15
100
AcDbLine
 10
879.7341388669
 20
564.8110423839
 30
0.0
 11
879.7341388669
 21
589.3072628469
 31
0.0
  0
LWPOLYLINE
  5
15B
330
1F
100
AcDbEntity
  8
0
  6
Continuous
 62
     7
370
    15
100
AcDbPolyline
 90
       17
 70
   128
 43
0.0
 10
874.0772815828
 20
561.5443465837
 10
874.6317486631
 20
561.2557147302
 10
875.1808799523
 20
561.0327717689
 10
875.7193818064
 20
560.8776635336
 10
876.2420617335
 20
560.7918934284
 10
876.7439042587
 20
560.7762688986
 10
877.2200624944
 20
560.8309549661
 10
877.6659508636
 20
560.9554255685
 10
878.0772788169
 20
561.1484732967
 10
878.4500845508
 20
561.4082434662
 10
878.7807855829
 20
561.732234122
 10
879.0661787529
 20
562.1173301077
 10
879.303532945
 20
562.5598128075
 10
879.4905553706
 20
563.0554234143
 10
879.6254421446
 20
563.5993970023
 10
879.706895144
 20
564.1864868643
 10
879.7341388669
 20
564.8110423839
  0
LINE
  5
15C
330
1F
100
AcDbEntity
  8
0
  6
Continuous
 62
     7
370
    15
100
AcDbLine
 10
650.8900782862
 20
548.5935353276
 30
0.0
 11
650.8679680495
 21
548.5812112066
 31
0.0
  0
LINE
  5
15D
330
1F
100
AcDbEntity
  8
0
  6
Continuous
 62
     7
370
    15
100
AcDbLine
 10
730.5597307614
 20
604.1947092209
 30
0.0
 11
730.5593430104
 21
604.2201301011
 31
0.0
  0
LWPOLYLINE
  5
15E
330
1F
100
AcDbEntity
  8
0
  6
Continuous
 62
     7
370
    15
100
AcDbPolyline
 90
       16
 70
   128
 43
0.0
 10
797.7804601625
 20
570.9843511336
 10
798.2782903078
 20
570.7255827291
 10
798.8202566328
 20
570.4982692575
 10
799.4004037878
 20
570.3049094979
 10
800.0123886723
 20
570.1476129357
 10
800.6494972931
 20
570.0281094948
 10
801.3047627763
 20
569.9477008761
 10
801.9709948694
 20
569.907277589
 10
802.6408937384
 20
569.907277589
 10
803.3071258315
 20
569.9477008761
 10
803.9623871
 20
570.0281070617
 10
804.5994999355
 20
570.1476129357
 10
805.21148482
 20
570.3049046318
 10
805.791631975
 20
570.4982692575
 10
806.3335940853
 20
570.7255802961
 10
806.8314284453
 20
570.9843511336
  0
LWPOLYLINE
  5
15F
330
1F
100
AcDbEntity
  8
0
  6
Continuous
 62
     7
370
    15
100
AcDbPolyline
 90
       17
 70
   128
 43
0.0
 10
807.962801588
 20
569.0247553739
 10
807.3810907848
 20
568.7203958082
 10
806.7505064961
 20
568.4504108783
 10
806.0771178681
 20
568.2174088521
 10
805.3674113007
 20
568.0236354679
 10
804.6282187981
 20
567.8709520363
 10
803.8666673924
 20
567.760825708
 10
803.0900779911
 20
567.6943294737
 10
802.3059400892
 20
567.6720886367
 10
801.521806402
 20
567.6943270407
 10
800.7452212154
 20
567.760825708
 10
799.983665595
 20
567.8709496032
 10
799.2444730924
 20
568.023637901
 10
798.5347707397
 20
568.2174088521
 10
797.8613821117
 20
568.4504108783
 10
797.230797823
 20
568.7203958082
 10
796.6490912345
 20
569.024757807
  0
LWPOLYLINE
  5
160
330
1F
100
AcDbEntity
  8
0
  6
Continuous
 62
     7
370
    15
100
AcDbPolyline
 90
       17
 70
   128
 43
0.0
 10
796.6490912345
 20
566.2485158539
 10
797.230797823
 20
565.9441538551
 10
797.8613821117
 20
565.6741689251
 10
798.5347707397
 20
565.441166899
 10
799.2444730924
 20
565.2473959479
 10
799.983665595
 20
565.0947076501
 10
800.7452212154
 20
564.9845837548
 10
801.521806402
 20
564.9180850875
 10
802.3059400892
 20
564.8958466835
 10
803.0900779911
 20
564.9180875206
 10
803.8666673924
 20
564.9845837548
 10
804.6282187981
 20
565.0947100832
 10
805.3674113007
 20
565.2473935148
 10
806.0771178681
 20
565.441166899
 10
806.7505064961
 20
565.6741689251
 10
807.3810907848
 20
565.9441538551
 10
807.962801588
 20
566.2485134208
  0
LINE
  5
161
330
1F
100
AcDbEntity
  8
0
  6
Continuous
 62
     7
370
    15
100
AcDbLine
 10
887.441600489
 20
622.7446256957
 30
0.0
 11
729.0496808289
 21
714.1823346091
 31
0.0
  0
LWPOLYLINE
  5
162
330
1F
100
AcDbEntity
  8
0
  6
Continuous
 62
     7
370
    15
100
AcDbPolyline
 90
       16
 70
   128
 43
0.0
 10
887.441600489
 20
617.5196129236
 10
887.8898532963
 20
617.8070065822
 10
888.2836102286
 20
618.1198746489
 10
888.6185638777
 20
618.4547864728
 10
888.8910306093
 20
618.8080778265
 10
889.0980432851
 20
619.1758752377
 10
889.2373259754
 20
619.5541495162
 10
889.3073487495
 20
619.938757117
 10
889.3073487495
 20
620.3254815023
 10
889.2373259754
 20
620.7100891031
 10
889.0980390704
 20
621.0883658147
 10
888.8910306093
 20
621.4561607928
 10
888.6185554484
 20
621.8094521465
 10
888.2836102286
 20
622.1443639704
 10
887.8898490817
 20
622.4572344702
 10
887.441600489
 20
622.7446256957
  0
LINE
  5
163
330
1F
100
AcDbEntity
  8
0
  6
Continuous
 62
     7
370
    15
100
AcDbLine
 10
806.8314284453
 20
570.9843511336
 30
0.0
 11
887.441600489
 21
617.5196129236
 31
0.0
  0
LINE
  5
164
330
1F
100
AcDbEntity
  8
0
  6
Continuous
 62
     7
370
    15
100
AcDbLine
 10
639.3885405024
 20
662.4220600471
 30
0.0
 11
797.7804601625
 21
570.9843511336
 31
0.0
  0
LWPOLYLINE
  5
165
330
1F
100
AcDbEntity
  8
0
  6
Continuous
 62
     7
370
    15
100
AcDbPolyline
 90
       16
 70
   128
 43
0.0
 10
639.3885405024
 20
667.6470728192
 10
638.940287695
 20
667.3596791606
 10
638.5465307628
 20
667.0468110938
 10
638.2115771137
 20
666.71189927
 10
637.9391103821
 20
666.3586079163
 10
637.7320977063
 20
665.9908105051
 10
637.592815016
 20
665.6125362266
 10
637.5227922419
 20
665.2279286258
 10
637.5227922419
 20
664.8412042404
 10
637.592815016
 20
664.4565966397
 10
637.7321019209
 20
664.0783199281
 10
637.9391103821
 20
663.71052495
 10
638.211585543
 20
663.3572335962
 10
638.5465307628
 20
663.0223217724
 10
638.9402919097
 20
662.7094512726
 10
639.3885405024
 20
662.4220600471
  0
LINE
  5
166
330
1F
100
AcDbEntity
  8
0
  6
Continuous
 62
     7
370
    15
100
AcDbLine
 10
719.9987125461
 20
714.1823346091
 30
0.0
 11
639.3885405024
 21
667.6470728192
 31
0.0
  0
LWPOLYLINE
  5
167
330
1F
100
AcDbEntity
  8
0
  6
Continuous
 62
     7
370
    15
100
AcDbPolyline
 90
       16
 70
   128
 43
0.0
 10
729.0496808289
 20
714.1823346091
 10
728.5518506836
 20
714.4411030136
 10
728.0098843586
 20
714.6684164852
 10
727.4297372036
 20
714.8617762449
 10
726.8177523191
 20
715.0190728071
 10
726.1806436983
 20
715.138576248
 10
725.5253782151
 20
715.2189848667
 10
724.859146122
 20
715.2594081538
 10
724.189247253
 20
715.2594081538
 10
723.5230151599
 20
715.2189848667
 10
722.8677538914
 20
715.1385786811
 10
722.2306410559
 20
715.0190728071
 10
721.6186561714
 20
714.861781111
 10
721.0385090164
 20
714.6684164852
 10
720.496546906
 20
714.4411054467
 10
719.9987125461
 20
714.1823346091
  0
LINE
  5
168
330
1F
100
AcDbEntity
  8
0
  6
Continuous
 62
     7
370
    15
100
AcDbLine
 10
827.1961028668
 20
641.032167965
 30
0.0
 11
819.7800571993
 21
645.3133600011
 31
0.0
  0
ARC
  5
169
330
1F
100
AcDbEntity
  8
0
  6
Continuous
 62
     7
370
    15
100
AcDbCircle
 10
829.8831099804
 20
646.1919761387
 30
0.0
 40
5.817527620675969
100
AcDbArc
 50
242.4914300514
 51
297.5085440079
  0
LINE
  5
16A
330
1F
100
AcDbEntity
  8
0
  6
Continuous
 62
     7
370
    15
100
AcDbLine
 10
836.8127535062
 20
643.4813899647
 30
0.0
 11
832.5701147578
 21
641.0321667485
 31
0.0
  0
LWPOLYLINE
  5
16B
330
1F
100
AcDbEntity
  8
0
  6
Continuous
 62
     7
370
    15
100
AcDbPolyline
 90
       12
 70
   128
 43
0.0
 10
836.8127556135
 20
646.5837434271
 10
837.1678069874
 20
646.3472000446
 10
837.4609277821
 20
646.0838927186
 10
837.6861584332
 20
645.7991839701
 10
837.8389049342
 20
645.4988694095
 10
837.9160673845
 20
645.1890645978
 10
837.9160673845
 20
644.8760724437
 10
837.8389028269
 20
644.5662639823
 10
837.6861584332
 20
644.2659506382
 10
837.4609298894
 20
643.9812431063
 10
837.1678069874
 20
643.7179345637
 10
836.8127535062
 20
643.4813899647
  0
LINE
  5
16C
330
1F
100
AcDbEntity
  8
0
  6
Continuous
 62
     7
370
    15
100
AcDbLine
 10
768.8597942618
 20
685.8121530153
 30
0.0
 11
836.8127556135
 21
646.5837434271
 31
0.0
  0
ARC
  5
16D
330
1F
100
AcDbEntity
  8
0
  6
Continuous
 62
     7
370
    15
100
AcDbCircle
 10
767.6577113514
 20
683.4921251986
 30
0.0
 40
2.61295472476982
100
AcDbArc
 50
62.6098367098
 51
117.3901632902
  0
LINE
  5
16E
330
1F
100
AcDbEntity
  8
0
  6
Continuous
 62
     7
370
    15
100
AcDbLine
 10
765.932371102
 20
685.5100829832
 30
0.0
 11
766.455628441
 21
685.8121530153
 31
0.0
  0
ARC
  5
16F
330
1F
100
AcDbEntity
  8
0
  6
Continuous
 62
     7
370
    15
100
AcDbCircle
 10
766.1957465453
 20
684.8161352901
 30
0.0
 40
0.7422466065088277
100
AcDbArc
 50
110.7833626902
 51
249.2166373098
  0
LINE
  5
170
330
1F
100
AcDbEntity
  8
0
  6
Continuous
 62
     7
370
    15
100
AcDbLine
 10
819.3810677358
 20
653.2669118033
 30
0.0
 11
765.932371102
 21
684.122187597
 31
0.0
  0
ARC
  5
171
330
1F
100
AcDbEntity
  8
0
  6
Continuous
 62
     7
370
    15
100
AcDbCircle
 10
818.9971939018
 20
652.3276237915
 30
0.0
 40
1.014702463644877
100
AcDbArc
 50
351.6995631974
 51
67.7708541638
  0
LINE
  5
172
330
1F
100
AcDbEntity
  8
0
  6
Continuous
 62
     7
370
    15
100
AcDbLine
 10
818.7088044287
 20
647.1887885991
 30
0.0
 11
820.0012670411
 21
652.181137544
 31
0.0
  0
LWPOLYLINE
  5
173
330
1F
100
AcDbEntity
  8
0
  6
Continuous
 62
     7
370
    15
100
AcDbPolyline
 90
        9
 70
   128
 43
0.0
 10
819.7800571993
 20
645.3133600011
 10
819.4854254401
 20
645.5045543144
 10
819.231368452
 20
645.7142571112
 10
819.0213422765
 20
645.9396095156
 10
818.8582044699
 20
646.1775507059
 10
818.7441761713
 20
646.4248398117
 10
818.6808104919
 20
646.678113092
 10
818.6689630128
 20
646.9339228642
 10
818.7088044287
 20
647.1887885991
  0
LINE
  5
174
330
1F
100
AcDbEntity
  8
0
  6
Continuous
 62
     7
370
    15
100
AcDbLine
 10
888.5729736317
 20
615.5600171639
 30
0.0
 11
807.962801588
 21
569.0247553739
 31
0.0
  0
LINE
  5
175
330
1F
100
AcDbEntity
  8
0
  6
Continuous
 62
     7
370
    15
100
AcDbLine
 10
796.6490912345
 20
569.024757807
 30
0.0
 11
638.2571715744
 21
660.4624667205
 31
0.0
  0
LINE
  5
176
330
1F
100
AcDbEntity
  8
0
  6
Continuous
 62
     7
370
    15
100
AcDbLine
 10
638.2571715744
 20
657.6862247673
 30
0.0
 11
796.6490912345
 21
566.2485158539
 31
0.0
  0
LINE
  5
177
330
1F
100
AcDbEntity
  8
0
  6
Continuous
 62
     7
370
    15
100
AcDbLine
 10
807.962801588
 20
566.2485134208
 30
0.0
 11
888.5729736317
 21
612.7837752108
 31
0.0
  0
LINE
  5
178
330
1F
100
AcDbEntity
  8
0
  6
Continuous
 62
     7
370
    15
100
AcDbLine
 10
887.441600489
 20
622.7446256957
 30
0.0
 11
888.572969417
 21
622.091283129
 31
0.0
  0
LWPOLYLINE
  5
179
330
1F
100
AcDbEntity
  8
0
  6
Continuous
 62
     7
370
    15
100
AcDbPolyline
 90
       17
 70
   128
 43
0.0
 10
888.572969417
 20
622.091283129
 10
889.1001969891
 20
621.7554710635
 10
889.5678752789
 20
621.3914425022
 10
889.971490359
 20
621.0027035218
 10
890.3071478605
 20
620.5930010743
 10
890.5716404084
 20
620.1662743257
 10
890.7624012594
 20
619.7266376239
 10
890.8775928111
 20
619.2783245383
 10
890.9161150306
 20
618.8256537961
 10
890.8775885964
 20
618.3729806208
 10
890.7624012594
 20
617.9246651021
 10
890.5716361937
 20
617.4850308334
 10
890.3071520752
 20
617.0583040848
 10
889.971490359
 20
616.6485992042
 10
889.5678752789
 20
616.2598602238
 10
889.1001969891
 20
615.8958316625
 10
888.5729736317
 20
615.5600171639
  0
LWPOLYLINE
  5
17A
330
1F
100
AcDbEntity
  8
0
  6
Continuous
 62
     7
370
    15
100
AcDbPolyline
 90
        9
 70
   128
 43
0.0
 10
890.9161150306
 20
616.049411843
 10
890.8775885964
 20
615.5967386676
 10
890.7624012594
 20
615.1484231489
 10
890.5716361937
 20
614.7087888803
 10
890.3071520752
 20
614.2820621316
 10
889.971490359
 20
613.8723572511
 10
889.5678752789
 20
613.4836182707
 10
889.1001969891
 20
613.1195897094
 10
888.5729736317
 20
612.7837752108
  0
LWPOLYLINE
  5
17B
330
1F
100
AcDbEntity
  8
0
  6
Continuous
 62
     7
370
    15
100
AcDbPolyline
 90
       11
 70
   128
 43
0.0
 10
836.2470669349
 20
643.1547198979
 10
836.5528022813
 20
643.3613703886
 10
836.7987691819
 20
643.5930840958
 10
836.9789174565
 20
643.84415665
 10
837.0888111493
 20
644.1084092298
 10
837.1257486473
 20
644.3793333309
 10
837.0888132566
 20
644.6502562153
 10
836.9789195638
 20
644.9145087952
 10
836.7987691819
 20
645.1655825659
 10
836.5527980666
 20
645.3972962731
 10
836.2470690422
 20
645.6039455473
  0
LWPOLYLINE
  5
17C
330
1F
100
AcDbEntity
  8
0
  6
Continuous
 62
     7
370
    15
100
AcDbPolyline
 90
        9
 70
   128
 43
0.0
 10
819.5000166791
 20
646.4672907547
 10
819.4685645934
 20
646.2660806439
 10
819.4779148717
 20
646.0641260087
 10
819.5279410735
 20
645.8641738032
 10
819.6179625273
 20
645.6689454337
 10
819.7467569743
 20
645.4810978299
 10
819.912566891
 20
645.3031857319
 10
820.1131395284
 20
645.1376312765
 10
820.3457416633
 20
644.9866887178
  0
LINE
  5
17D
330
1F
100
AcDbEntity
  8
0
  6
Continuous
 62
     7
370
    15
100
AcDbLine
 10
836.2470690422
 20
645.6039455473
 30
0.0
 11
768.2941076905
 21
684.8323551354
 31
0.0
  0
LINE
  5
17E
330
1F
100
AcDbEntity
  8
0
  6
Continuous
 62
     7
370
    15
100
AcDbLine
 10
820.8254318049
 20
651.0771912981
 30
0.0
 11
835.397965988
 21
642.6646463803
 31
0.0
  0
LINE
  5
17F
330
1F
100
AcDbEntity
  8
0
  6
Continuous
 62
     7
370
    15
100
AcDbLine
 10
820.7924771841
 20
651.4596384831
 30
0.0
 11
819.5000166791
 21
646.4672907547
 31
0.0
  0
LINE
  5
180
330
1F
100
AcDbEntity
  8
0
  6
Continuous
 62
     7
370
    15
100
AcDbLine
 10
820.0549979509
 20
645.1815288457
 30
0.0
 11
820.7924771841
 21
648.0301625566
 31
0.0
  0
LWPOLYLINE
  5
181
330
1F
100
AcDbEntity
  8
0
  6
Continuous
 62
     7
370
    15
100
AcDbPolyline
 90
        9
 70
   128
 43
0.0
 10
819.9467543072
 20
652.9402417365
 10
820.1793564421
 20
652.7892967447
 10
820.3799269721
 20
652.6237435059
 10
820.5457389962
 20
652.4458326244
 10
820.6745313359
 20
652.2579838041
 10
820.7645527896
 20
652.0627554346
 10
820.8145810988
 20
651.8628044456
 10
820.8239292698
 20
651.6608485939
 10
820.7924771841
 20
651.4596384831
  0
LINE
  5
182
330
1F
100
AcDbEntity
  8
0
  6
Continuous
 62
     7
370
    15
100
AcDbLine
 10
819.9467543072
 20
652.9402417365
 30
0.0
 11
819.3810677358
 21
653.2669118033
 31
0.0
  0
LWPOLYLINE
  5
183
330
1F
100
AcDbEntity
  8
0
  6
Continuous
 62
     7
370
    15
100
AcDbPolyline
 90
        3
 70
   128
 43
0.0
 10
820.7924771841
 20
648.0301625566
 10
820.8239292698
 20
648.2313726675
 10
820.8254339123
 20
648.2861535937
  0
LWPOLYLINE
  5
184
330
1F
100
AcDbEntity
  8
0
  6
Continuous
 62
     7
370
    15
100
AcDbPolyline
 90
       17
 70
   128
 43
0.0
 10
638.2571715744
 20
660.4624667205
 10
637.7299440023
 20
660.798278786
 10
637.2622657125
 20
661.1623073473
 10
636.8586506324
 20
661.5510463277
 10
636.5229931309
 20
661.9607487752
 10
636.258500583
 20
662.3874755238
 10
636.067739732
 20
662.8271122255
 10
635.9525481803
 20
663.2754253112
 10
635.9140259608
 20
663.7280960534
 10
635.952552395
 20
664.1807692287
 10
636.067739732
 20
664.6290847474
 10
636.2585047977
 20
665.0687190161
 10
636.5229889162
 20
665.4954457647
 10
636.8586506324
 20
665.9051506452
 10
637.2622657125
 20
666.2938896257
 10
637.7299440023
 20
666.657918187
 10
638.2571673597
 20
666.9937326856
  0
LINE
  5
185
330
1F
100
AcDbEntity
  8
0
  6
Continuous
 62
     7
370
    15
100
AcDbLine
 10
638.2571673597
 20
666.9937326856
 30
0.0
 11
639.3885405024
 21
667.6470728192
 31
0.0
  0
LWPOLYLINE
  5
186
330
1F
100
AcDbEntity
  8
0
  6
Continuous
 62
     7
370
    15
100
AcDbPolyline
 90
        9
 70
   128
 43
0.0
 10
638.2571715744
 20
657.6862247673
 10
637.7299440023
 20
658.0220368329
 10
637.2622657125
 20
658.3860653942
 10
636.8586506324
 20
658.7748043746
 10
636.5229931309
 20
659.184506822
 10
636.258500583
 20
659.6112335707
 10
636.067739732
 20
660.0508702724
 10
635.9525481803
 20
660.499183358
 10
635.9140259608
 20
660.9518541003
  0
ARC
  5
187
330
1F
100
AcDbEntity
  8
0
  6
Continuous
 62
     7
370
    15
100
AcDbCircle
 10
766.6374878183
 20
684.1629013168
 30
0.0
 40
0.3929524296436619
100
AcDbArc
 50
110.7828440468
 51
249.2171559532
  0
ARC
  5
188
330
1F
100
AcDbEntity
  8
0
  6
Continuous
 62
     7
370
    15
100
AcDbCircle
 10
767.6577113514
 20
683.6041114931
 30
0.0
 40
1.383323080558909
100
AcDbArc
 50
62.6097334081
 51
117.3902665919
  0
LINE
  5
189
330
1F
100
AcDbEntity
  8
0
  6
Continuous
 62
     7
370
    15
100
AcDbLine
 10
767.0213150123
 20
684.8323551354
 30
0.0
 11
766.4980576734
 21
684.5302851034
 31
0.0
  0
LINE
  5
18A
330
1F
100
AcDbEntity
  8
0
  6
Continuous
 62
     7
370
    15
100
AcDbLine
 10
839.0473437642
 20
201.108262082
 30
0.0
 11
803.826273713
 21
313.9130802354
 31
0.0
  0
LINE
  5
18B
330
1F
100
AcDbEntity
  8
0
  6
Continuous
 62
     7
370
    15
100
AcDbLine
 10
799.0535077785
 20
312.4228806695
 30
0.0
 11
834.2745793198
 21
199.6180595359
 31
0.0
  0
LINE
  5
18C
330
1F
100
AcDbEntity
  8
0
  6
Continuous
 62
     7
370
    15
100
AcDbLine
 10
713.7134385442
 20
257.382759591
 30
0.0
 11
713.7134385442
 21
197.3827572069
 31
0.0
  0
LINE
  5
18D
330
1F
100
AcDbEntity
  8
0
  6
Continuous
 62
     7
370
    15
100
AcDbLine
 10
713.7134385442
 20
284.3827576837
 30
0.0
 11
713.7134385442
 21
262.3827548227
 31
0.0
  0
LINE
  5
18E
330
1F
100
AcDbEntity
  8
0
  6
Continuous
 62
     7
370
    15
100
AcDbLine
 10
713.7134385442
 20
311.3827557763
 30
0.0
 11
713.7134385442
 21
289.3827529153
 31
0.0
  0
LINE
  5
18F
330
1F
100
AcDbEntity
  8
0
  6
Continuous
 62
     7
370
    15
100
AcDbLine
 10
718.7134397363
 20
197.3827572069
 30
0.0
 11
718.7134397363
 21
311.3827557763
 31
0.0
  0
LINE
  5
190
330
1F
100
AcDbEntity
  8
0
  6
Continuous
 62
     7
370
    15
100
AcDbLine
 10
726.2134385442
 20
184.8827572069
 30
0.0
 11
827.1154296731
 21
184.8827572069
 31
0.0
  0
LINE
  5
191
330
1F
100
AcDbEntity
  8
0
  6
Continuous
 62
     7
370
    15
100
AcDbLine
 10
827.1154296731
 20
189.8827572814
 30
0.0
 11
726.2134385442
 21
189.8827572814
 31
0.0
  0
LWPOLYLINE
  5
192
330
1F
100
AcDbEntity
  8
0
  6
Continuous
 62
     7
370
    15
100
AcDbPolyline
 90
       21
 70
   128
 43
0.0
 10
803.826273713
 20
313.9130802354
 10
803.6821943854
 20
314.3586845598
 10
803.3884716367
 20
315.1843161783
 10
803.0648839806
 20
315.9943552217
 10
802.7125877475
 20
316.7852254113
 10
802.3326349591
 20
317.5535412034
 10
801.9259822701
 20
318.2960481843
 10
801.4934403037
 20
319.0095157823
 10
801.0356378888
 20
319.6907968721
 10
800.5529758667
 20
320.3367085656
 10
800.0456300711
 20
320.9439130029
 10
799.5136317943
 20
321.5087623796
 10
798.9571300482
 20
322.0269293985
 10
798.376926515
 20
322.4932046136
 10
797.7769282793
 20
322.9003043374
 10
797.1626219486
 20
323.2415766916
 10
796.5415057873
 20
323.5116214952
 10
795.9865507816
 20
323.6905784807
 10
795.374914739
 20
323.820385476
 10
794.7744858598
 20
323.8787503442
 10
794.5720431541
 20
323.8827557763
  0
LWPOLYLINE
  5
193
330
1F
100
AcDbEntity
  8
0
  6
Continuous
 62
     7
370
    15
100
AcDbPolyline
 90
       20
 70
   128
 43
0.0
 10
794.5720431541
 20
318.8827605447
 10
794.5854482387
 20
318.8821406564
 10
794.6468410229
 20
318.8723535737
 10
794.7526377772
 20
318.8419671258
 10
794.9140739774
 20
318.7752456865
 10
795.1146063541
 20
318.6674447259
 10
795.3488749598
 20
318.5132713517
 10
795.6109908556
 20
318.3094234666
 10
795.8955315088
 20
318.053814908
 10
796.1972099875
 20
317.7454920015
 10
796.5107184981
 20
317.384812375
 10
796.8308386539
 20
316.9732661447
 10
797.1525442933
 20
316.5133567056
 10
797.4710730051
 20
316.0084457597
 10
797.7819872235
 20
315.4625983438
 10
798.0811995601
 20
314.8804636201
 10
798.3649936651
 20
314.2671556672
 10
798.6300346588
 20
313.6281700334
 10
798.8733736013
 20
312.96930029
 10
799.0535077785
 20
312.4228806695
  0
ARC
  5
194
330
1F
100
AcDbEntity
  8
0
  6
Continuous
 62
     7
370
    15
100
AcDbCircle
 10
726.213439021
 20
197.3827572069
 30
0.0
 40
7.500000000000057
100
AcDbArc
 50
180.0
 51
270.0
  0
ARC
  5
195
330
1F
100
AcDbEntity
  8
0
  6
Continuous
 62
     7
370
    15
100
AcDbCircle
 10
726.213439021
 20
197.3827572069
 30
0.0
 40
12.50000000000011
100
AcDbArc
 50
180.0
 51
270.0
  0
ARC
  5
196
330
1F
100
AcDbEntity
  8
0
  6
Continuous
 62
     7
370
    15
100
AcDbCircle
 10
827.1154303836
 20
197.3827572069
 30
0.0
 40
7.500000000000057
100
AcDbArc
 50
270.0
 51
17.3399412823
  0
ARC
  5
197
330
1F
100
AcDbEntity
  8
0
  6
Continuous
 62
     7
370
    15
100
AcDbCircle
 10
827.1154303836
 20
197.3827572069
 30
0.0
 40
12.50000000000011
100
AcDbArc
 50
270.0
 51
0.0
  0
ARC
  5
198
330
1F
100
AcDbEntity
  8
0
  6
Continuous
 62
     7
370
    15
100
AcDbCircle
 10
827.1154303836
 20
197.3827572069
 30
0.0
 40
12.50000000000011
100
AcDbArc
 50
0.0
 51
17.3399412823
  0
LWPOLYLINE
  5
199
330
1F
100
AcDbEntity
  8
0
  6
Continuous
 62
     7
370
    15
100
AcDbPolyline
 90
       24
 70
   128
 43
0.0
 10
721.2134373521
 20
323.8827557763
 10
720.7961392735
 20
323.8653273782
 10
720.2413750028
 20
323.7876982889
 10
719.698442254
 20
323.6498804292
 10
719.1688847875
 20
323.453435441
 10
718.6536860799
 20
323.1991977891
 10
718.1535017823
 20
322.8871555528
 10
717.6689875459
 20
322.5165815553
 10
717.2012937402
 20
322.0864744386
 10
716.7524588441
 20
321.5963812074
 10
716.3255584573
 20
321.0473866662
 10
715.9243238305
 20
320.4427333078
 10
715.5524206494
 20
319.7876544198
 10
715.2127158975
 20
319.088420411
 10
714.9073136186
 20
318.3521838388
 10
714.636756215
 20
317.5841422281
 10
714.4011211728
 20
316.788813611
 10
714.200319085
 20
315.9702630243
 10
714.034212861
 20
315.1322932443
 10
713.9027011727
 20
314.2785759172
 10
713.8057124947
 20
313.41279461
 10
713.7431991433
 20
312.5385971269
 10
713.715143237
 20
311.6597027978
 10
713.7134385442
 20
311.3827557763
  0
LWPOLYLINE
  5
19A
330
1F
100
AcDbEntity
  8
0
  6
Continuous
 62
     7
370
    15
100
AcDbPolyline
 90
       21
 70
   128
 43
0.0
 10
718.7134397363
 20
311.3827557763
 10
718.717260394
 20
311.7483349046
 10
718.7461805676
 20
312.4510021409
 10
718.8031089639
 20
313.1442518434
 10
718.8871813153
 20
313.8213963708
 10
718.9970565175
 20
314.4760341844
 10
719.1308987473
 20
315.1019902429
 10
719.2863595818
 20
315.69328024
 10
719.4605183934
 20
316.2442774972
 10
719.6498644685
 20
316.7497844896
 10
719.8502433633
 20
317.2051997384
 10
720.0568390225
 20
317.6066847047
 10
720.2641737794
 20
317.9514022073
 10
720.4661500787
 20
318.2378263673
 10
720.656205449
 20
318.4659929475
 10
720.8275032376
 20
318.6378331384
 10
720.9730339383
 20
318.7573046884
 10
721.086521182
 20
318.8309760293
 10
721.1637628411
 20
318.8683362207
 10
721.2039184903
 20
318.881198903
 10
721.2134373521
 20
318.8827605447
  0
LINE
  5
19B
330
1F
100
AcDbEntity
  8
0
  6
Continuous
 62
     7
370
    15
100
AcDbLine
 10
784.4412316715
 20
318.8827605447
 30
0.0
 11
794.5720431541
 21
318.8827605447
 31
0.0
  0
LINE
  5
19C
330
1F
100
AcDbEntity
  8
0
  6
Continuous
 62
     7
370
    15
100
AcDbLine
 10
721.2134373521
 20
318.8827605447
 30
0.0
 11
730.6471956109
 21
318.8827605447
 31
0.0
  0
LINE
  5
19D
330
1F
100
AcDbEntity
  8
0
  6
Continuous
 62
     7
370
    15
100
AcDbLine
 10
782.1934980487
 20
323.8827557763
 30
0.0
 11
782.1934980487
 21
323.0827541551
 31
0.0
  0
LINE
  5
19E
330
1F
100
AcDbEntity
  8
0
  6
Continuous
 62
     7
370
    15
100
AcDbLine
 10
733.2434577083
 20
323.0827541551
 30
0.0
 11
733.2434577083
 21
323.8827557763
 31
0.0
  0
LINE
  5
19F
330
1F
100
AcDbEntity
  8
0
  6
Continuous
 62
     7
370
    15
100
AcDbLine
 10
796.819777522
 20
323.3906359872
 30
0.0
 11
796.819777522
 21
323.8827557763
 31
0.0
  0
LINE
  5
1A0
330
1F
100
AcDbEntity
  8
0
  6
Continuous
 62
     7
370
    15
100
AcDbLine
 10
718.6171782349
 20
323.8827557763
 30
0.0
 11
718.6171782349
 21
323.1764168939
 31
0.0
  0
LINE
  5
1A1
330
1F
100
AcDbEntity
  8
0
  6
Continuous
 62
     7
370
    15
100
AcDbLine
 10
775.7809776028
 20
318.8827605447
 30
0.0
 11
784.4412316715
 21
318.8827605447
 31
0.0
  0
LINE
  5
1A2
330
1F
100
AcDbEntity
  8
0
  6
Continuous
 62
     7
370
    15
100
AcDbLine
 10
730.6471956109
 20
318.8827605447
 30
0.0
 11
739.3074494933
 21
318.8827605447
 31
0.0
  0
LINE
  5
1A3
330
1F
100
AcDbEntity
  8
0
  6
Continuous
 62
     7
370
    15
100
AcDbLine
 10
775.713439021
 20
318.8827605447
 30
0.0
 11
775.7809776028
 21
318.8827605447
 31
0.0
  0
LINE
  5
1A4
330
1F
100
AcDbEntity
  8
0
  6
Continuous
 62
     7
370
    15
100
AcDbLine
 10
739.3074494933
 20
318.8827605447
 30
0.0
 11
775.713439021
 21
318.8827605447
 31
0.0
  0
LINE
  5
1A5
330
1F
100
AcDbEntity
  8
0
  6
Continuous
 62
     7
370
    15
100
AcDbLine
 10
726.2734395598
 20
307.742342492
 30
0.0
 11
723.2617509698
 21
310.7540221414
 31
0.0
  0
LINE
  5
1A6
330
1F
100
AcDbEntity
  8
0
  6
Continuous
 62
     7
370
    15
100
AcDbLine
 10
726.4431459044
 20
307.9120488366
 30
0.0
 11
723.4314573144
 21
310.923728486
 31
0.0
  0
LWPOLYLINE
  5
1A7
330
1F
100
AcDbEntity
  8
0
  6
Continuous
 62
     7
370
    15
100
AcDbPolyline
 90
        9
 70
   128
 43
0.0
 10
742.9236632918
 20
310.4333968362
 10
743.1995612716
 20
310.709294816
 10
743.4648585652
 20
310.9745950898
 10
743.7093568181
 20
311.2190933427
 10
743.9236623382
 20
311.4333958825
 10
744.0995377635
 20
311.6092772683
 10
744.2302239274
 20
311.7399544915
 10
744.3107021188
 20
311.8204326829
 10
744.3378758763
 20
311.8476124009
  0
LINE
  5
1A8
330
1F
100
AcDbEntity
  8
0
  6
Continuous
 62
     7
370
    15
100
AcDbLine
 10
744.3378758763
 20
311.8476124009
 30
0.0
 11
744.5075822209
 21
311.6779060563
 31
0.0
  0
LWPOLYLINE
  5
1A9
330
1F
100
AcDbEntity
  8
0
  6
Continuous
 62
     7
370
    15
100
AcDbPolyline
 90
        9
 70
   128
 43
0.0
 10
744.5075822209
 20
311.6779060563
 10
744.4804084634
 20
311.6507263383
 10
744.399930272
 20
311.5702481469
 10
744.2692441081
 20
311.4395709237
 10
744.0933686828
 20
311.2636895379
 10
743.8790631627
 20
311.0493869981
 10
743.6345649098
 20
310.8048887452
 10
743.3692676162
 20
310.5395884713
 10
743.0933666562
 20
310.2636904916
  0
ARC
  5
1AA
330
1F
100
AcDbEntity
  8
0
  6
Continuous
 62
     7
370
    15
100
AcDbCircle
 10
740.3316013592
 20
307.9827572069
 30
0.0
 40
0.1000000000000249
100
AcDbArc
 50
270.0
 51
315.0
  0
ARC
  5
1AB
330
1F
100
AcDbEntity
  8
0
  6
Continuous
 62
     7
370
    15
100
AcDbCircle
 10
740.3316013592
 20
307.9827572069
 30
0.0
 40
0.3400000000000318
100
AcDbArc
 50
270.0
 51
315.0
  0
LINE
  5
1AC
330
1F
100
AcDbEntity
  8
0
  6
Continuous
 62
     7
370
    15
100
AcDbLine
 10
740.3316003417
 20
307.6427550515
 30
0.0
 11
726.5138548945
 21
307.6427550515
 31
0.0
  0
LINE
  5
1AD
330
1F
100
AcDbEntity
  8
0
  6
Continuous
 62
     7
370
    15
100
AcDbLine
 10
740.3316003417
 20
307.8827591142
 30
0.0
 11
726.5138548945
 21
307.8827591142
 31
0.0
  0
LINE
  5
1AE
330
1F
100
AcDbEntity
  8
0
  6
Continuous
 62
     7
370
    15
100
AcDbLine
 10
742.9236632918
 20
310.4333968362
 30
0.0
 11
740.402312312
 21
307.9120488366
 31
0.0
  0
LINE
  5
1AF
330
1F
100
AcDbEntity
  8
0
  6
Continuous
 62
     7
370
    15
100
AcDbLine
 10
743.0933666562
 20
310.2636904916
 30
0.0
 11
740.5720186566
 21
307.742342492
 31
0.0
  0
LINE
  5
1B0
330
1F
100
AcDbEntity
  8
0
  6
Continuous
 62
     7
370
    15
100
AcDbLine
 10
721.8475413655
 20
312.1682377061
 30
0.0
 11
722.0172477101
 21
312.3379440507
 31
0.0
  0
LWPOLYLINE
  5
1B1
330
1F
100
AcDbEntity
  8
0
  6
Continuous
 62
     7
370
    15
100
AcDbPolyline
 90
        9
 70
   128
 43
0.0
 10
722.0172477101
 20
312.3379440507
 10
722.0444214677
 20
312.3107762536
 10
722.1248936986
 20
312.2302980623
 10
722.2555828427
 20
312.0996089181
 10
722.4314582681
 20
311.9237275323
 10
722.6457608079
 20
311.7094249925
 10
722.8902650212
 20
311.4649267396
 10
723.1555593346
 20
311.1996264657
 10
723.4314573144
 20
310.923728486
  0
LWPOLYLINE
  5
1B2
330
1F
100
AcDbEntity
  8
0
  6
Continuous
 62
     7
370
    15
100
AcDbPolyline
 90
        9
 70
   128
 43
0.0
 10
723.2617509698
 20
310.7540221414
 10
722.98585299
 20
311.0299320421
 10
722.7205586766
 20
311.295220395
 10
722.4760604237
 20
311.5397186479
 10
722.2617519235
 20
311.7540211877
 10
722.0858764981
 20
311.9299025735
 10
721.955187354
 20
312.0605917177
 10
721.8747151231
 20
312.141069909
 10
721.8475413655
 20
312.1682377061
  0
ARC
  5
1B3
330
1F
100
AcDbEntity
  8
0
  6
Continuous
 62
     7
370
    15
100
AcDbCircle
 10
726.5138553266
 20
307.9827572069
 30
0.0
 40
0.3400000000000318
100
AcDbArc
 50
225.0
 51
270.0
  0
ARC
  5
1B4
330
1F
100
AcDbEntity
  8
0
  6
Continuous
 62
     7
370
    15
100
AcDbCircle
 10
726.5138553266
 20
307.9827572069
 30
0.0
 40
0.1000000000000227
100
AcDbArc
 50
225.0000000001
 51
270.0
  0
LWPOLYLINE
  5
1B5
330
1F
100
AcDbEntity
  8
0
  6
Continuous
 62
     7
370
    15
100
AcDbPolyline
 90
        9
 70
   128
 43
0.0
 10
720.6030321454
 20
313.7521596155
 10
720.8789301251
 20
313.4762616357
 10
721.144230399
 20
313.2109613618
 10
721.3887286519
 20
312.966463109
 10
721.6030311917
 20
312.7521605691
 10
721.7789066171
 20
312.5762791833
 10
721.9095957612
 20
312.4456019601
 10
721.9900739526
 20
312.3651237687
 10
722.0172477101
 20
312.3379440507
  0
LWPOLYLINE
  5
1B6
330
1F
100
AcDbEntity
  8
0
  6
Continuous
 62
     7
370
    15
100
AcDbPolyline
 90
        9
 70
   128
 43
0.0
 10
721.8475413655
 20
312.1682377061
 10
721.820367608
 20
312.1954174241
 10
721.7398894166
 20
312.2758956155
 10
721.6092002725
 20
312.4065728387
 10
721.4333248471
 20
312.5824542245
 10
721.2190223073
 20
312.7967567643
 10
720.9745240544
 20
313.0412550172
 10
720.7092237805
 20
313.3065552911
 10
720.4333258008
 20
313.5824532708
  0
LINE
  5
1B7
330
1F
100
AcDbEntity
  8
0
  6
Continuous
 62
     7
370
    15
100
AcDbLine
 10
710.8831417893
 20
323.4720440111
 30
0.0
 11
715.2303886746
 21
319.1248030862
 31
0.0
  0
LINE
  5
1B8
330
1F
100
AcDbEntity
  8
0
  6
Continuous
 62
     7
370
    15
100
AcDbLine
 10
719.1563618516
 20
315.1988239488
 30
0.0
 11
720.6030321454
 21
313.7521596155
 31
0.0
  0
LINE
  5
1B9
330
1F
100
AcDbEntity
  8
0
  6
Continuous
 62
     7
370
    15
100
AcDbLine
 10
710.7134414052
 20
323.3023376664
 30
0.0
 11
715.129054818
 21
318.8867302141
 31
0.0
  0
LINE
  5
1BA
330
1F
100
AcDbEntity
  8
0
  6
Continuous
 62
     7
370
    15
100
AcDbLine
 10
719.0926564073
 20
314.9231286249
 30
0.0
 11
720.4333258008
 21
313.5824532708
 31
0.0
  0
LINE
  5
1BB
330
1F
100
AcDbEntity
  8
0
  6
Continuous
 62
     7
370
    15
100
AcDbLine
 10
718.4227300023
 20
323.8827557763
 30
0.0
 11
718.4227300023
 21
323.6427517137
 31
0.0
  0
LINE
  5
1BC
330
1F
100
AcDbEntity
  8
0
  6
Continuous
 62
     7
370
    15
100
AcDbLine
 10
718.4227300023
 20
323.6427517137
 30
0.0
 11
716.4227259492
 21
323.6427517137
 31
0.0
  0
ARC
  5
1BD
330
1F
100
AcDbEntity
  8
0
  6
Continuous
 62
     7
370
    15
100
AcDbCircle
 10
710.9538553266
 20
323.5427572069
 30
0.0
 40
0.1000000000000651
100
AcDbArc
 50
90.0
 51
225.0
  0
ARC
  5
1BE
330
1F
100
AcDbEntity
  8
0
  6
Continuous
 62
     7
370
    15
100
AcDbCircle
 10
710.9538553266
 20
323.5427572069
 30
0.0
 40
0.3400000000000318
100
AcDbArc
 50
90.0
 51
225.0
  0
LINE
  5
1BF
330
1F
100
AcDbEntity
  8
0
  6
Continuous
 62
     7
370
    15
100
AcDbLine
 10
716.4227259492
 20
323.6427517137
 30
0.0
 11
710.9538567399
 21
323.6427517137
 31
0.0
  0
LINE
  5
1C0
330
1F
100
AcDbEntity
  8
0
  6
Continuous
 62
     7
370
    15
100
AcDbLine
 10
713.7134385442
 20
257.382759591
 30
0.0
 11
713.7134385442
 21
262.3827548227
 31
0.0
  0
LINE
  5
1C1
330
1F
100
AcDbEntity
  8
0
  6
Continuous
 62
     7
370
    15
100
AcDbLine
 10
713.7134385442
 20
289.3827529153
 30
0.0
 11
713.7134385442
 21
284.3827576837
 31
0.0
  0
ARC
  5
1C2
330
1F
100
AcDbEntity
  8
0
  6
Continuous
 62
     7
370
    15
100
AcDbCircle
 10
790.7921592816
 20
321.8372706576
 30
0.0
 40
2.045793520021437
100
AcDbArc
 50
90.9948790022
 51
142.4970589389
  0
ARC
  5
1C3
330
1F
100
AcDbEntity
  8
0
  6
Continuous
 62
     7
370
    15
100
AcDbCircle
 10
724.6447984913
 20
321.8372776807
 30
0.0
 40
2.0457864629248
100
AcDbArc
 50
37.5028447974
 51
89.0051740324
  0
LINE
  5
1C4
330
1F
100
AcDbEntity
  8
0
  6
Continuous
 62
     7
370
    15
100
AcDbLine
 10
782.4934979116
 20
323.8827557763
 30
0.0
 11
782.4934979116
 21
323.0827541551
 31
0.0
  0
LINE
  5
1C5
330
1F
100
AcDbEntity
  8
0
  6
Continuous
 62
     7
370
    15
100
AcDbLine
 10
782.4934979116
 20
323.0827541551
 30
0.0
 11
785.993497554
 21
323.0827541551
 31
0.0
  0
LINE
  5
1C6
330
1F
100
AcDbEntity
  8
0
  6
Continuous
 62
     7
370
    15
100
AcDbLine
 10
789.1691860889
 20
323.0827541551
 30
0.0
 11
785.993497554
 21
323.0827541551
 31
0.0
  0
LINE
  5
1C7
330
1F
100
AcDbEntity
  8
0
  6
Continuous
 62
     7
370
    15
100
AcDbLine
 10
732.9434585904
 20
323.8827557763
 30
0.0
 11
732.9434585904
 21
323.0827541551
 31
0.0
  0
LINE
  5
1C8
330
1F
100
AcDbEntity
  8
0
  6
Continuous
 62
     7
370
    15
100
AcDbLine
 10
729.4434559678
 20
323.0827541551
 30
0.0
 11
732.9434585904
 21
323.0827541551
 31
0.0
  0
LINE
  5
1C9
330
1F
100
AcDbEntity
  8
0
  6
Continuous
 62
     7
370
    15
100
AcDbLine
 10
729.4434559678
 20
323.0827541551
 30
0.0
 11
726.2677681779
 21
323.0827541551
 31
0.0
  0
LINE
  5
1CA
330
1F
100
AcDbEntity
  8
0
  6
Continuous
 62
     7
370
    15
100
AcDbLine
 10
782.1934980487
 20
323.0827541551
 30
0.0
 11
782.4934979116
 21
323.0827541551
 31
0.0
  0
LINE
  5
1CB
330
1F
100
AcDbEntity
  8
0
  6
Continuous
 62
     7
370
    15
100
AcDbLine
 10
732.9434585904
 20
323.0827541551
 30
0.0
 11
733.2434577083
 21
323.0827541551
 31
0.0
  0
LINE
  5
1CC
330
1F
100
AcDbEntity
  8
0
  6
Continuous
 62
     7
370
    15
100
AcDbLine
 10
755.0442141627
 20
323.8827557763
 30
0.0
 11
755.0442141627
 21
323.0827541551
 31
0.0
  0
LINE
  5
1CD
330
1F
100
AcDbEntity
  8
0
  6
Continuous
 62
     7
370
    15
100
AcDbLine
 10
757.5442132687
 20
323.8827557763
 30
0.0
 11
757.5442132687
 21
323.0827541551
 31
0.0
  0
LINE
  5
1CE
330
1F
100
AcDbEntity
  8
0
  6
Continuous
 62
     7
370
    15
100
AcDbLine
 10
755.0442141627
 20
323.0827541551
 30
0.0
 11
757.5442132687
 21
323.0827541551
 31
0.0
  0
LINE
  5
1CF
330
1F
100
AcDbEntity
  8
0
  6
Continuous
 62
     7
370
    15
100
AcDbLine
 10
760.0442138647
 20
323.0827541551
 30
0.0
 11
760.0442138647
 21
323.8827557763
 31
0.0
  0
LINE
  5
1D0
330
1F
100
AcDbEntity
  8
0
  6
Continuous
 62
     7
370
    15
100
AcDbLine
 10
757.5442132687
 20
323.0827541551
 30
0.0
 11
760.0442138647
 21
323.0827541551
 31
0.0
  0
LINE
  5
1D1
330
1F
100
AcDbEntity
  8
0
  6
Continuous
 62
     7
370
    15
100
AcDbLine
 10
718.7134397363
 20
327.2827596864
 30
0.0
 11
710.7134414052
 21
327.2827596864
 31
0.0
  0
LINE
  5
1D2
330
1F
100
AcDbEntity
  8
0
  6
Continuous
 62
     7
370
    15
100
AcDbLine
 10
710.7134414052
 20
327.2827596864
 30
0.0
 11
712.3134386872
 21
328.8827629289
 31
0.0
  0
LINE
  5
1D3
330
1F
100
AcDbEntity
  8
0
  6
Continuous
 62
     7
370
    15
100
AcDbLine
 10
712.3134386872
 20
328.8827629289
 30
0.0
 11
718.7134397363
 21
328.8827629289
 31
0.0
  0
LINE
  5
1D4
330
1F
100
AcDbEntity
  8
0
  6
Continuous
 62
     7
370
    15
100
AcDbLine
 10
840.7134366368
 20
323.8827557763
 30
0.0
 11
832.7134383057
 21
323.8827557763
 31
0.0
  0
LINE
  5
1D5
330
1F
100
AcDbEntity
  8
0
  6
Continuous
 62
     7
370
    15
100
AcDbLine
 10
840.7134366368
 20
327.2827596864
 30
0.0
 11
832.7134383057
 21
327.2827596864
 31
0.0
  0
LINE
  5
1D6
330
1F
100
AcDbEntity
  8
0
  6
Continuous
 62
     7
370
    15
100
AcDbLine
 10
840.7134366368
 20
323.8827557763
 30
0.0
 11
840.7134366368
 21
327.2827596864
 31
0.0
  0
LINE
  5
1D7
330
1F
100
AcDbEntity
  8
0
  6
Continuous
 62
     7
370
    15
100
AcDbLine
 10
832.7134383057
 20
323.8827557763
 30
0.0
 11
718.7134397363
 21
323.8827557763
 31
0.0
  0
LINE
  5
1D8
330
1F
100
AcDbEntity
  8
0
  6
Continuous
 62
     7
370
    15
100
AcDbLine
 10
832.7134383057
 20
327.2827596864
 30
0.0
 11
718.7134397363
 21
327.2827596864
 31
0.0
  0
LINE
  5
1D9
330
1F
100
AcDbEntity
  8
0
  6
Continuous
 62
     7
370
    15
100
AcDbLine
 10
832.7134383057
 20
328.8827629289
 30
0.0
 11
839.1134393548
 21
328.8827629289
 31
0.0
  0
LINE
  5
1DA
330
1F
100
AcDbEntity
  8
0
  6
Continuous
 62
     7
370
    15
100
AcDbLine
 10
840.7134366368
 20
327.2827596864
 30
0.0
 11
839.1134393548
 21
328.8827629289
 31
0.0
  0
LINE
  5
1DB
330
1F
100
AcDbEntity
  8
0
  6
Continuous
 62
     7
370
    15
100
AcDbLine
 10
710.7134414052
 20
323.8827557763
 30
0.0
 11
710.7134414052
 21
327.2827596864
 31
0.0
  0
LINE
  5
1DC
330
1F
100
AcDbEntity
  8
0
  6
Continuous
 62
     7
370
    15
100
AcDbLine
 10
718.7134397363
 20
323.8827557763
 30
0.0
 11
710.7134414052
 21
323.8827557763
 31
0.0
  0
LINE
  5
1DD
330
1F
100
AcDbEntity
  8
0
  6
Continuous
 62
     7
370
    15
100
AcDbLine
 10
718.7134397363
 20
328.8827629289
 30
0.0
 11
832.7134383057
 21
328.8827629289
 31
0.0
  0
ENDSEC
  0
SECTION
  2
OBJECTS
  0
DICTIONARY
  5
C
330
0
100
AcDbDictionary
281
     1
  3
ACAD_GROUP
350
D
  3
ACAD_LAYOUT
350
1A
  3
ACAD_MLINESTYLE
350
17
  3
ACAD_PLOTSETTINGS
350
19
  3
ACAD_PLOTSTYLENAME
350
E
  3
ACAD_SCALELIST
350
47
  0
DICTIONARY
  5
D
102
{ACAD_REACTORS
330
C
102
}
330
C
100
AcDbDictionary
281
     1
  0
DICTIONARY
  5
1A
102
{ACAD_REACTORS
330
C
102
}
330
C
100
AcDbDictionary
281
     1
  3
Layout1
350
1E
  3
Layout2
350
26
  3
Model
350
22
  0
DICTIONARY
  5
17
102
{ACAD_REACTORS
330
C
102
}
330
C
100
AcDbDictionary
281
     1
  3
Standard
350
18
  0
DICTIONARY
  5
19
102
{ACAD_REACTORS
330
C
102
}
330
C
100
AcDbDictionary
281
     1
  0
ACDBDICTIONARYWDFLT
  5
E
102
{ACAD_REACTORS
330
C
102
}
330
C
100
AcDbDictionary
281
     1
  3
Normal
350
F
100
AcDbDictionaryWithDefault
340
F
  0
DICTIONARY
  5
47
102
{ACAD_REACTORS
330
C
102
}
330
C
100
AcDbDictionary
281
     1
  3
A0
350
48
  3
A1
350
49
  3
A2
350
4A
  3
A3
350
4B
  3
A4
350
4C
  3
A5
350
4D
  3
A6
350
4E
  3
A7
350
4F
  3
A8
350
50
  3
A9
350
51
  3
B0
350
52
  3
B1
350
53
  3
B2
350
54
  3
B3
350
55
  3
B4
350
56
  3
B5
350
57
  3
B6
350
58
  3
B7
350
59
  3
B8
350
5A
  3
B9
350
5B
  3
C0
350
5C
  3
C1
350
5D
  3
C2
350
5E
  3
C3
350
5F
  3
C4
350
60
  3
C5
350
61
  3
C6
350
62
  3
C7
350
63
  3
C8
350
64
  3
C9
350
65
  3
D0
350
66
  3
D1
350
67
  3
D2
350
68
  0
LAYOUT
  5
1E
102
{ACAD_REACTORS
330
1A
102
}
330
1A
100
AcDbPlotSettings
  1

  2
none_device
  4

  6

 40
0.0
 41
0.0
 42
0.0
 43
0.0
 44
0.0
 45
0.0
 46
0.0
 47
0.0
 48
0.0
 49
0.0
140
0.0
141
0.0
142
1.0
143
1.0
 70
   688
 72
     1
 73
     0
 74
     5
  7

 75
    16
147
1.0
148
0.0
149
0.0
100
AcDbLayout
  1
Layout1
 70
     1
 71
     1
 10
0.0
 20
0.0
 11
420.0
 21
297.0
 12
0.0
 22
0.0
 32
0.0
 14
1.0000000000E+20
 24
1.0000000000E+20
 34
1.0000000000E+20
 15
-1.0000000000E+20
 25
-1.0000000000E+20
 35
-1.0000000000E+20
146
0.0
 13
0.0
 23
0.0
 33
0.0
 16
1.0
 26
0.0
 36
0.0
 17
0.0
 27
1.0
 37
0.0
 76
     0
330
1B
  0
LAYOUT
  5
26
102
{ACAD_REACTORS
330
1A
102
}
330
1A
100
AcDbPlotSettings
  1

  2
none_device
  4

  6

 40
0.0
 41
0.0
 42
0.0
 43
0.0
 44
0.0
 45
0.0
 46
0.0
 47
0.0
 48
0.0
 49
0.0
140
0.0
141
0.0
142
1.0
143
1.0
 70
   688
 72
     1
 73
     0
 74
     5
  7

 75
    16
147
1.0
148
0.0
149
0.0
100
AcDbLayout
  1
Layout2
 70
     1
 71
     2
 10
0.0
 20
0.0
 11
0.0
 21
0.0
 12
0.0
 22
0.0
 32
0.0
 14
0.0
 24
0.0
 34
0.0
 15
0.0
 25
0.0
 35
0.0
146
0.0
 13
0.0
 23
0.0
 33
0.0
 16
1.0
 26
0.0
 36
0.0
 17
0.0
 27
1.0
 37
0.0
 76
     0
330
23
  0
LAYOUT
  5
22
102
{ACAD_REACTORS
330
1A
102
}
330
1A
100
AcDbPlotSettings
  1

  2
none_device
  4
Letter_(8.50_x_11.00_Inches)
  6

 40
6.35
 41
6.35
 42
6.35000508
 43
6.35000508
 44
215.9
 45
279.4
 46
0.0
 47
0.0
 48
0.0
 49
0.0
140
0.0
141
0.0
142
1.0
143
1.0
 70
  1712
 72
     1
 73
     0
 74
     0
  7

 75
     0
147
1.0
148
0.0
149
0.0
100
AcDbLayout
  1
Model
 70
     1
 71
     0
 10
0.0
 20
0.0
 11
1189.0
 21
841.0
 12
0.0
 22
0.0
 32
0.0
 14
0.0
 24
0.0
 34
0.0
 15
1189.0
 25
841.0
 35
0.0
146
0.0
 13
0.0
 23
0.0
 33
0.0
 16
1.0
 26
0.0
 36
0.0
 17
0.0
 27
1.0
 37
0.0
 76
     0
330
1F
331
29
  0
MLINESTYLE
  5
18
102
{ACAD_REACTORS
330
17
102
}
330
17
100
AcDbMlineStyle
  2
Standard
 70
     0
  3

 62
   256
 51
90.0
 52
90.0
 71
     2
 49
0.5
 62
   256
  6
BYLAYER
 49
-0.5
 62
   256
  6
BYLAYER
  0
ACDBPLACEHOLDER
  5
F
102
{ACAD_REACTORS
330
E
102
}
330
E
  0
SCALE
  5
48
102
{ACAD_REACTORS
330
47
102
}
330
47
100
AcDbScale
 70
     0
300
1:1
140
1.0
141
1.0
290
     1
  0
SCALE
  5
49
102
{ACAD_REACTORS
330
47
102
}
330
47
100
AcDbScale
 70
     0
300
1:2
140
1.0
141
2.0
290
     0
  0
SCALE
  5
4A
102
{ACAD_REACTORS
330
47
102
}
330
47
100
AcDbScale
 70
     0
300
1:4
140
1.0
141
4.0
290
     0
  0
SCALE
  5
4B
102
{ACAD_REACTORS
330
47
102
}
330
47
100
AcDbScale
 70
     0
300
1:5
140
1.0
141
5.0
290
     0
  0
SCALE
  5
4C
102
{ACAD_REACTORS
330
47
102
}
330
47
100
AcDbScale
 70
     0
300
1:8
140
1.0
141
8.0
290
     0
  0
SCALE
  5
4D
102
{ACAD_REACTORS
330
47
102
}
330
47
100
AcDbScale
 70
     0
300
1:10
140
1.0
141
10.0
290
     0
  0
SCALE
  5
4E
102
{ACAD_REACTORS
330
47
102
}
330
47
100
AcDbScale
 70
     0
300
1:16
140
1.0
141
16.0
290
     0
  0
SCALE
  5
4F
102
{ACAD_REACTORS
330
47
102
}
330
47
100
AcDbScale
 70
     0
300
1:20
140
1.0
141
20.0
290
     0
  0
SCALE
  5
50
102
{ACAD_REACTORS
330
47
102
}
330
47
100
AcDbScale
 70
     0
300
1:30
140
1.0
141
30.0
290
     0
  0
SCALE
  5
51
102
{ACAD_REACTORS
330
47
102
}
330
47
100
AcDbScale
 70
     0
300
1:40
140
1.0
141
40.0
290
     0
  0
SCALE
  5
52
102
{ACAD_REACTORS
330
47
102
}
330
47
100
AcDbScale
 70
     0
300
1:50
140
1.0
141
50.0
290
     0
  0
SCALE
  5
53
102
{ACAD_REACTORS
330
47
102
}
330
47
100
AcDbScale
 70
     0
300
1:100
140
1.0
141
100.0
290
     0
  0
SCALE
  5
54
102
{ACAD_REACTORS
330
47
102
}
330
47
100
AcDbScale
 70
     0
300
2:1
140
2.0
141
1.0
290
     0
  0
SCALE
  5
55
102
{ACAD_REACTORS
330
47
102
}
330
47
100
AcDbScale
 70
     0
300
4:1
140
4.0
141
1.0
290
     0
  0
SCALE
  5
56
102
{ACAD_REACTORS
330
47
102
}
330
47
100
AcDbScale
 70
     0
300
8:1
140
8.0
141
1.0
290
     0
  0
SCALE
  5
57
102
{ACAD_REACTORS
330
47
102
}
330
47
100
AcDbScale
 70
     0
300
10:1
140
10.0
141
1.0
290
     0
  0
SCALE
  5
58
102
{ACAD_REACTORS
330
47
102
}
330
47
100
AcDbScale
 70
     0
300
100:1
140
100.0
141
1.0
290
     0
  0
SCALE
  5
59
102
{ACAD_REACTORS
330
47
102
}
330
47
100
AcDbScale
 70
     0
300
1/128" = 1'-0"
140
0.0078125
141
12.0
290
     0
  0
SCALE
  5
5A
102
{ACAD_REACTORS
330
47
102
}
330
47
100
AcDbScale
 70
     0
300
1/64" = 1'-0"
140
0.015625
141
12.0
290
     0
  0
SCALE
  5
5B
102
{ACAD_REACTORS
330
47
102
}
330
47
100
AcDbScale
 70
     0
300
1/32" = 1'-0"
140
0.03125
141
12.0
290
     0
  0
SCALE
  5
5C
102
{ACAD_REACTORS
330
47
102
}
330
47
100
AcDbScale
 70
     0
300
1/16" = 1'-0"
140
0.0625
141
12.0
290
     0
  0
SCALE
  5
5D
102
{ACAD_REACTORS
330
47
102
}
330
47
100
AcDbScale
 70
     0
300
3/32" = 1'-0"
140
0.09375
141
12.0
290
     0
  0
SCALE
  5
5E
102
{ACAD_REACTORS
330
47
102
}
330
47
100
AcDbScale
 70
     0
300
1/8" = 1'-0"
140
0.125
141
12.0
290
     0
  0
SCALE
  5
5F
102
{ACAD_REACTORS
330
47
102
}
330
47
100
AcDbScale
 70
     0
300
3/16" = 1'-0"
140
0.1875
141
12.0
290
     0
  0
SCALE
  5
60
102
{ACAD_REACTORS
330
47
102
}
330
47
100
AcDbScale
 70
     0
300
1/4" = 1'-0"
140
0.25
141
12.0
290
     0
  0
SCALE
  5
61
102
{ACAD_REACTORS
330
47
102
}
330
47
100
AcDbScale
 70
     0
300
3/8" = 1'-0"
140
0.375
141
12.0
290
     0
  0
SCALE
  5
62
102
{ACAD_REACTORS
330
47
102
}
330
47
100
AcDbScale
 70
     0
300
1/2" = 1'-0"
140
0.5
141
12.0
290
     0
  0
SCALE
  5
63
102
{ACAD_REACTORS
330
47
102
}
330
47
100
AcDbScale
 70
     0
300
3/4" = 1'-0"
140
0.75
141
12.0
290
     0
  0
SCALE
  5
64
102
{ACAD_REACTORS
330
47
102
}
330
47
100
AcDbScale
 70
     0
300
1" = 1'-0"
140
1.0
141
12.0
290
     0
  0
SCALE
  5
65
102
{ACAD_REACTORS
330
47
102
}
330
47
100
AcDbScale
 70
     0
300
1-1/2" = 1'-0"
140
1.5
141
12.0
290
     0
  0
SCALE
  5
66
102
{ACAD_REACTORS
330
47
102
}
330
47
100
AcDbScale
 70
     0
300
3" = 1'-0"
140
3.0
141
12.0
290
     0
  0
SCALE
  5
67
102
{ACAD_REACTORS
330
47
102
}
330
47
100
AcDbScale
 70
     0
300
6" = 1'-0"
140
6.0
141
12.0
290
     0
  0
SCALE
  5
68
102
{ACAD_REACTORS
330
47
102
}
330
47
100
AcDbScale
 70
     0
300
1'-0" = 1'-0"
140
12.0
141
12.0
290
     0
  0
ENDSEC
  0
EOF
