  0
SECTION
  2
HEADER
  9
$ACADVER
  1
AC1015
  9
$ACADMAINTVER
 70
     6
  9
$DWGCODEPAGE
  3
ANSI_1252
  9
$INSBASE
 10
0.0
 20
0.0
 30
0.0
  9
$EXTMIN
 10
0.0
 20
0.0
 30
0.0
  9
$EXTMAX
 10
1189.0
 20
841.0
 30
0.0
  9
$LIMMIN
 10
0.0
 20
0.0
  9
$LIMMAX
 10
1189.0
 20
841.0
  9
$ORTHOMODE
 70
     0
  9
$REGENMODE
 70
     1
  9
$FILLMODE
 70
     1
  9
$QTEXTMODE
 70
     0
  9
$MIRRTEXT
 70
     1
  9
$LTSCALE
 40
1.0
  9
$ATTMODE
 70
     1
  9
$TEXTSIZE
 40
3.5
  9
$TRACEWID
 40
1.0
  9
$TEXTSTYLE
  7
Standard
  9
$CLAYER
  8
0
  9
$CELTYPE
  6
ByLayer
  9
$CECOLOR
 62
   256
  9
$CELTSCALE
 40
1.0
  9
$DISPSILH
 70
     0
  9
$DIMSCALE
 40
1.0
  9
$DIMASZ
 40
3.302
  9
$DIMEXO
 40
1.0
  9
$DIMDLI
 40
3.75
  9
$DIMRND
 40
0.0
  9
$DIMDLE
 40
0.0
  9
$DIMEXE
 40
1.0
  9
$DIMTP
 40
0.0
  9
$DIMTM
 40
0.0
  9
$DIMTXT
 40
3.5
  9
$DIMCEN
 40
2.5
  9
$DIMTSZ
 40
0.0
  9
$DIMTOL
 70
     0
  9
$DIMLIM
 70
     0
  9
$DIMTIH
 70
     1
  9
$DIMTOH
 70
     1
  9
$DIMSE1
 70
     0
  9
$DIMSE2
 70
     0
  9
$DIMTAD
 70
     1
  9
$DIMZIN
 70
     0
  9
$DIMBLK
  1

  9
$DIMASO
 70
     1
  9
$DIMSHO
 70
     1
  9
$DIMPOST
  1

  9
$DIMAPOST
  1

  9
$DIMALT
 70
     0
  9
$DIMALTD
 70
     3
  9
$DIMALTF
 40
0.0393700787
  9
$DIMLFAC
 40
5.0
  9
$DIMTOFL
 70
     1
  9
$DIMTVP
 40
0.0
  9
$DIMTIX
 70
     0
  9
$DIMSOXD
 70
     0
  9
$DIMSAH
 70
     0
  9
$DIMBLK1
  1

  9
$DIMBLK2
  1

  9
$DIMSTYLE
  2
ISO-25
  9
$DIMCLRD
 70
     0
  9
$DIMCLRE
 70
     0
  9
$DIMCLRT
 70
     0
  9
$DIMTFAC
 40
1.0
  9
$DIMGAP
 40
1.524
  9
$DIMJUST
 70
     0
  9
$DIMSD1
 70
     0
  9
$DIMSD2
 70
     0
  9
$DIMTOLJ
 70
     0
  9
$DIMTZIN
 70
     0
  9
$DIMALTZ
 70
     0
  9
$DIMALTTZ
 70
     0
  9
$DIMUPT
 70
     0
  9
$DIMDEC
 70
     2
  9
$DIMTDEC
 70
     2
  9
$DIMALTU
 70
     2
  9
$DIMALTTD
 70
     3
  9
$DIMTXSTY
  7
Standard
  9
$DIMAUNIT
 70
     0
  9
$DIMADEC
 70
     2
  9
$DIMALTRND
 40
0.0
  9
$DIMAZIN
 70
     0
  9
$DIMDSEP
 70
    44
  9
$DIMATFIT
 70
     3
  9
$DIMFRAC
 70
     0
  9
$DIMLDRBLK
  1

  9
$DIMLUNIT
 70
     2
  9
$DIMLWD
 70
    -2
  9
$DIMLWE
 70
    -2
  9
$DIMTMOVE
 70
     0
  9
$LUNITS
 70
     2
  9
$LUPREC
 70
     2
  9
$SKETCHINC
 40
1.0
  9
$FILLETRAD
 40
10.0
  9
$AUNITS
 70
     0
  9
$AUPREC
 70
     2
  9
$MENU
  1
.
  9
$ELEVATION
 40
0.0
  9
$PELEVATION
 40
0.0
  9
$THICKNESS
 40
0.0
  9
$LIMCHECK
 70
     0
  9
$CHAMFERA
 40
0.0
  9
$CHAMFERB
 40
0.0
  9
$CHAMFERC
 40
0.0
  9
$CHAMFERD
 40
0.0
  9
$SKPOLY
 70
     0
  9
$TDCREATE
 40
2458057.499587905
  9
$TDUCREATE
 40
2458057.499587905
  9
$TDUPDATE
 40
2458057.499588032
  9
$TDUUPDATE
 40
2458057.499588032
  9
$TDINDWG
 40
0.0000000116
  9
$TDUSRTIMER
 40
0.0000000116
  9
$USRTIMER
 70
     1
  9
$ANGBASE
 50
0.0
  9
$ANGDIR
 70
     0
  9
$PDMODE
 70
     0
  9
$PDSIZE
 40
-1.0
  9
$PLINEWID
 40
0.0
  9
$SPLFRAME
 70
     0
  9
$SPLINETYPE
 70
     6
  9
$SPLINESEGS
 70
     8
  9
$HANDSEED
  5
131
  9
$SURFTAB1
 70
     6
  9
$SURFTAB2
 70
     6
  9
$SURFTYPE
 70
     6
  9
$SURFU
 70
     6
  9
$SURFV
 70
     6
  9
$UCSBASE
  2

  9
$UCSNAME
  2

  9
$UCSORG
 10
0.0
 20
0.0
 30
0.0
  9
$UCSXDIR
 10
1.0
 20
0.0
 30
0.0
  9
$UCSYDIR
 10
0.0
 20
1.0
 30
0.0
  9
$UCSORTHOREF
  2

  9
$UCSORTHOVIEW
 70
     0
  9
$UCSORGTOP
 10
0.0
 20
0.0
 30
0.0
  9
$UCSORGBOTTOM
 10
0.0
 20
0.0
 30
0.0
  9
$UCSORGLEFT
 10
0.0
 20
0.0
 30
0.0
  9
$UCSORGRIGHT
 10
0.0
 20
0.0
 30
0.0
  9
$UCSORGFRONT
 10
0.0
 20
0.0
 30
0.0
  9
$UCSORGBACK
 10
0.0
 20
0.0
 30
0.0
  9
$PUCSBASE
  2

  9
$PUCSNAME
  2

  9
$PUCSORG
 10
0.0
 20
0.0
 30
0.0
  9
$PUCSXDIR
 10
1.0
 20
0.0
 30
0.0
  9
$PUCSYDIR
 10
0.0
 20
1.0
 30
0.0
  9
$PUCSORTHOREF
  2

  9
$PUCSORTHOVIEW
 70
     0
  9
$PUCSORGTOP
 10
0.0
 20
0.0
 30
0.0
  9
$PUCSORGBOTTOM
 10
0.0
 20
0.0
 30
0.0
  9
$PUCSORGLEFT
 10
0.0
 20
0.0
 30
0.0
  9
$PUCSORGRIGHT
 10
0.0
 20
0.0
 30
0.0
  9
$PUCSORGFRONT
 10
0.0
 20
0.0
 30
0.0
  9
$PUCSORGBACK
 10
0.0
 20
0.0
 30
0.0
  9
$USERI1
 70
     0
  9
$USERI2
 70
     0
  9
$USERI3
 70
     0
  9
$USERI4
 70
     0
  9
$USERI5
 70
     0
  9
$USERR1
 40
0.0
  9
$USERR2
 40
0.0
  9
$USERR3
 40
0.0
  9
$USERR4
 40
0.0
  9
$USERR5
 40
0.0
  9
$WORLDVIEW
 70
     1
  9
$SHADEDGE
 70
     3
  9
$SHADEDIF
 70
    70
  9
$TILEMODE
 70
     1
  9
$MAXACTVP
 70
    64
  9
$PINSBASE
 10
0.0
 20
0.0
 30
0.0
  9
$PLIMCHECK
 70
     0
  9
$PEXTMIN
 10
1.0000000000E+20
 20
1.0000000000E+20
 30
1.0000000000E+20
  9
$PEXTMAX
 10
-1.0000000000E+20
 20
-1.0000000000E+20
 30
-1.0000000000E+20
  9
$PLIMMIN
 10
0.0
 20
0.0
  9
$PLIMMAX
 10
420.0
 20
297.0
  9
$UNITMODE
 70
     0
  9
$VISRETAIN
 70
     1
  9
$PLINEGEN
 70
     0
  9
$PSLTSCALE
 70
     1
  9
$TREEDEPTH
 70
  3020
  9
$CMLSTYLE
  2
Standard
  9
$CMLJUST
 70
     0
  9
$CMLSCALE
 40
20.0
  9
$PROXYGRAPHICS
 70
     1
  9
$MEASUREMENT
 70
     1
  9
$CELWEIGHT
370
    -1
  9
$ENDCAPS
280
     0
  9
$JOINSTYLE
280
     0
  9
$LWDISPLAY
290
     1
  9
$INSUNITS
 70
     4
  9
$HYPERLINKBASE
  1

  9
$STYLESHEET
  1

  9
$XEDIT
290
     1
  9
$CEPSNTYPE
380
     0
  9
$PSTYLEMODE
290
     1
  9
$FINGERPRINTGUID
  2
{7995FD7A-14D0-4F5D-AB76-7861D31D4742}
  9
$VERSIONGUID
  2
{FAEB1C32-E019-11D5-929B-00C0DF256EC4}
  9
$EXTNAMES
290
     1
  9
$PSVPSCALE
 40
0.0
  9
$OLESTARTUP
290
     0
  0
ENDSEC
  0
SECTION
  2
CLASSES
  0
CLASS
  1
ACDBDICTIONARYWDFLT
  2
AcDbDictionaryWithDefault
  3
ObjectDBX Classes
 90
        0
280
     0
281
     0
  0
CLASS
  1
VISUALSTYLE
  2
AcDbVisualStyle
  3
ObjectDBX Classes
 90
     4095
280
     0
281
     0
  0
CLASS
  1
MATERIAL
  2
AcDbMaterial
  3
ObjectDBX Classes
 90
     1153
280
     0
281
     0
  0
CLASS
  1
SCALE
  2
AcDbScale
  3
ObjectDBX Classes
 90
     1153
280
     0
281
     0
  0
CLASS
  1
TABLESTYLE
  2
AcDbTableStyle
  3
ObjectDBX Classes
 90
     4095
280
     0
281
     0
  0
CLASS
  1
MLEADERSTYLE
  2
AcDbMLeaderStyle
  3
ACDB_MLEADERSTYLE_CLASS
 90
     4095
280
     0
281
     0
  0
CLASS
  1
SUN
  2
AcDbSun
  3
SCENEOE
 90
     1153
280
     0
281
     0
  0
CLASS
  1
ACDBPLACEHOLDER
  2
AcDbPlaceHolder
  3
ObjectDBX Classes
 90
        0
280
     0
281
     0
  0
CLASS
  1
LAYOUT
  2
AcDbLayout
  3
ObjectDBX Classes
 90
        0
280
     0
281
     0
  0
ENDSEC
  0
SECTION
  2
TABLES
  0
TABLE
  2
VPORT
  5
8
330
0
100
AcDbSymbolTable
 70
     1
  0
VPORT
  5
29
330
8
100
AcDbSymbolTableRecord
100
AcDbViewportTableRecord
  2
*Active
 70
     0
 10
0.0
 20
0.0
 11
1.0
 21
1.0
 12
594.5
 22
420.5
 13
0.0
 23
0.0
 14
10.0
 24
10.0
 15
10.0
 25
10.0
 16
0.0
 26
0.0
 36
1.0
 17
0.0
 27
0.0
 37
0.0
 40
841.0
 41
1.4137931034
 42
50.0
 43
0.0
 44
0.0
 50
0.0
 51
0.0
 71
     0
 72
  2000
 73
     1
 74
     3
 75
     0
 76
     0
 77
     0
 78
     0
281
     0
 65
     1
110
0.0
120
0.0
130
0.0
111
1.0
121
0.0
131
0.0
112
0.0
122
1.0
132
0.0
 79
     0
146
0.0
  0
ENDTAB
  0
TABLE
  2
LTYPE
  5
5
330
0
100
AcDbSymbolTable
 70
     6
  0
LTYPE
  5
14
330
5
100
AcDbSymbolTableRecord
100
AcDbLinetypeTableRecord
  2
ByBlock
 70
     0
  3

 72
    65
 73
     0
 40
0.0
  0
LTYPE
  5
15
330
5
100
AcDbSymbolTableRecord
100
AcDbLinetypeTableRecord
  2
ByLayer
 70
     0
  3

 72
    65
 73
     0
 40
0.0
  0
LTYPE
  5
16
330
5
100
AcDbSymbolTableRecord
100
AcDbLinetypeTableRecord
  2
Continuous
 70
     0
  3
Solid line
 72
    65
 73
     0
 40
0.0
  0
LTYPE
  5
6E
330
5
100
AcDbSymbolTableRecord
100
AcDbLinetypeTableRecord
  2
HIDDEN
 70
     0
  3
Hidden __ __ __ __ __ __ __ __ __ __ __ __ __ __
 72
    65
 73
     2
 40
1.905
 49
1.27
 74
     0
 49
-0.635
 74
     0
  0
LTYPE
  5
6F
330
5
100
AcDbSymbolTableRecord
100
AcDbLinetypeTableRecord
  2
PHANTOM
 70
     0
  3
Phantom ______  __  __  ______  __  __  ______
 72
    65
 73
     6
 40
12.7
 49
6.35
 74
     0
 49
-1.27
 74
     0
 49
1.27
 74
     0
 49
-1.27
 74
     0
 49
1.27
 74
     0
 49
-1.27
 74
     0
  0
LTYPE
  5
70
330
5
100
AcDbSymbolTableRecord
100
AcDbLinetypeTableRecord
  2
CENTER
 70
     0
  3
Center ____ _ ____ _ ____ _ ____ _ ____ _ ____
 72
    65
 73
     4
 40
10.16
 49
6.35
 74
     0
 49
-1.27
 74
     0
 49
1.27
 74
     0
 49
-1.27
 74
     0
  0
LTYPE
  5
71
330
5
100
AcDbSymbolTableRecord
100
AcDbLinetypeTableRecord
  2
CENTERX2
 70
     0
  3
Center (2x) ________  __  ________  __  _____
 72
    65
 73
     4
 40
20.32
 49
12.7
 74
     0
 49
-2.54
 74
     0
 49
2.54
 74
     0
 49
-2.54
 74
     0
  0
LTYPE
  5
72
330
5
100
AcDbSymbolTableRecord
100
AcDbLinetypeTableRecord
  2
DOT2
 70
     0
  3
Dot (.5x) ........................................
 72
    65
 73
     2
 40
0.635
 49
0.0
 74
     0
 49
-0.635
 74
     0
  0
ENDTAB
  0
TABLE
  2
LAYER
  5
2
330
0
100
AcDbSymbolTable
 70
     2
  0
LAYER
  5
10
330
2
100
AcDbSymbolTableRecord
100
AcDbLayerTableRecord
  2
0
 70
     0
 62
     7
  6
Continuous
370
    -3
390
F
  0
LAYER
  5
73
330
2
100
AcDbSymbolTableRecord
100
AcDbLayerTableRecord
  2
FORMAT
 70
     0
 62
     7
  6
Continuous
370
    -3
390
F
  0
ENDTAB
  0
TABLE
  2
STYLE
  5
3
330
0
100
AcDbSymbolTable
 70
     1
  0
STYLE
  5
11
330
3
100
AcDbSymbolTableRecord
100
AcDbTextStyleTableRecord
  2
Standard
 70
     0
 40
0.0
 41
1.0
 50
0.0
 71
     0
 42
3.5
  3
txt
  4

  0
ENDTAB
  0
TABLE
  2
VIEW
  5
6
330
0
100
AcDbSymbolTable
 70
     0
  0
ENDTAB
  0
TABLE
  2
UCS
  5
7
330
0
100
AcDbSymbolTable
 70
     0
  0
ENDTAB
  0
TABLE
  2
APPID
  5
9
330
0
100
AcDbSymbolTable
 70
     1
  0
APPID
  5
12
330
9
100
AcDbSymbolTableRecord
100
AcDbRegAppTableRecord
  2
ACAD
 70
     0
  0
ENDTAB
  0
TABLE
  2
DIMSTYLE
  5
A
330
0
100
AcDbSymbolTable
 70
     1
100
AcDbDimStyleTable
  0
DIMSTYLE
105
27
330
A
100
AcDbSymbolTableRecord
100
AcDbDimStyleTableRecord
  2
ISO-25
 70
     0
 41
2.5
 42
0.625
 43
3.75
 44
1.25
 73
     0
 74
     0
 77
     1
 78
     8
140
2.5
141
2.5
143
0.0393700787
147
0.625
171
     3
172
     1
178
     0
271
     2
272
     2
274
     3
278
    44
283
     0
284
     8
340
11
  0
ENDTAB
  0
TABLE
  2
BLOCK_RECORD
  5
1
330
0
100
AcDbSymbolTable
 70
     5
  0
BLOCK_RECORD
  5
1F
330
1
100
AcDbSymbolTableRecord
100
AcDbBlockTableRecord
  2
*Model_Space
340
22
  0
BLOCK_RECORD
  5
1B
330
1
100
AcDbSymbolTableRecord
100
AcDbBlockTableRecord
  2
*Paper_Space
340
1E
  0
BLOCK_RECORD
  5
23
330
1
100
AcDbSymbolTableRecord
100
AcDbBlockTableRecord
  2
*Paper_Space0
340
26
  0
BLOCK_RECORD
  5
9C
330
1
100
AcDbSymbolTableRecord
100
AcDbBlockTableRecord
  2
SW_CENTERMARKSYMBOL_0
340
0
102
{BLKREFS
331
A7
102
}
  0
BLOCK_RECORD
  5
A8
330
1
100
AcDbSymbolTableRecord
100
AcDbBlockTableRecord
  2
SW_CENTERMARKSYMBOL_1
340
0
102
{BLKREFS
331
B3
102
}
  0
BLOCK_RECORD
  5
B4
330
1
100
AcDbSymbolTableRecord
100
AcDbBlockTableRecord
  2
SW_CENTERMARKSYMBOL_2
340
0
102
{BLKREFS
331
BF
102
}
  0
BLOCK_RECORD
  5
C0
330
1
100
AcDbSymbolTableRecord
100
AcDbBlockTableRecord
  2
SW_CENTERMARKSYMBOL_3
340
0
102
{BLKREFS
331
CB
102
}
  0
ENDTAB
  0
ENDSEC
  0
SECTION
  2
BLOCKS
  0
BLOCK
  5
20
330
1F
100
AcDbEntity
  8
0
100
AcDbBlockBegin
  2
*Model_Space
 70
     0
 10
0.0
 20
0.0
 30
0.0
  3
*Model_Space
  1

  0
ENDBLK
  5
21
330
1F
100
AcDbEntity
  8
0
100
AcDbBlockEnd
  0
BLOCK
  5
1C
330
1B
100
AcDbEntity
 67
     1
  8
0
100
AcDbBlockBegin
  2
*Paper_Space
 70
     0
 10
0.0
 20
0.0
 30
0.0
  3
*Paper_Space
  1

  0
ENDBLK
  5
1D
330
1B
100
AcDbEntity
 67
     1
  8
0
100
AcDbBlockEnd
  0
BLOCK
  5
24
330
23
100
AcDbEntity
  8
0
100
AcDbBlockBegin
  2
*Paper_Space0
 70
     0
 10
0.0
 20
0.0
 30
0.0
  3
*Paper_Space0
  1

  0
ENDBLK
  5
25
330
23
100
AcDbEntity
  8
0
100
AcDbBlockEnd
  0
BLOCK
  5
9D
330
9C
100
AcDbEntity
  8
0
100
AcDbBlockBegin
  2
SW_CENTERMARKSYMBOL_0
 70
     0
 10
0.0
 20
0.0
 30
0.0
  3
SW_CENTERMARKSYMBOL_0
  1

  0
LINE
  5
9F
330
9C
100
AcDbEntity
  8
0
  6
Continuous
 62
     0
370
     0
100
AcDbLine
 10
0.0
 20
0.0
 30
0.0
 11
0.0
 21
0.5
 31
0.0
  0
LINE
  5
A0
330
9C
100
AcDbEntity
  8
0
  6
Continuous
 62
     0
370
     0
100
AcDbLine
 10
0.0
 20
0.0
 30
0.0
 11
-0.5
 21
0.0
 31
0.0
  0
LINE
  5
A1
330
9C
100
AcDbEntity
  8
0
  6
Continuous
 62
     0
370
     0
100
AcDbLine
 10
0.0
 20
0.0
 30
0.0
 11
0.0
 21
-0.5
 31
0.0
  0
LINE
  5
A2
330
9C
100
AcDbEntity
  8
0
  6
Continuous
 62
     0
370
     0
100
AcDbLine
 10
0.0
 20
0.0
 30
0.0
 11
0.5
 21
0.0
 31
0.0
  0
LINE
  5
A3
330
9C
100
AcDbEntity
  8
0
  6
Continuous
 62
     0
370
     0
100
AcDbLine
 10
0.0
 20
1.0
 30
0.0
 11
0.0
 21
3.0
 31
0.0
  0
LINE
  5
A4
330
9C
100
AcDbEntity
  8
0
  6
Continuous
 62
     0
370
     0
100
AcDbLine
 10
-1.0
 20
0.0
 30
0.0
 11
-3.0
 21
0.0
 31
0.0
  0
LINE
  5
A5
330
9C
100
AcDbEntity
  8
0
  6
Continuous
 62
     0
370
     0
100
AcDbLine
 10
0.0
 20
-1.0
 30
0.0
 11
0.0
 21
-3.0
 31
0.0
  0
LINE
  5
A6
330
9C
100
AcDbEntity
  8
0
  6
Continuous
 62
     0
370
     0
100
AcDbLine
 10
1.0
 20
0.0
 30
0.0
 11
3.0
 21
0.0
 31
0.0
  0
ENDBLK
  5
9E
330
9C
100
AcDbEntity
  8
0
100
AcDbBlockEnd
  0
BLOCK
  5
A9
330
A8
100
AcDbEntity
  8
0
100
AcDbBlockBegin
  2
SW_CENTERMARKSYMBOL_1
 70
     0
 10
0.0
 20
0.0
 30
0.0
  3
SW_CENTERMARKSYMBOL_1
  1

  0
LINE
  5
AB
330
A8
100
AcDbEntity
  8
0
  6
Continuous
 62
     0
370
     0
100
AcDbLine
 10
0.0
 20
0.0
 30
0.0
 11
0.0
 21
0.5
 31
0.0
  0
LINE
  5
AC
330
A8
100
AcDbEntity
  8
0
  6
Continuous
 62
     0
370
     0
100
AcDbLine
 10
0.0
 20
0.0
 30
0.0
 11
-0.5
 21
0.0
 31
0.0
  0
LINE
  5
AD
330
A8
100
AcDbEntity
  8
0
  6
Continuous
 62
     0
370
     0
100
AcDbLine
 10
0.0
 20
0.0
 30
0.0
 11
0.0
 21
-0.5
 31
0.0
  0
LINE
  5
AE
330
A8
100
AcDbEntity
  8
0
  6
Continuous
 62
     0
370
     0
100
AcDbLine
 10
0.0
 20
0.0
 30
0.0
 11
0.5
 21
0.0
 31
0.0
  0
LINE
  5
AF
330
A8
100
AcDbEntity
  8
0
  6
Continuous
 62
     0
370
     0
100
AcDbLine
 10
0.0
 20
1.0
 30
0.0
 11
0.0
 21
3.0
 31
0.0
  0
LINE
  5
B0
330
A8
100
AcDbEntity
  8
0
  6
Continuous
 62
     0
370
     0
100
AcDbLine
 10
-1.0
 20
0.0
 30
0.0
 11
-3.0
 21
0.0
 31
0.0
  0
LINE
  5
B1
330
A8
100
AcDbEntity
  8
0
  6
Continuous
 62
     0
370
     0
100
AcDbLine
 10
0.0
 20
-1.0
 30
0.0
 11
0.0
 21
-3.0
 31
0.0
  0
LINE
  5
B2
330
A8
100
AcDbEntity
  8
0
  6
Continuous
 62
     0
370
     0
100
AcDbLine
 10
1.0
 20
0.0
 30
0.0
 11
3.0
 21
0.0
 31
0.0
  0
ENDBLK
  5
AA
330
A8
100
AcDbEntity
  8
0
100
AcDbBlockEnd
  0
BLOCK
  5
B5
330
B4
100
AcDbEntity
  8
0
100
AcDbBlockBegin
  2
SW_CENTERMARKSYMBOL_2
 70
     0
 10
0.0
 20
0.0
 30
0.0
  3
SW_CENTERMARKSYMBOL_2
  1

  0
LINE
  5
B7
330
B4
100
AcDbEntity
  8
0
  6
Continuous
 62
     0
370
     0
100
AcDbLine
 10
0.0
 20
0.0
 30
0.0
 11
0.0
 21
0.5
 31
0.0
  0
LINE
  5
B8
330
B4
100
AcDbEntity
  8
0
  6
Continuous
 62
     0
370
     0
100
AcDbLine
 10
0.0
 20
0.0
 30
0.0
 11
-0.5
 21
0.0
 31
0.0
  0
LINE
  5
B9
330
B4
100
AcDbEntity
  8
0
  6
Continuous
 62
     0
370
     0
100
AcDbLine
 10
0.0
 20
0.0
 30
0.0
 11
0.0
 21
-0.5
 31
0.0
  0
LINE
  5
BA
330
B4
100
AcDbEntity
  8
0
  6
Continuous
 62
     0
370
     0
100
AcDbLine
 10
0.0
 20
0.0
 30
0.0
 11
0.5
 21
0.0
 31
0.0
  0
LINE
  5
BB
330
B4
100
AcDbEntity
  8
0
  6
Continuous
 62
     0
370
     0
100
AcDbLine
 10
0.0
 20
1.0
 30
0.0
 11
0.0
 21
3.0
 31
0.0
  0
LINE
  5
BC
330
B4
100
AcDbEntity
  8
0
  6
Continuous
 62
     0
370
     0
100
AcDbLine
 10
-1.0
 20
0.0
 30
0.0
 11
-3.0
 21
0.0
 31
0.0
  0
LINE
  5
BD
330
B4
100
AcDbEntity
  8
0
  6
Continuous
 62
     0
370
     0
100
AcDbLine
 10
0.0
 20
-1.0
 30
0.0
 11
0.0
 21
-3.0
 31
0.0
  0
LINE
  5
BE
330
B4
100
AcDbEntity
  8
0
  6
Continuous
 62
     0
370
     0
100
AcDbLine
 10
1.0
 20
0.0
 30
0.0
 11
3.0
 21
0.0
 31
0.0
  0
ENDBLK
  5
B6
330
B4
100
AcDbEntity
  8
0
100
AcDbBlockEnd
  0
BLOCK
  5
C1
330
C0
100
AcDbEntity
  8
0
100
AcDbBlockBegin
  2
SW_CENTERMARKSYMBOL_3
 70
     0
 10
0.0
 20
0.0
 30
0.0
  3
SW_CENTERMARKSYMBOL_3
  1

  0
LINE
  5
C3
330
C0
100
AcDbEntity
  8
0
  6
Continuous
 62
     0
370
     0
100
AcDbLine
 10
0.0
 20
0.0
 30
0.0
 11
0.0
 21
0.5
 31
0.0
  0
LINE
  5
C4
330
C0
100
AcDbEntity
  8
0
  6
Continuous
 62
     0
370
     0
100
AcDbLine
 10
0.0
 20
0.0
 30
0.0
 11
-0.5
 21
0.0
 31
0.0
  0
LINE
  5
C5
330
C0
100
AcDbEntity
  8
0
  6
Continuous
 62
     0
370
     0
100
AcDbLine
 10
0.0
 20
0.0
 30
0.0
 11
0.0
 21
-0.5
 31
0.0
  0
LINE
  5
C6
330
C0
100
AcDbEntity
  8
0
  6
Continuous
 62
     0
370
     0
100
AcDbLine
 10
0.0
 20
0.0
 30
0.0
 11
0.5
 21
0.0
 31
0.0
  0
LINE
  5
C7
330
C0
100
AcDbEntity
  8
0
  6
Continuous
 62
     0
370
     0
100
AcDbLine
 10
0.0
 20
1.0
 30
0.0
 11
0.0
 21
3.0
 31
0.0
  0
LINE
  5
C8
330
C0
100
AcDbEntity
  8
0
  6
Continuous
 62
     0
370
     0
100
AcDbLine
 10
-1.0
 20
0.0
 30
0.0
 11
-3.0
 21
0.0
 31
0.0
  0
LINE
  5
C9
330
C0
100
AcDbEntity
  8
0
  6
Continuous
 62
     0
370
     0
100
AcDbLine
 10
0.0
 20
-1.0
 30
0.0
 11
0.0
 21
-3.0
 31
0.0
  0
LINE
  5
CA
330
C0
100
AcDbEntity
  8
0
  6
Continuous
 62
     0
370
     0
100
AcDbLine
 10
1.0
 20
0.0
 30
0.0
 11
3.0
 21
0.0
 31
0.0
  0
ENDBLK
  5
C2
330
C0
100
AcDbEntity
  8
0
100
AcDbBlockEnd
  0
ENDSEC
  0
SECTION
  2
ENTITIES
  0
LINE
  5
74
330
1F
100
AcDbEntity
  8
0
  6
Continuous
 62
     7
370
    15
100
AcDbLine
 10
558.7089579984
 20
159.0482475364
 30
0.0
 11
556.217439421
 21
170.769920854
 31
0.0
  0
LINE
  5
75
330
1F
100
AcDbEntity
  8
0
  6
Continuous
 62
     7
370
    15
100
AcDbLine
 10
551.3267014173
 20
169.7303623999
 30
0.0
 11
553.8182199947
 21
158.0086890823
 31
0.0
  0
LINE
  5
76
330
1F
100
AcDbEntity
  8
0
  6
Continuous
 62
     7
370
    15
100
AcDbLine
 10
525.3704491978
 20
291.844928121
 30
0.0
 11
551.3267014173
 21
169.7303623999
 31
0.0
  0
LINE
  5
77
330
1F
100
AcDbEntity
  8
0
  6
Continuous
 62
     7
370
    15
100
AcDbLine
 10
556.217439421
 20
170.769920854
 30
0.0
 11
530.2611872015
 21
292.8844865751
 31
0.0
  0
LINE
  5
78
330
1F
100
AcDbEntity
  8
0
  6
Continuous
 62
     7
370
    15
100
AcDbLine
 10
530.2611872015
 20
292.8844865751
 30
0.0
 11
528.9278150103
 21
299.1575095327
 31
0.0
  0
LINE
  5
79
330
1F
100
AcDbEntity
  8
0
  6
Continuous
 62
     7
370
    15
100
AcDbLine
 10
524.0370770066
 20
298.1179510786
 30
0.0
 11
525.3704491978
 21
291.844928121
 31
0.0
  0
LINE
  5
7A
330
1F
100
AcDbEntity
  8
0
  6
Continuous
 62
     7
370
    15
100
AcDbLine
 10
550.0443568993
 20
175.7633190299
 30
0.0
 11
490.7635117396
 21
288.523750915
 31
0.0
  0
LINE
  5
7B
330
1F
100
AcDbEntity
  8
0
  6
Continuous
 62
     7
370
    15
100
AcDbLine
 10
486.3378413365
 20
286.1970705582
 30
0.0
 11
553.9342314261
 21
157.6193129395
 31
0.0
  0
LINE
  5
7C
330
1F
100
AcDbEntity
  8
0
  6
Continuous
 62
     7
370
    15
100
AcDbLine
 10
495.631749183
 20
296.5830993075
 30
0.0
 11
524.3633198218
 21
296.5830993075
 31
0.0
  0
ARC
  5
7D
330
1F
100
AcDbEntity
  8
0
  6
Continuous
 62
     7
370
    15
100
AcDbCircle
 10
495.631749183
 20
291.0830993075
 30
0.0
 40
5.500000000000057
100
AcDbArc
 50
180.0
 51
207.7319741775
  0
ARC
  5
7E
330
1F
100
AcDbEntity
  8
0
  6
Continuous
 62
     7
370
    15
100
AcDbCircle
 10
495.631749183
 20
291.0830993075
 30
0.0
 40
5.500000000000057
100
AcDbArc
 50
90.0
 51
180.0
  0
ARC
  5
7F
330
1F
100
AcDbEntity
  8
0
  6
Continuous
 62
     7
370
    15
100
AcDbCircle
 10
495.631749183
 20
291.0830993075
 30
0.0
 40
10.5
100
AcDbArc
 50
107.7527901619
 51
207.7319741775
  0
LINE
  5
80
330
1F
100
AcDbEntity
  8
0
  6
Continuous
 62
     7
370
    15
100
AcDbLine
 10
209.6325050211
 20
157.6193129395
 30
0.0
 11
277.2288951107
 21
286.1970705582
 31
0.0
  0
LINE
  5
81
330
1F
100
AcDbEntity
  8
0
  6
Continuous
 62
     7
370
    15
100
AcDbLine
 10
272.8032247076
 20
288.523750915
 30
0.0
 11
213.5223795478
 21
175.7633190299
 31
0.0
  0
ARC
  5
82
330
1F
100
AcDbEntity
  8
0
  6
Continuous
 62
     7
370
    15
100
AcDbCircle
 10
267.9349872641
 20
291.0830993075
 30
0.0
 40
5.500000000000054
100
AcDbArc
 50
332.2680258225
 51
90.0
  0
ARC
  5
83
330
1F
100
AcDbEntity
  8
0
  6
Continuous
 62
     7
370
    15
100
AcDbCircle
 10
267.9349872641
 20
291.0830993075
 30
0.0
 40
10.5
100
AcDbArc
 50
332.2680258225
 51
72.2472098381
  0
LINE
  5
84
330
1F
100
AcDbEntity
  8
0
  6
Continuous
 62
     7
370
    15
100
AcDbLine
 10
239.2034166254
 20
296.5830993075
 30
0.0
 11
267.9349872641
 21
296.5830993075
 31
0.0
  0
LINE
  5
85
330
1F
100
AcDbEntity
  8
0
  6
Continuous
 62
     7
370
    15
100
AcDbLine
 10
207.3492970262
 20
170.769920854
 30
0.0
 11
204.8577784488
 21
159.0482475364
 31
0.0
  0
LINE
  5
86
330
1F
100
AcDbEntity
  8
0
  6
Continuous
 62
     7
370
    15
100
AcDbLine
 10
209.7485164525
 20
158.0086890823
 30
0.0
 11
212.2400350299
 21
169.7303623999
 31
0.0
  0
LINE
  5
87
330
1F
100
AcDbEntity
  8
0
  6
Continuous
 62
     7
370
    15
100
AcDbLine
 10
233.3055492457
 20
292.8844865751
 30
0.0
 11
207.3492970262
 21
170.769920854
 31
0.0
  0
LINE
  5
88
330
1F
100
AcDbEntity
  8
0
  6
Continuous
 62
     7
370
    15
100
AcDbLine
 10
212.2400350299
 20
169.7303623999
 30
0.0
 11
238.1962872494
 21
291.844928121
 31
0.0
  0
LINE
  5
89
330
1F
100
AcDbEntity
  8
0
  6
Continuous
 62
     7
370
    15
100
AcDbLine
 10
234.6389214368
 20
299.1575095327
 30
0.0
 11
233.3055492457
 21
292.8844865751
 31
0.0
  0
LINE
  5
8A
330
1F
100
AcDbEntity
  8
0
  6
Continuous
 62
     7
370
    15
100
AcDbLine
 10
238.1962872494
 20
291.844928121
 30
0.0
 11
239.5296594405
 21
298.1179510786
 31
0.0
  0
LINE
  5
8B
330
1F
100
AcDbEntity
  8
0
  6
Continuous
 62
     7
370
    15
100
AcDbLine
 10
556.7833682236
 20
301.0830993075
 30
0.0
 11
206.7833682236
 21
301.0830993075
 31
0.0
  0
LINE
  5
8C
330
1F
100
AcDbEntity
  8
0
  6
Continuous
 62
     7
370
    15
100
AcDbLine
 10
206.7833682236
 20
304.0830993075
 30
0.0
 11
206.7833682236
 21
301.0830993075
 31
0.0
  0
LINE
  5
8D
330
1F
100
AcDbEntity
  8
0
  6
Continuous
 62
     7
370
    15
100
AcDbLine
 10
556.7833682236
 20
304.0830993075
 30
0.0
 11
206.7833682236
 21
304.0830993075
 31
0.0
  0
LINE
  5
8E
330
1F
100
AcDbEntity
  8
0
  6
Continuous
 62
     7
370
    15
100
AcDbLine
 10
556.7833682236
 20
304.0830993075
 30
0.0
 11
556.7833682236
 21
301.0830993075
 31
0.0
  0
LINE
  5
8F
330
1F
100
AcDbEntity
  8
0
  6
Continuous
 62
     7
370
    15
100
AcDbLine
 10
208.7833682236
 20
306.0830993075
 30
0.0
 11
554.7833682236
 21
306.0830993075
 31
0.0
  0
LINE
  5
90
330
1F
100
AcDbEntity
  8
0
  6
Continuous
 62
     7
370
    15
100
AcDbLine
 10
554.7833682236
 20
306.0830993075
 30
0.0
 11
556.7833682236
 21
304.0830993075
 31
0.0
  0
LINE
  5
91
330
1F
100
AcDbEntity
  8
0
  6
Continuous
 62
     7
370
    15
100
AcDbLine
 10
206.7833682236
 20
304.0830993075
 30
0.0
 11
208.7833682236
 21
306.0830993075
 31
0.0
  0
ARC
  5
92
330
1F
100
AcDbEntity
  8
0
  6
Continuous
 62
     7
370
    15
100
AcDbCircle
 10
556.2635889965
 20
158.5284683094
 30
0.0
 40
2.500000000000073
100
AcDbArc
 50
192.0
 51
12.0
  0
ARC
  5
93
330
1F
100
AcDbEntity
  8
0
  6
Continuous
 62
     7
370
    15
100
AcDbCircle
 10
526.4824460085
 20
298.6377303057
 30
0.0
 40
2.500000000000055
100
AcDbArc
 50
12.0
 51
78.0
  0
ARC
  5
94
330
1F
100
AcDbEntity
  8
0
  6
Continuous
 62
     7
370
    15
100
AcDbCircle
 10
526.4824460085
 20
298.6377303057
 30
0.0
 40
2.499999999999991
100
AcDbArc
 50
102.0
 51
192.0
  0
ARC
  5
95
330
1F
100
AcDbEntity
  8
0
  6
Continuous
 62
     7
370
    15
100
AcDbCircle
 10
555.9867915805
 20
158.4309595657
 30
0.0
 40
2.206711980426344
100
AcDbArc
 50
191.4132356353
 51
201.5740023061
  0
LINE
  5
96
330
1F
100
AcDbEntity
  8
0
  6
Continuous
 62
     7
370
    15
100
AcDbLine
 10
524.0667268857
 20
298.0526176004
 30
0.0
 11
524.0316057147
 21
298.245126604
 31
0.0
  0
ARC
  5
97
330
1F
100
AcDbEntity
  8
0
  6
Continuous
 62
     7
370
    15
100
AcDbCircle
 10
207.5799448666
 20
158.4309595657
 30
0.0
 40
2.206711980443352
100
AcDbArc
 50
338.4259976939
 51
348.5867643646
  0
LINE
  5
98
330
1F
100
AcDbEntity
  8
0
  6
Continuous
 62
     7
370
    15
100
AcDbLine
 10
239.5047844375
 20
298.0787900372
 30
0.0
 11
239.5351307325
 21
298.245126604
 31
0.0
  0
ARC
  5
99
330
1F
100
AcDbEntity
  8
0
  6
Continuous
 62
     7
370
    15
100
AcDbCircle
 10
207.3031474506
 20
158.5284683094
 30
0.0
 40
2.49999999999999
100
AcDbArc
 50
168.0
 51
348.0
  0
ARC
  5
9A
330
1F
100
AcDbEntity
  8
0
  6
Continuous
 62
     7
370
    15
100
AcDbCircle
 10
237.0842904387
 20
298.6377303057
 30
0.0
 40
2.499999999999985
100
AcDbArc
 50
102.0
 51
168.0
  0
ARC
  5
9B
330
1F
100
AcDbEntity
  8
0
  6
Continuous
 62
     7
370
    15
100
AcDbCircle
 10
237.0842904387
 20
298.6377303057
 30
0.0
 40
2.500000000000023
100
AcDbArc
 50
348.0
 51
78.0
  0
INSERT
  5
A7
330
1F
100
AcDbEntity
  8
0
  6
Continuous
 62
     7
370
     0
100
AcDbBlockReference
  2
SW_CENTERMARKSYMBOL_0
 10
556.2635889965
 20
158.5284683094
 30
0.0
  0
INSERT
  5
B3
330
1F
100
AcDbEntity
  8
0
  6
Continuous
 62
     7
370
     0
100
AcDbBlockReference
  2
SW_CENTERMARKSYMBOL_1
 10
526.4824460085
 20
298.6377303057
 30
0.0
  0
INSERT
  5
BF
330
1F
100
AcDbEntity
  8
0
  6
Continuous
 62
     7
370
     0
100
AcDbBlockReference
  2
SW_CENTERMARKSYMBOL_2
 10
207.3031474506
 20
158.5284683094
 30
0.0
  0
INSERT
  5
CB
330
1F
100
AcDbEntity
  8
0
  6
Continuous
 62
     7
370
     0
100
AcDbBlockReference
  2
SW_CENTERMARKSYMBOL_3
 10
237.0842904387
 20
298.6377303057
 30
0.0
  0
LINE
  5
CC
330
1F
100
AcDbEntity
  8
0
  6
Continuous
 62
     7
370
    15
100
AcDbLine
 10
552.0283160787
 20
673.5773160432
 30
0.0
 11
550.6828234565
 21
672.2676515393
 31
0.0
  0
LINE
  5
CD
330
1F
100
AcDbEntity
  8
0
  6
Continuous
 62
     7
370
    15
100
AcDbLine
 10
550.6828234565
 20
522.2676515393
 30
0.0
 11
552.0283160787
 21
520.9579870354
 31
0.0
  0
LWPOLYLINE
  5
CE
330
1F
100
AcDbEntity
  8
0
  6
Continuous
 62
     7
370
    15
100
AcDbPolyline
 90
       31
 70
   128
 43
0.0
 10
558.7635889965
 20
661.9845543556
 10
558.7616787184
 20
662.4241332163
 10
558.7475377139
 20
663.256807462
 10
558.7196586082
 20
664.0828933892
 10
558.6781047124
 20
664.8982789229
 10
558.6229401137
 20
665.6991553265
 10
558.5542085242
 20
666.4819416203
 10
558.4718956012
 20
667.2433794703
 10
558.3758670887
 20
667.9806540457
 10
558.2657656233
 20
668.6915592182
 10
558.1408322691
 20
669.3747397766
 10
557.9995820226
 20
670.0300709748
 10
557.8391765116
 20
670.6592876964
 10
557.6541276944
 20
671.2670506538
 10
557.4334985124
 20
671.8625201552
 10
557.1557264124
 20
672.4588573238
 10
556.904287278
 20
672.8865266892
 10
556.6475154274
 20
673.2398254096
 10
556.374356593
 20
673.5440530536
 10
556.0777961711
 20
673.8088124481
 10
555.7538635609
 20
674.0357370561
 10
555.4020917508
 20
674.2217609469
 10
555.0255896615
 20
674.3617206046
 10
554.6304104307
 20
674.450475499
 10
554.1896479904
 20
674.4845497875
 10
553.7604030362
 20
674.453750872
 10
553.352944788
 20
674.3645558467
 10
552.9735044279
 20
674.2247392007
 10
552.6252257686
 20
674.0419298701
 10
552.3087344276
 20
673.8226820431
 10
552.0283160787
 20
673.5773160432
  0
LWPOLYLINE
  5
CF
330
1F
100
AcDbEntity
  8
0
  6
Continuous
 62
     7
370
    15
100
AcDbPolyline
 90
       31
 70
   128
 43
0.0
 10
552.0283160787
 20
520.9579870354
 10
552.3376532211
 20
520.6902242566
 10
552.6657549969
 20
520.4691486423
 10
553.0214893806
 20
520.2896393801
 10
553.4012165112
 20
520.1570039979
 10
553.8434962762
 20
520.0706315535
 10
554.2833721737
 20
520.0524169883
 10
554.7082095633
 20
520.0978456495
 10
555.1093886419
 20
520.1998536873
 10
555.4815754475
 20
520.3506161844
 10
555.822216174
 20
520.5426654944
 10
556.1313091979
 20
520.7698810676
 10
556.4114942773
 20
521.028895722
 10
556.6678660096
 20
521.3208772134
 10
556.9074920365
 20
521.6536735211
 10
557.1387452281
 20
522.044557693
 10
557.3695487001
 20
522.5219295214
 10
557.5996406421
 20
523.1093879027
 10
557.807566532
 20
523.7640378244
 10
557.9822986861
 20
524.4320832468
 10
558.1316216183
 20
525.1144012488
 10
558.2611842012
 20
525.8166119279
 10
558.3739774158
 20
526.541377417
 10
558.4715460941
 20
527.2889846854
 10
558.5546819788
 20
528.0582088697
 10
558.6237749378
 20
528.8468430991
 10
558.6789988769
 20
529.6520164738
 10
558.7204157247
 20
530.4703973083
 10
558.7480360749
 20
531.2983336782
 10
558.761855197
 20
532.131958746
 10
558.7635889965
 20
532.5507487231
  0
LINE
  5
D0
330
1F
100
AcDbEntity
  8
0
  6
Continuous
 62
     7
370
    15
100
AcDbLine
 10
558.7635889965
 20
532.5507487231
 30
0.0
 11
558.7635889965
 21
661.9845543556
 31
0.0
  0
LINE
  5
D1
330
1F
100
AcDbEntity
  8
0
  6
Continuous
 62
     7
370
    15
100
AcDbLine
 10
212.8839129906
 20
672.2676515393
 30
0.0
 11
211.5384203685
 21
673.5773160432
 31
0.0
  0
LINE
  5
D2
330
1F
100
AcDbEntity
  8
0
  6
Continuous
 62
     7
370
    15
100
AcDbLine
 10
211.5384203685
 20
520.9579870354
 30
0.0
 11
212.8839129906
 21
522.2676515393
 31
0.0
  0
LWPOLYLINE
  5
D3
330
1F
100
AcDbEntity
  8
0
  6
Continuous
 62
     7
370
    15
100
AcDbPolyline
 90
       31
 70
   128
 43
0.0
 10
211.5384203685
 20
673.5773160432
 10
211.229083226
 20
673.8450788221
 10
210.9009814502
 20
674.0661544364
 10
210.5452470666
 20
674.2456636986
 10
210.1655199359
 20
674.3782990808
 10
209.723240171
 20
674.4646715252
 10
209.2833642735
 20
674.4828860904
 10
208.8585268838
 20
674.4374574291
 10
208.4573478053
 20
674.3354493914
 10
208.0851609997
 20
674.1846868943
 10
207.7445202731
 20
673.9926375843
 10
207.4354272492
 20
673.765422011
 10
207.1552421699
 20
673.5064073567
 10
206.8988704375
 20
673.2144258653
 10
206.6592444106
 20
672.8816295576
 10
206.4279912191
 20
672.4907453857
 10
206.197187747
 20
672.0133735573
 10
205.9670958051
 20
671.425915176
 10
205.7591699151
 20
670.7712652543
 10
205.584437761
 20
670.1032198318
 10
205.4351148289
 20
669.4209018299
 10
205.3055522459
 20
668.7186911508
 10
205.1927590313
 20
667.9939256617
 10
205.0951903531
 20
667.2463183933
 10
205.0120544683
 20
666.477094209
 10
204.9429615094
 20
665.6884599795
 10
204.8877375703
 20
664.8832866049
 10
204.8463207224
 20
664.0649057703
 10
204.8187003723
 20
663.2369694005
 10
204.8048812501
 20
662.4033443327
 10
204.8031474506
 20
661.9845543556
  0
LWPOLYLINE
  5
D4
330
1F
100
AcDbEntity
  8
0
  6
Continuous
 62
     7
370
    15
100
AcDbPolyline
 90
       31
 70
   128
 43
0.0
 10
204.8031474506
 20
532.5507487231
 10
204.8050577288
 20
532.1111698623
 10
204.8191987333
 20
531.2784956167
 10
204.8470778389
 20
530.4524096895
 10
204.8886317347
 20
529.6370241558
 10
204.9437963335
 20
528.8361477522
 10
205.012527923
 20
528.0533614583
 10
205.094840846
 20
527.2919236084
 10
205.1908693585
 20
526.554649033
 10
205.3009708238
 20
525.8437438605
 10
205.4259041781
 20
525.1605633021
 10
205.5671544245
 20
524.5052321038
 10
205.7275599356
 20
523.8760153823
 10
205.9126087528
 20
523.2682524248
 10
206.1332379348
 20
522.6727829235
 10
206.4110100347
 20
522.0764457549
 10
206.6624491691
 20
521.6487763895
 10
206.9192210197
 20
521.295477669
 10
207.1923798541
 20
520.9912500251
 10
207.488940276
 20
520.7264906305
 10
207.8128728863
 20
520.4995660225
 10
208.1646446964
 20
520.3135421318
 10
208.5411467857
 20
520.173582474
 10
208.9363260164
 20
520.0848275797
 10
209.3770884568
 20
520.0507532912
 10
209.806333411
 20
520.0815522067
 10
210.2137916592
 20
520.170747232
 10
210.5932320193
 20
520.310563878
 10
210.9415106786
 20
520.4933732086
 10
211.2580020196
 20
520.7126210356
 10
211.5384203685
 20
520.9579870354
  0
LINE
  5
D5
330
1F
100
AcDbEntity
  8
0
  6
Continuous
 62
     7
370
    15
100
AcDbLine
 10
204.8031474506
 20
661.9845543556
 30
0.0
 11
204.8031474506
 21
532.5507487231
 31
0.0
  0
LINE
  5
D6
330
1F
100
AcDbEntity
  8
0
  6
Continuous
 62
     7
370
    15
100
AcDbLine
 10
554.7833682236
 20
524.2676515393
 30
0.0
 11
554.7833682236
 21
670.2676515393
 31
0.0
  0
LINE
  5
D7
330
1F
100
AcDbEntity
  8
0
  6
Continuous
 62
     7
370
    15
100
AcDbLine
 10
554.7833682236
 20
670.2676515393
 30
0.0
 11
556.7833682236
 21
672.2676515393
 31
0.0
  0
LINE
  5
D8
330
1F
100
AcDbEntity
  8
0
  6
Continuous
 62
     7
370
    15
100
AcDbLine
 10
556.7833682236
 20
672.2676515393
 30
0.0
 11
556.7833682236
 21
522.2676515393
 31
0.0
  0
LINE
  5
D9
330
1F
100
AcDbEntity
  8
0
  6
Continuous
 62
     7
370
    15
100
AcDbLine
 10
554.7833682236
 20
524.2676515393
 30
0.0
 11
556.7833682236
 21
522.2676515393
 31
0.0
  0
LINE
  5
DA
330
1F
100
AcDbEntity
  8
0
  6
Continuous
 62
     7
370
    15
100
AcDbLine
 10
206.7833682236
 20
522.2676515393
 30
0.0
 11
206.7833682236
 21
672.2676515393
 31
0.0
  0
LINE
  5
DB
330
1F
100
AcDbEntity
  8
0
  6
Continuous
 62
     7
370
    15
100
AcDbLine
 10
206.7833682236
 20
672.2676515393
 30
0.0
 11
208.7833682236
 21
670.2676515393
 31
0.0
  0
LINE
  5
DC
330
1F
100
AcDbEntity
  8
0
  6
Continuous
 62
     7
370
    15
100
AcDbLine
 10
208.7833682236
 20
670.2676515393
 30
0.0
 11
208.7833682236
 21
524.2676515393
 31
0.0
  0
LINE
  5
DD
330
1F
100
AcDbEntity
  8
0
  6
Continuous
 62
     7
370
    15
100
AcDbLine
 10
206.7833682236
 20
522.2676515393
 30
0.0
 11
208.7833682236
 21
524.2676515393
 31
0.0
  0
LINE
  5
DE
330
1F
100
AcDbEntity
  8
0
  6
Continuous
 62
     7
370
    15
100
AcDbLine
 10
554.7833682236
 20
670.2676515393
 30
0.0
 11
208.7833682236
 21
670.2676515393
 31
0.0
  0
LINE
  5
DF
330
1F
100
AcDbEntity
  8
0
  6
Continuous
 62
     7
370
    15
100
AcDbLine
 10
206.7833682236
 20
672.2676515393
 30
0.0
 11
556.7833682236
 21
672.2676515393
 31
0.0
  0
LINE
  5
E0
330
1F
100
AcDbEntity
  8
0
  6
Continuous
 62
     7
370
    15
100
AcDbLine
 10
208.7833682236
 20
524.2676515393
 30
0.0
 11
554.7833682236
 21
524.2676515393
 31
0.0
  0
LINE
  5
E1
330
1F
100
AcDbEntity
  8
0
  6
Continuous
 62
     7
370
    15
100
AcDbLine
 10
556.7833682236
 20
522.2676515393
 30
0.0
 11
206.7833682236
 21
522.2676515393
 31
0.0
  0
LWPOLYLINE
  5
E2
330
1F
100
AcDbEntity
  8
0
  6
Continuous
 62
     7
370
    15
100
AcDbPolyline
 90
        7
 70
   128
 43
0.0
 10
558.4508963677
 20
597.5475808777
 10
558.3540849293
 20
597.6325054399
 10
558.1714540081
 20
597.8740008349
 10
557.9672505987
 20
598.1363549452
 10
557.5421326417
 20
598.5986471468
 10
557.0168214762
 20
599.0423085528
 10
556.7833682236
 20
599.1978894047
  0
LWPOLYLINE
  5
E3
330
1F
100
AcDbEntity
  8
0
  6
Continuous
 62
     7
370
    15
100
AcDbPolyline
 90
        8
 70
   128
 43
0.0
 10
556.7833682236
 20
595.3362401082
 10
556.851532474
 20
595.377260003
 10
557.29400203
 20
595.7117669658
 10
557.6914596919
 20
596.0869819774
 10
558.0341403335
 20
596.4819940324
 10
558.3304783704
 20
596.8737961257
 10
558.4229967624
 20
596.9717515291
 10
558.4508963677
 20
596.987722201
  0
ARC
  5
E4
330
1F
100
AcDbEntity
  8
0
  6
Continuous
 62
     7
370
    15
100
AcDbCircle
 10
555.6426249772
 20
597.2676515393
 30
0.0
 40
2.822188625331063
100
AcDbArc
 50
354.3075434613
 51
5.6924565387
  0
LWPOLYLINE
  5
E5
330
1F
100
AcDbEntity
  8
0
  6
Continuous
 62
     7
370
    15
100
AcDbPolyline
 90
        7
 70
   128
 43
0.0
 10
205.1158400795
 20
597.5475808777
 10
205.2126515178
 20
597.6325054399
 10
205.395282439
 20
597.8740008349
 10
205.5994858485
 20
598.1363549452
 10
206.0246038054
 20
598.5986471468
 10
206.549914971
 20
599.0423085528
 10
206.7833682236
 20
599.1978894047
  0
LWPOLYLINE
  5
E6
330
1F
100
AcDbEntity
  8
0
  6
Continuous
 62
     7
370
    15
100
AcDbPolyline
 90
        8
 70
   128
 43
0.0
 10
206.7833682236
 20
595.3362401082
 10
206.7152039732
 20
595.377260003
 10
206.2727344171
 20
595.7117669658
 10
205.8752767552
 20
596.0869819774
 10
205.5325961137
 20
596.4819940324
 10
205.2362580767
 20
596.8737961257
 10
205.1437396847
 20
596.9717515291
 10
205.1158400795
 20
596.987722201
  0
ARC
  5
E7
330
1F
100
AcDbEntity
  8
0
  6
Continuous
 62
     7
370
    15
100
AcDbCircle
 10
207.9241114699
 20
597.2676515393
 30
0.0
 40
2.822188625326594
100
AcDbArc
 50
174.3075434613
 51
185.6924565387
  0
LINE
  5
E8
330
1F
100
AcDbEntity
  8
0
  6
Continuous
 62
     7
370
    15
100
AcDbLine
 10
890.7427694956
 20
533.293652791
 30
0.0
 11
891.1809462594
 21
425.1502522608
 31
0.0
  0
LINE
  5
E9
330
1F
100
AcDbEntity
  8
0
  6
Continuous
 62
     7
370
    15
100
AcDbLine
 10
896.180905217
 20
425.1705111562
 30
0.0
 11
895.7532033121
 21
530.7286836191
 31
0.0
  0
LWPOLYLINE
  5
EA
330
1F
100
AcDbEntity
  8
0
  6
Continuous
 62
     7
370
    15
100
AcDbPolyline
 90
       22
 70
   128
 43
0.0
 10
901.1233654965
 20
420.7381632568
 10
900.9222582817
 20
420.6277765604
 10
900.5265499722
 20
420.444026872
 10
900.1457849835
 20
420.3099644188
 10
899.7806902664
 20
420.222815716
 10
899.4312554594
 20
420.1804706773
 10
899.0945782628
 20
420.1819073456
 10
898.7641380271
 20
420.229197962
 10
898.4308041704
 20
420.3302696212
 10
898.0917810781
 20
420.4975283517
 10
897.8155775038
 20
420.6901951018
 10
897.5600992647
 20
420.9217255849
 10
897.3216239478
 20
421.1934326026
 10
897.0794054023
 20
421.5384304802
 10
896.8613228039
 20
421.9284586886
 10
896.6690610171
 20
422.3624229261
 10
896.5049252602
 20
422.8387135344
 10
896.3715961304
 20
423.354706714
 10
896.2717228696
 20
423.9068888475
 10
896.2077034529
 20
424.4906807916
 10
896.1818521339
 20
425.0680881597
 10
896.180905217
 20
425.1705111562
  0
LWPOLYLINE
  5
EB
330
1F
100
AcDbEntity
  8
0
  6
Continuous
 62
     7
370
    15
100
AcDbPolyline
 90
       27
 70
   128
 43
0.0
 10
891.1809462594
 20
425.1502522608
 10
891.1904825481
 20
424.6759490135
 10
891.2470880466
 20
423.8224429228
 10
891.3548290531
 20
422.9842487961
 10
891.5139431303
 20
422.1663774212
 10
891.7243366693
 20
421.3736495922
 10
891.9855180759
 20
420.6109085822
 10
892.2964762748
 20
419.8830946176
 10
892.6555904335
 20
419.1951168555
 10
893.0605906447
 20
418.551665556
 10
893.5085957228
 20
417.9569979932
 10
893.9962311627
 20
417.414752096
 10
894.5198010938
 20
416.9278387963
 10
895.0754708887
 20
416.4984352793
 10
895.6594218662
 20
416.1280647162
 10
896.2679592794
 20
415.8177256921
 10
896.8975740845
 20
415.5680340219
 10
897.5449679165
 20
415.3793525071
 10
898.2067878517
 20
415.251935615
 10
898.8797236195
 20
415.1858815354
 10
899.5610407516
 20
415.1811493681
 10
900.2481018232
 20
415.2377246733
 10
900.9382592141
 20
415.3556036109
 10
901.6287393647
 20
415.5347258347
 10
902.316540919
 20
415.7748596646
 10
902.9983744584
 20
416.0754569472
 10
903.6231623281
 20
416.4079189449
  0
LINE
  5
EC
330
1F
100
AcDbEntity
  8
0
  6
Continuous
 62
     7
370
    15
100
AcDbLine
 10
1001.4161410243
 20
486.8490511365
 30
0.0
 11
969.9977876637
 21
573.5891698542
 31
0.0
  0
LINE
  5
ED
330
1F
100
AcDbEntity
  8
0
  6
Continuous
 62
     7
370
    15
100
AcDbLine
 10
965.5995693522
 20
571.0501324679
 30
0.0
 11
996.7150277775
 21
485.146249257
 31
0.0
  0
LINE
  5
EE
330
1F
100
AcDbEntity
  8
0
  6
Continuous
 62
     7
370
    15
100
AcDbLine
 10
903.6231623281
 20
416.4079189449
 30
0.0
 11
995.1466840056
 21
469.2433233762
 31
0.0
  0
LINE
  5
EF
330
1F
100
AcDbEntity
  8
0
  6
Continuous
 62
     7
370
    15
100
AcDbLine
 10
992.6468871741
 20
473.5735676881
 30
0.0
 11
949.4812416446
 21
448.6545709397
 31
0.0
  0
LINE
  5
F0
330
1F
100
AcDbEntity
  8
0
  6
Continuous
 62
     7
370
    15
100
AcDbLine
 10
945.200360994
 20
446.1832711432
 30
0.0
 11
901.1233654965
 21
420.7381632568
 31
0.0
  0
LWPOLYLINE
  5
F1
330
1F
100
AcDbEntity
  8
0
  6
Continuous
 62
     7
370
    15
100
AcDbPolyline
 90
       23
 70
   128
 43
0.0
 10
996.7150277775
 20
485.146249257
 10
996.795560036
 20
484.9088784603
 10
996.9347729325
 20
484.4013396116
 10
997.0413424902
 20
483.8558798163
 10
997.1124921984
 20
483.2778645396
 10
997.1462280355
 20
482.6720775035
 10
997.141043509
 20
482.0436616062
 10
997.0959465022
 20
481.3981628672
 10
997.0104938536
 20
480.7414184532
 10
996.8848056417
 20
480.0794532637
 10
996.7195661537
 20
479.4183848685
 10
996.5160162386
 20
478.7643355607
 10
996.2759400543
 20
478.1233498104
 10
996.0016959278
 20
477.5014160942
 10
995.6961385544
 20
476.9042172468
 10
995.3625758287
 20
476.3370562197
 10
995.004753544
 20
475.8048289936
 10
994.626813169
 20
475.3119408348
 10
994.2332365284
 20
474.8622185857
 10
993.8287715958
 20
474.4588203767
 10
993.4183317692
 20
474.1041465351
 10
993.0068587931
 20
473.7997592105
 10
992.6468871741
 20
473.5735676881
  0
LWPOLYLINE
  5
F2
330
1F
100
AcDbEntity
  8
0
  6
Continuous
 62
     7
370
    15
100
AcDbPolyline
 90
       25
 70
   128
 43
0.0
 10
995.1466840056
 20
469.2433233762
 10
995.5312009483
 20
469.4763345867
 10
996.1838495486
 20
469.924335162
 10
996.8153901221
 20
470.4254563979
 10
997.4241463211
 20
470.9780036982
 10
998.0066923487
 20
471.5786102406
 10
998.5599339103
 20
472.2236528159
 10
999.0810276452
 20
472.9092393737
 10
999.5675363112
 20
473.6314952507
 10
1000.0173195291
 20
474.3865650039
 10
1000.4284435809
 20
475.1705728307
 10
1000.7991488468
 20
475.9796273655
 10
1001.1278256292
 20
476.8098214675
 10
1001.4129973646
 20
477.6572304926
 10
1001.6533094249
 20
478.517910391
 10
1001.847504206
 20
479.3878052587
 10
1001.9944667148
 20
480.2629221722
 10
1002.0931928641
 20
481.1392552527
 10
1002.1427866375
 20
482.0127669779
 10
1002.1424651038
 20
482.8793706391
 10
1002.0915723871
 20
483.7349049301
 10
1001.9896075784
 20
484.5751013029
 10
1001.8362812712
 20
485.3955082243
 10
1001.6316479097
 20
486.1913076726
 10
1001.4161410243
 20
486.8490511365
  0
LINE
  5
F3
330
1F
100
AcDbEntity
  8
0
  6
Continuous
 62
     7
370
    15
100
AcDbLine
 10
949.8389748955
 20
447.6622875521
 30
0.0
 11
915.7338779573
 21
542.263281571
 31
0.0
  0
LINE
  5
F4
330
1F
100
AcDbEntity
  8
0
  6
Continuous
 62
     7
370
    15
100
AcDbLine
 10
911.3344798735
 20
539.7235631166
 30
0.0
 11
945.0818435608
 21
446.1148524853
 31
0.0
  0
LINE
  5
F5
330
1F
100
AcDbEntity
  8
0
  6
Continuous
 62
     7
370
    15
100
AcDbLine
 10
703.8303890318
 20
586.6698808184
 30
0.0
 11
728.6541934626
 21
626.8653960043
 31
0.0
  0
LINE
  5
F6
330
1F
100
AcDbEntity
  8
0
  6
Continuous
 62
     7
370
    15
100
AcDbLine
 10
724.3220397262
 20
629.3662951231
 30
0.0
 11
699.5525104445
 21
589.258664032
 31
0.0
  0
LINE
  5
F7
330
1F
100
AcDbEntity
  8
0
  6
Continuous
 62
     7
370
    15
100
AcDbLine
 10
680.2888361347
 20
654.7861224803
 30
0.0
 11
648.1031639139
 21
566.4290214666
 31
0.0
  0
LINE
  5
F8
330
1F
100
AcDbEntity
  8
0
  6
Continuous
 62
     7
370
    15
100
AcDbLine
 10
652.8011771228
 20
564.717685179
 30
0.0
 11
684.6856413943
 21
652.2479008315
 31
0.0
  0
LWPOLYLINE
  5
F9
330
1F
100
AcDbEntity
  8
0
  6
Continuous
 62
     7
370
    15
100
AcDbPolyline
 90
       29
 70
   128
 43
0.0
 10
648.1031639139
 20
566.4290214666
 10
647.9674340219
 20
566.0399715918
 10
647.7430599756
 20
565.2985517494
 10
647.567409135
 20
564.5609232422
 10
647.4443070264
 20
563.8280094818
 10
647.3786386647
 20
563.1033511127
 10
647.3752961425
 20
562.3958335132
 10
647.4275314585
 20
561.7855539658
 10
647.5304554715
 20
561.2113450319
 10
647.6816968811
 20
560.6741701018
 10
647.8791698189
 20
560.1737730532
 10
648.1512205268
 20
559.6599690993
 10
648.4722825559
 20
559.1975001523
 10
648.8367644284
 20
558.7883435531
 10
649.2398817648
 20
558.4329573017
 10
649.6771614974
 20
558.1316285111
 10
650.1436607686
 20
557.8848798875
 10
650.6358869105
 20
557.6923146374
 10
651.1519939839
 20
557.5532942337
 10
651.6915087666
 20
557.4675584241
 10
652.2551924718
 20
557.4355680561
 10
652.8444893604
 20
557.4587237398
 10
653.4604354685
 20
557.5392227632
 10
654.1021456572
 20
557.6793140976
 10
654.7656035514
 20
557.8800202475
 10
655.4439164102
 20
558.1400585655
 10
656.1292220075
 20
558.455880734
 10
656.7777301998
 20
558.8016729662
 10
656.8708677452
 20
558.8549865366
  0
LWPOLYLINE
  5
FA
330
1F
100
AcDbEntity
  8
0
  6
Continuous
 62
     7
370
    15
100
AcDbPolyline
 90
       25
 70
   128
 43
0.0
 10
654.3710709136
 20
563.1852308485
 10
654.1393260916
 20
563.0557596505
 10
653.7330462199
 20
562.8506695638
 10
653.3624486035
 20
562.6904789215
 10
653.0343466893
 20
562.5735600943
 10
652.75448393
 20
562.4962797065
 10
652.5278321331
 20
562.4531334477
 10
652.3581511604
 20
562.4366022759
 10
652.2475528719
 20
562.4371187143
 10
652.1959994544
 20
562.4431131616
 10
652.1994293482
 20
562.4415334031
 10
652.2496314723
 20
562.4186506471
 10
652.3320973356
 20
562.3616048194
 10
652.4047228864
 20
562.2853681984
 10
652.4272126292
 20
562.2509153103
 10
652.422844208
 20
562.2623825746
 10
652.4025355762
 20
562.3352165236
 10
652.3811312717
 20
562.4680253345
 10
652.3693094468
 20
562.6588595171
 10
652.3752896795
 20
562.9058803265
 10
652.4056097773
 20
563.2060642668
 10
652.4654748878
 20
563.5564365299
 10
652.5589079895
 20
563.9531923582
 10
652.6887821149
 20
564.3917844462
 10
652.8011771228
 20
564.717685179
  0
LINE
  5
FB
330
1F
100
AcDbEntity
  8
0
  6
Continuous
 62
     7
370
    15
100
AcDbLine
 10
656.8708677452
 20
558.8549865366
 30
0.0
 11
748.3943894227
 21
611.6903909678
 31
0.0
  0
LINE
  5
FC
330
1F
100
AcDbEntity
  8
0
  6
Continuous
 62
     7
370
    15
100
AcDbLine
 10
745.8945925911
 20
616.0206352797
 30
0.0
 11
708.6939920255
 21
594.545185691
 31
0.0
  0
LINE
  5
FD
330
1F
100
AcDbEntity
  8
0
  6
Continuous
 62
     7
370
    15
100
AcDbLine
 10
699.5613944762
 20
589.2730493464
 30
0.0
 11
654.3710709136
 21
563.1852308485
 31
0.0
  0
ARC
  5
FE
330
1F
100
AcDbEntity
  8
0
  6
Continuous
 62
     7
370
    15
100
AcDbCircle
 10
739.2756739536
 20
627.2698309884
 30
0.0
 40
18.05186758095888
100
AcDbArc
 50
300.3406282186
 51
311.7280302968
  0
ARC
  5
FF
330
1F
100
AcDbEntity
  8
0
  6
Continuous
 62
     7
370
    15
100
AcDbCircle
 10
741.3029499769
 20
624.0209168263
 30
0.0
 40
9.224298711565828
100
AcDbArc
 50
299.8530281013
 51
305.2625106119
  0
LINE
  5
100
330
1F
100
AcDbEntity
  8
0
  6
Continuous
 62
     7
370
    15
100
AcDbLine
 10
895.4695555783
 20
536.2804575509
 30
0.0
 11
998.7071456315
 21
595.8782497139
 31
0.0
  0
LINE
  5
101
330
1F
100
AcDbEntity
  8
0
  6
Continuous
 62
     7
370
    15
100
AcDbLine
 10
998.7071456315
 20
595.8782497139
 30
0.0
 11
1001.5355727562
 21
594.2451680902
 31
0.0
  0
LINE
  5
102
330
1F
100
AcDbEntity
  8
0
  6
Continuous
 62
     7
370
    15
100
AcDbLine
 10
1001.5355727562
 20
594.2451680902
 30
0.0
 11
895.4695555783
 21
533.0145597035
 31
0.0
  0
LINE
  5
103
330
1F
100
AcDbEntity
  8
0
  6
Continuous
 62
     7
370
    15
100
AcDbLine
 10
895.4695555783
 20
536.2804575509
 30
0.0
 11
895.4695555783
 21
533.0145597035
 31
0.0
  0
LINE
  5
104
330
1F
100
AcDbEntity
  8
0
  6
Continuous
 62
     7
370
    15
100
AcDbLine
 10
650.8106092877
 20
677.5190608962
 30
0.0
 11
895.4695555783
 21
536.2804575509
 31
0.0
  0
LINE
  5
105
330
1F
100
AcDbEntity
  8
0
  6
Continuous
 62
     7
370
    15
100
AcDbLine
 10
895.4695555783
 20
533.0145597035
 30
0.0
 11
647.982182163
 21
675.8859792724
 31
0.0
  0
LINE
  5
106
330
1F
100
AcDbEntity
  8
0
  6
Continuous
 62
     7
370
    15
100
AcDbLine
 10
647.982182163
 20
675.8859792724
 30
0.0
 11
650.8106092877
 21
677.5190608962
 31
0.0
  0
LINE
  5
107
330
1F
100
AcDbEntity
  8
0
  6
Continuous
 62
     7
370
    15
100
AcDbLine
 10
895.4695555783
 20
530.5649372678
 30
0.0
 11
647.982182163
 21
673.4363568368
 31
0.0
  0
LINE
  5
108
330
1F
100
AcDbEntity
  8
0
  6
Continuous
 62
     7
370
    15
100
AcDbLine
 10
647.982182163
 20
675.8859792724
 30
0.0
 11
647.982182163
 21
673.4363568368
 31
0.0
  0
LINE
  5
109
330
1F
100
AcDbEntity
  8
0
  6
Continuous
 62
     7
370
    15
100
AcDbLine
 10
895.4695555783
 20
533.0145597035
 30
0.0
 11
895.4695555783
 21
530.5649372678
 31
0.0
  0
LINE
  5
10A
330
1F
100
AcDbEntity
  8
0
  6
Continuous
 62
     7
370
    15
100
AcDbLine
 10
895.4695555783
 20
530.5649372678
 30
0.0
 11
1001.5355727562
 21
591.7955456545
 31
0.0
  0
LINE
  5
10B
330
1F
100
AcDbEntity
  8
0
  6
Continuous
 62
     7
370
    15
100
AcDbLine
 10
1001.5355727562
 20
591.7955456545
 30
0.0
 11
1001.5355727562
 21
594.2451680902
 31
0.0
  0
LINE
  5
10C
330
1F
100
AcDbEntity
  8
0
  6
Continuous
 62
     7
370
    15
100
AcDbLine
 10
754.048199341
 20
737.1168530593
 30
0.0
 11
650.8106092877
 21
677.5190608962
 31
0.0
  0
LINE
  5
10D
330
1F
100
AcDbEntity
  8
0
  6
Continuous
 62
     7
370
    15
100
AcDbLine
 10
998.7071456315
 20
595.8782497139
 30
0.0
 11
754.048199341
 21
737.1168530593
 31
0.0
  0
LWPOLYLINE
  5
10E
330
1F
100
AcDbEntity
  8
0
  6
Continuous
 62
     7
370
    15
100
AcDbPolyline
 90
        8
 70
   128
 43
0.0
 10
949.8796245592
 20
445.2006933993
 10
949.8712192684
 20
445.4058620076
 10
949.912842737
 20
445.7786342884
 10
949.953961492
 20
446.1438755982
 10
949.9802476524
 20
446.7663543709
 10
949.9225125538
 20
447.3541866434
 10
949.8412576657
 20
447.655916392
 10
949.8385814389
 20
447.6615996146
  0
LWPOLYLINE
  5
10F
330
1F
100
AcDbEntity
  8
0
  6
Continuous
 62
     7
370
    15
100
AcDbPolyline
 90
       12
 70
   128
 43
0.0
 10
945.200795313
 20
446.1830827865
 10
945.4596979171
 20
446.2475972949
 10
945.8885408447
 20
446.2365476637
 10
946.4094538906
 20
446.1574046695
 10
946.8017826705
 20
446.0713913978
 10
947.2140548965
 20
445.9631740498
 10
947.7634602618
 20
445.7949006042
 10
948.3098223489
 20
445.6015641027
 10
948.831449857
 20
445.3884652118
 10
949.3180384096
 20
445.1346424469
 10
949.4527237219
 20
445.0171101349
 10
949.4837446924
 20
444.9721568167
  0
ARC
  5
110
330
1F
100
AcDbEntity
  8
0
  6
Continuous
 62
     7
370
    15
100
AcDbCircle
 10
946.888628402
 20
449.9246646292
 30
0.0
 40
5.591239772497972
100
AcDbArc
 50
297.654558413
 51
302.3400650543
  0
LWPOLYLINE
  5
111
330
1F
100
AcDbEntity
  8
0
  6
Continuous
 62
     7
370
    15
100
AcDbPolyline
 90
       23
 70
   128
 43
0.0
 10
703.8193900716
 20
586.6742503844
 10
703.6946138462
 20
586.4630662522
 10
703.4431020982
 20
586.1358113305
 10
703.2566979436
 20
585.9321878012
 10
703.1334245725
 20
585.8180018384
 10
703.0517218726
 20
585.7565784543
 10
702.9764133365
 20
585.7171873577
 10
702.8952591215
 20
585.7006143983
 10
702.7592881183
 20
585.7254286979
 10
702.6268397711
 20
585.7839732848
 10
702.3444104283
 20
585.9572394938
 10
702.0126074785
 20
586.2050634008
 10
701.7439229976
 20
586.4289108762
 10
701.4456071121
 20
586.6971640592
 10
700.9501145825
 20
587.1848991878
 10
700.5296582109
 20
587.6426995379
 10
700.1544732938
 20
588.0958053016
 10
699.8742283044
 20
588.4791609966
 10
699.7327779938
 20
588.7012918348
 10
699.6302826739
 20
588.8902434657
 10
699.553941592
 20
589.0832057549
 10
699.5382136632
 20
589.2143569127
 10
699.5584909066
 20
589.250889569
  0
LWPOLYLINE
  5
112
330
1F
100
AcDbEntity
  8
0
  6
Continuous
 62
     7
370
    15
100
AcDbPolyline
 90
       21
 70
   128
 43
0.0
 10
928.5203448148
 20
169.7436276169
 10
928.5752881032
 20
169.4462320826
 10
928.6513662341
 20
168.7826675715
 10
928.6644976718
 20
168.1148100113
 10
928.614487715
 20
167.4483281027
 10
928.5017096393
 20
166.7889628606
 10
928.3271036746
 20
166.1423638693
 10
928.0921600999
 20
165.5140543871
 10
927.7989025161
 20
164.9093888978
 10
927.4498634638
 20
164.3335007925
 10
927.0480543796
 20
163.7912553292
 10
926.5969315537
 20
163.2872082563
 10
926.1003595027
 20
162.8255698641
 10
925.5625727384
 20
162.4101738679
 10
924.9881364729
 20
162.0444504276
 10
924.3819064272
 20
161.7314027098
 10
923.7489876935
 20
161.4735866202
 10
923.0946925234
 20
161.2730935845
 10
922.4244969612
 20
161.1315364693
 10
921.7439963605
 20
161.0500388766
 10
921.1671919064
 20
161.0284683094
  0
LWPOLYLINE
  5
113
330
1F
100
AcDbEntity
  8
0
  6
Continuous
 62
     7
370
    15
100
AcDbPolyline
 90
       27
 70
   128
 43
0.0
 10
921.1671919064
 20
156.0284683094
 10
921.6872157142
 20
156.0390999711
 10
922.5746087977
 20
156.1065583164
 10
923.4550496175
 20
156.2359162855
 10
924.3239328847
 20
156.426522546
 10
925.1768348134
 20
156.6774160431
 10
926.009412015
 20
156.9873254709
 10
926.8174244241
 20
157.3546755384
 10
927.5967578215
 20
157.7775949784
 10
928.3434457452
 20
158.2539262777
 10
929.0536906273
 20
158.7812371026
 10
929.7238839884
 20
159.3568333676
 10
930.3506255221
 20
159.9777738704
 10
930.9307409043
 20
160.6408863904
 10
931.4612981783
 20
161.3427851158
 10
931.9396225841
 20
162.0798892426
 10
932.36330973
 20
162.8484425646
 10
932.7302370364
 20
163.6445338604
 10
933.038573419
 20
164.4641178788
 10
933.2867872151
 20
165.3030367277
 10
933.4736523897
 20
166.1570414847
 10
933.5982530884
 20
167.0218138733
 10
933.6599866221
 20
167.8929878723
 10
933.6585649793
 20
168.7661711628
 10
933.5940150059
 20
169.6369659559
 10
933.4666803309
 20
170.5009740389
 10
933.4166469123
 20
170.7566556371
  0
LINE
  5
114
330
1F
100
AcDbEntity
  8
0
  6
Continuous
 62
     7
370
    15
100
AcDbLine
 10
791.7333862739
 20
156.0284683094
 30
0.0
 11
921.1671919064
 21
156.0284683094
 31
0.0
  0
LINE
  5
115
330
1F
100
AcDbEntity
  8
0
  6
Continuous
 62
     7
370
    15
100
AcDbLine
 10
921.1671919064
 20
161.0284683094
 30
0.0
 11
858.671019657
 21
161.0284683094
 31
0.0
  0
LINE
  5
116
330
1F
100
AcDbEntity
  8
0
  6
Continuous
 62
     7
370
    15
100
AcDbLine
 10
854.2883283914
 20
161.0284683094
 30
0.0
 11
791.7333862739
 21
161.0284683094
 31
0.0
  0
LWPOLYLINE
  5
117
330
1F
100
AcDbEntity
  8
0
  6
Continuous
 62
     7
370
    15
100
AcDbPolyline
 90
       21
 70
   128
 43
0.0
 10
791.7333862739
 20
161.0284683094
 10
791.4177258176
 20
161.0349217874
 10
790.7352853612
 20
161.0932488583
 10
790.0611381858
 20
161.211809616
 10
789.4010634042
 20
161.3895739509
 10
788.7605207305
 20
161.6250403337
 10
788.1448035301
 20
161.9162425381
 10
787.5589988962
 20
162.26076754
 10
787.0079501188
 20
162.6557761219
 10
786.4962217359
 20
163.0980255551
 10
786.0280670078
 20
163.5838937827
 10
785.6073974347
 20
164.1094046707
 10
785.237753767
 20
164.6702541543
 10
784.9222779076
 20
165.2618374552
 10
784.6636852135
 20
165.8792779447
 10
784.4642370162
 20
166.5174585841
 10
784.325713673
 20
167.171057082
 10
784.2493890676
 20
167.8345858634
 10
784.236008059
 20
168.5024375683
 10
784.2857687635
 20
169.168936125
 10
784.3802333655
 20
169.7436276169
  0
LWPOLYLINE
  5
118
330
1F
100
AcDbEntity
  8
0
  6
Continuous
 62
     7
370
    15
100
AcDbPolyline
 90
       27
 70
   128
 43
0.0
 10
779.483931268
 20
170.7566556371
 10
779.3902328062
 20
170.2494815661
 10
779.2811747689
 20
169.3828802799
 10
779.2350579015
 20
168.5107994712
 10
779.2521188624
 20
167.6377980121
 10
779.332252466
 20
166.7682760702
 10
779.4750374232
 20
165.906620213
 10
779.6797419693
 20
165.0571617239
 10
779.9453281263
 20
164.2241690802
 10
780.2704568755
 20
163.4118280587
 10
780.6534944494
 20
162.6242221546
 10
781.0925197656
 20
161.8653133232
 10
781.5853330379
 20
161.1389230666
 10
782.1294656078
 20
160.4487139142
 10
782.7221910412
 20
159.7981713665
 10
783.3605375202
 20
159.1905863992
 10
784.0413015475
 20
158.6290386426
 10
784.7610629552
 20
158.1163803627
 10
785.5162011858
 20
157.6552213794
 10
786.3029127888
 20
157.2479150542
 10
787.1172300507
 20
156.8965454715
 10
787.95504066
 20
156.6029159276
 10
788.8121082931
 20
156.3685388217
 10
789.6840939975
 20
156.1946270302
 10
790.5665782464
 20
156.0820868251
 10
791.4550835364
 20
156.0315123848
 10
791.7333862739
 20
156.0284683094
  0
LINE
  5
119
330
1F
100
AcDbEntity
  8
0
  6
Continuous
 62
     7
370
    15
100
AcDbLine
 10
933.4166469123
 20
170.7566556371
 30
0.0
 11
908.1515643494
 21
292.8712213581
 31
0.0
  0
LINE
  5
11A
330
1F
100
AcDbEntity
  8
0
  6
Continuous
 62
     7
370
    15
100
AcDbLine
 10
903.2552622518
 20
291.858193338
 30
0.0
 11
928.5203448148
 21
169.7436276169
 31
0.0
  0
LINE
  5
11B
330
1F
100
AcDbEntity
  8
0
  6
Continuous
 62
     7
370
    15
100
AcDbLine
 10
804.749013831
 20
292.8712213581
 30
0.0
 11
779.483931268
 21
170.7566556371
 31
0.0
  0
LINE
  5
11C
330
1F
100
AcDbEntity
  8
0
  6
Continuous
 62
     7
370
    15
100
AcDbLine
 10
784.3802333655
 20
169.7436276169
 30
0.0
 11
809.6453159285
 21
291.858193338
 31
0.0
  0
ARC
  5
11D
330
1F
100
AcDbEntity
  8
0
  6
Continuous
 62
     7
370
    15
100
AcDbCircle
 10
897.9260720771
 20
290.6802886489
 30
0.0
 40
5.457813424283579
100
AcDbArc
 50
12.4636328424
 51
90.6687541382
  0
ARC
  5
11E
330
1F
100
AcDbEntity
  8
0
  6
Continuous
 62
     7
370
    15
100
AcDbCircle
 10
897.9587477878
 20
290.7039373959
 30
0.0
 40
10.42068276221419
100
AcDbArc
 50
12.0039471144
 51
84.8835707677
  0
ARC
  5
11F
330
1F
100
AcDbEntity
  8
0
  6
Continuous
 62
     7
370
    15
100
AcDbCircle
 10
814.9746730197
 20
290.6800783077
 30
0.0
 40
5.458021805575856
100
AcDbArc
 50
89.3330237267
 51
167.5345892928
  0
ARC
  5
120
330
1F
100
AcDbEntity
  8
0
  6
Continuous
 62
     7
370
    15
100
AcDbCircle
 10
814.9363780401
 20
290.7077597608
 30
0.0
 40
10.41455498871717
100
AcDbArc
 50
94.9737299209
 51
168.0103832586
  0
LINE
  5
121
330
1F
100
AcDbEntity
  8
0
  6
Continuous
 62
     7
370
    15
100
AcDbLine
 10
815.0382080455
 20
296.1377303057
 30
0.0
 11
897.8623701349
 21
296.1377303057
 31
0.0
  0
LINE
  5
122
330
1F
100
AcDbEntity
  8
0
  6
Continuous
 62
     7
370
    15
100
AcDbLine
 10
858.9502890902
 20
161.0284683094
 30
0.0
 11
858.9502890902
 21
287.3604107366
 31
0.0
  0
LINE
  5
123
330
1F
100
AcDbEntity
  8
0
  6
Continuous
 62
     7
370
    15
100
AcDbLine
 10
853.9502890902
 20
287.3604107366
 30
0.0
 11
853.9502890902
 21
161.0284683094
 31
0.0
  0
LINE
  5
124
330
1F
100
AcDbEntity
  8
0
  6
Continuous
 62
     7
370
    15
100
AcDbLine
 10
858.9502890902
 20
287.3604107366
 30
0.0
 11
858.9502890902
 21
296.1377303057
 31
0.0
  0
LINE
  5
125
330
1F
100
AcDbEntity
  8
0
  6
Continuous
 62
     7
370
    15
100
AcDbLine
 10
853.9502890902
 20
296.1377303057
 30
0.0
 11
853.9502890902
 21
287.3604107366
 31
0.0
  0
LINE
  5
126
330
1F
100
AcDbEntity
  8
0
  6
Continuous
 62
     7
370
    15
100
AcDbLine
 10
783.4502890902
 20
306.0830993075
 30
0.0
 11
929.4502890902
 21
306.0830993075
 31
0.0
  0
LINE
  5
127
330
1F
100
AcDbEntity
  8
0
  6
Continuous
 62
     7
370
    15
100
AcDbLine
 10
929.4502890902
 20
306.0830993075
 30
0.0
 11
931.4502890902
 21
304.0830993075
 31
0.0
  0
LINE
  5
128
330
1F
100
AcDbEntity
  8
0
  6
Continuous
 62
     7
370
    15
100
AcDbLine
 10
931.4502890902
 20
304.0830993075
 30
0.0
 11
781.4502890902
 21
304.0830993075
 31
0.0
  0
LINE
  5
129
330
1F
100
AcDbEntity
  8
0
  6
Continuous
 62
     7
370
    15
100
AcDbLine
 10
783.4502890902
 20
306.0830993075
 30
0.0
 11
781.4502890902
 21
304.0830993075
 31
0.0
  0
LINE
  5
12A
330
1F
100
AcDbEntity
  8
0
  6
Continuous
 62
     7
370
    15
100
AcDbLine
 10
781.4502890902
 20
304.0830993075
 30
0.0
 11
781.4502890902
 21
301.0830993075
 31
0.0
  0
LINE
  5
12B
330
1F
100
AcDbEntity
  8
0
  6
Continuous
 62
     7
370
    15
100
AcDbLine
 10
931.4502890902
 20
301.0830993075
 30
0.0
 11
931.4502890902
 21
304.0830993075
 31
0.0
  0
LINE
  5
12C
330
1F
100
AcDbEntity
  8
0
  6
Continuous
 62
     7
370
    15
100
AcDbLine
 10
781.4502890902
 20
301.0830993075
 30
0.0
 11
931.4502890902
 21
301.0830993075
 31
0.0
  0
LWPOLYLINE
  5
12D
330
1F
100
AcDbEntity
  8
0
  6
Continuous
 62
     7
370
    15
100
AcDbPolyline
 90
        9
 70
   128
 43
0.0
 10
856.7302184285
 20
159.7391236955
 10
856.8151429907
 20
159.899536052
 10
857.0566383857
 20
160.1440335657
 10
857.3189924961
 20
160.3580959068
 10
857.7812846976
 20
160.6767993237
 10
858.2249461037
 20
160.9122973367
 10
858.4545277022
 20
160.9948284482
 10
858.6574856635
 20
161.0282972466
 10
858.6676266358
 20
161.0248376825
  0
LWPOLYLINE
  5
12E
330
1F
100
AcDbEntity
  8
0
  6
Continuous
 62
     7
370
    15
100
AcDbPolyline
 90
        9
 70
   128
 43
0.0
 10
854.2355500178
 20
161.0215840346
 10
854.340852203
 20
161.0184175776
 10
854.5598975539
 20
160.9583494726
 10
854.8944045166
 20
160.8062411208
 10
855.2696195282
 20
160.5805855763
 10
855.6646315832
 20
160.2934464858
 10
856.0564336766
 20
159.9348709246
 10
856.1543890799
 20
159.7882135617
 10
856.1703597518
 20
159.7391236955
  0
LINE
  5
12F
330
1F
100
AcDbEntity
  8
0
  6
Continuous
 62
     7
370
    15
100
AcDbLine
 10
856.1703597518
 20
159.7391236955
 30
0.0
 11
856.7302184285
 21
159.7391236955
 31
0.0
  0
ARC
  5
130
330
1F
100
AcDbEntity
  8
0
  6
Continuous
 62
     7
370
    15
100
AcDbCircle
 10
856.4502890902
 20
154.3894205466
 30
0.0
 40
5.357021954055421
100
AcDbArc
 50
87.0046645545
 51
92.9953354455
  0
ENDSEC
  0
SECTION
  2
OBJECTS
  0
DICTIONARY
  5
C
330
0
100
AcDbDictionary
281
     1
  3
ACAD_GROUP
350
D
  3
ACAD_LAYOUT
350
1A
  3
ACAD_MLINESTYLE
350
17
  3
ACAD_PLOTSETTINGS
350
19
  3
ACAD_PLOTSTYLENAME
350
E
  3
ACAD_SCALELIST
350
47
  0
DICTIONARY
  5
D
102
{ACAD_REACTORS
330
C
102
}
330
C
100
AcDbDictionary
281
     1
  0
DICTIONARY
  5
1A
102
{ACAD_REACTORS
330
C
102
}
330
C
100
AcDbDictionary
281
     1
  3
Layout1
350
1E
  3
Layout2
350
26
  3
Model
350
22
  0
DICTIONARY
  5
17
102
{ACAD_REACTORS
330
C
102
}
330
C
100
AcDbDictionary
281
     1
  3
Standard
350
18
  0
DICTIONARY
  5
19
102
{ACAD_REACTORS
330
C
102
}
330
C
100
AcDbDictionary
281
     1
  0
ACDBDICTIONARYWDFLT
  5
E
102
{ACAD_REACTORS
330
C
102
}
330
C
100
AcDbDictionary
281
     1
  3
Normal
350
F
100
AcDbDictionaryWithDefault
340
F
  0
DICTIONARY
  5
47
102
{ACAD_REACTORS
330
C
102
}
330
C
100
AcDbDictionary
281
     1
  3
A0
350
48
  3
A1
350
49
  3
A2
350
4A
  3
A3
350
4B
  3
A4
350
4C
  3
A5
350
4D
  3
A6
350
4E
  3
A7
350
4F
  3
A8
350
50
  3
A9
350
51
  3
B0
350
52
  3
B1
350
53
  3
B2
350
54
  3
B3
350
55
  3
B4
350
56
  3
B5
350
57
  3
B6
350
58
  3
B7
350
59
  3
B8
350
5A
  3
B9
350
5B
  3
C0
350
5C
  3
C1
350
5D
  3
C2
350
5E
  3
C3
350
5F
  3
C4
350
60
  3
C5
350
61
  3
C6
350
62
  3
C7
350
63
  3
C8
350
64
  3
C9
350
65
  3
D0
350
66
  3
D1
350
67
  3
D2
350
68
  0
LAYOUT
  5
1E
102
{ACAD_REACTORS
330
1A
102
}
330
1A
100
AcDbPlotSettings
  1

  2
none_device
  4

  6

 40
0.0
 41
0.0
 42
0.0
 43
0.0
 44
0.0
 45
0.0
 46
0.0
 47
0.0
 48
0.0
 49
0.0
140
0.0
141
0.0
142
1.0
143
1.0
 70
   688
 72
     1
 73
     0
 74
     5
  7

 75
    16
147
1.0
148
0.0
149
0.0
100
AcDbLayout
  1
Layout1
 70
     1
 71
     1
 10
0.0
 20
0.0
 11
420.0
 21
297.0
 12
0.0
 22
0.0
 32
0.0
 14
1.0000000000E+20
 24
1.0000000000E+20
 34
1.0000000000E+20
 15
-1.0000000000E+20
 25
-1.0000000000E+20
 35
-1.0000000000E+20
146
0.0
 13
0.0
 23
0.0
 33
0.0
 16
1.0
 26
0.0
 36
0.0
 17
0.0
 27
1.0
 37
0.0
 76
     0
330
1B
  0
LAYOUT
  5
26
102
{ACAD_REACTORS
330
1A
102
}
330
1A
100
AcDbPlotSettings
  1

  2
none_device
  4

  6

 40
0.0
 41
0.0
 42
0.0
 43
0.0
 44
0.0
 45
0.0
 46
0.0
 47
0.0
 48
0.0
 49
0.0
140
0.0
141
0.0
142
1.0
143
1.0
 70
   688
 72
     1
 73
     0
 74
     5
  7

 75
    16
147
1.0
148
0.0
149
0.0
100
AcDbLayout
  1
Layout2
 70
     1
 71
     2
 10
0.0
 20
0.0
 11
0.0
 21
0.0
 12
0.0
 22
0.0
 32
0.0
 14
0.0
 24
0.0
 34
0.0
 15
0.0
 25
0.0
 35
0.0
146
0.0
 13
0.0
 23
0.0
 33
0.0
 16
1.0
 26
0.0
 36
0.0
 17
0.0
 27
1.0
 37
0.0
 76
     0
330
23
  0
LAYOUT
  5
22
102
{ACAD_REACTORS
330
1A
102
}
330
1A
100
AcDbPlotSettings
  1

  2
none_device
  4
Letter_(8.50_x_11.00_Inches)
  6

 40
6.35
 41
6.35
 42
6.35000508
 43
6.35000508
 44
215.9
 45
279.4
 46
0.0
 47
0.0
 48
0.0
 49
0.0
140
0.0
141
0.0
142
1.0
143
1.0
 70
  1712
 72
     1
 73
     0
 74
     0
  7

 75
     0
147
1.0
148
0.0
149
0.0
100
AcDbLayout
  1
Model
 70
     1
 71
     0
 10
0.0
 20
0.0
 11
1189.0
 21
841.0
 12
0.0
 22
0.0
 32
0.0
 14
0.0
 24
0.0
 34
0.0
 15
1189.0
 25
841.0
 35
0.0
146
0.0
 13
0.0
 23
0.0
 33
0.0
 16
1.0
 26
0.0
 36
0.0
 17
0.0
 27
1.0
 37
0.0
 76
     0
330
1F
331
29
  0
MLINESTYLE
  5
18
102
{ACAD_REACTORS
330
17
102
}
330
17
100
AcDbMlineStyle
  2
Standard
 70
     0
  3

 62
   256
 51
90.0
 52
90.0
 71
     2
 49
0.5
 62
   256
  6
BYLAYER
 49
-0.5
 62
   256
  6
BYLAYER
  0
ACDBPLACEHOLDER
  5
F
102
{ACAD_REACTORS
330
E
102
}
330
E
  0
SCALE
  5
48
102
{ACAD_REACTORS
330
47
102
}
330
47
100
AcDbScale
 70
     0
300
1:1
140
1.0
141
1.0
290
     1
  0
SCALE
  5
49
102
{ACAD_REACTORS
330
47
102
}
330
47
100
AcDbScale
 70
     0
300
1:2
140
1.0
141
2.0
290
     0
  0
SCALE
  5
4A
102
{ACAD_REACTORS
330
47
102
}
330
47
100
AcDbScale
 70
     0
300
1:4
140
1.0
141
4.0
290
     0
  0
SCALE
  5
4B
102
{ACAD_REACTORS
330
47
102
}
330
47
100
AcDbScale
 70
     0
300
1:5
140
1.0
141
5.0
290
     0
  0
SCALE
  5
4C
102
{ACAD_REACTORS
330
47
102
}
330
47
100
AcDbScale
 70
     0
300
1:8
140
1.0
141
8.0
290
     0
  0
SCALE
  5
4D
102
{ACAD_REACTORS
330
47
102
}
330
47
100
AcDbScale
 70
     0
300
1:10
140
1.0
141
10.0
290
     0
  0
SCALE
  5
4E
102
{ACAD_REACTORS
330
47
102
}
330
47
100
AcDbScale
 70
     0
300
1:16
140
1.0
141
16.0
290
     0
  0
SCALE
  5
4F
102
{ACAD_REACTORS
330
47
102
}
330
47
100
AcDbScale
 70
     0
300
1:20
140
1.0
141
20.0
290
     0
  0
SCALE
  5
50
102
{ACAD_REACTORS
330
47
102
}
330
47
100
AcDbScale
 70
     0
300
1:30
140
1.0
141
30.0
290
     0
  0
SCALE
  5
51
102
{ACAD_REACTORS
330
47
102
}
330
47
100
AcDbScale
 70
     0
300
1:40
140
1.0
141
40.0
290
     0
  0
SCALE
  5
52
102
{ACAD_REACTORS
330
47
102
}
330
47
100
AcDbScale
 70
     0
300
1:50
140
1.0
141
50.0
290
     0
  0
SCALE
  5
53
102
{ACAD_REACTORS
330
47
102
}
330
47
100
AcDbScale
 70
     0
300
1:100
140
1.0
141
100.0
290
     0
  0
SCALE
  5
54
102
{ACAD_REACTORS
330
47
102
}
330
47
100
AcDbScale
 70
     0
300
2:1
140
2.0
141
1.0
290
     0
  0
SCALE
  5
55
102
{ACAD_REACTORS
330
47
102
}
330
47
100
AcDbScale
 70
     0
300
4:1
140
4.0
141
1.0
290
     0
  0
SCALE
  5
56
102
{ACAD_REACTORS
330
47
102
}
330
47
100
AcDbScale
 70
     0
300
8:1
140
8.0
141
1.0
290
     0
  0
SCALE
  5
57
102
{ACAD_REACTORS
330
47
102
}
330
47
100
AcDbScale
 70
     0
300
10:1
140
10.0
141
1.0
290
     0
  0
SCALE
  5
58
102
{ACAD_REACTORS
330
47
102
}
330
47
100
AcDbScale
 70
     0
300
100:1
140
100.0
141
1.0
290
     0
  0
SCALE
  5
59
102
{ACAD_REACTORS
330
47
102
}
330
47
100
AcDbScale
 70
     0
300
1/128" = 1'-0"
140
0.0078125
141
12.0
290
     0
  0
SCALE
  5
5A
102
{ACAD_REACTORS
330
47
102
}
330
47
100
AcDbScale
 70
     0
300
1/64" = 1'-0"
140
0.015625
141
12.0
290
     0
  0
SCALE
  5
5B
102
{ACAD_REACTORS
330
47
102
}
330
47
100
AcDbScale
 70
     0
300
1/32" = 1'-0"
140
0.03125
141
12.0
290
     0
  0
SCALE
  5
5C
102
{ACAD_REACTORS
330
47
102
}
330
47
100
AcDbScale
 70
     0
300
1/16" = 1'-0"
140
0.0625
141
12.0
290
     0
  0
SCALE
  5
5D
102
{ACAD_REACTORS
330
47
102
}
330
47
100
AcDbScale
 70
     0
300
3/32" = 1'-0"
140
0.09375
141
12.0
290
     0
  0
SCALE
  5
5E
102
{ACAD_REACTORS
330
47
102
}
330
47
100
AcDbScale
 70
     0
300
1/8" = 1'-0"
140
0.125
141
12.0
290
     0
  0
SCALE
  5
5F
102
{ACAD_REACTORS
330
47
102
}
330
47
100
AcDbScale
 70
     0
300
3/16" = 1'-0"
140
0.1875
141
12.0
290
     0
  0
SCALE
  5
60
102
{ACAD_REACTORS
330
47
102
}
330
47
100
AcDbScale
 70
     0
300
1/4" = 1'-0"
140
0.25
141
12.0
290
     0
  0
SCALE
  5
61
102
{ACAD_REACTORS
330
47
102
}
330
47
100
AcDbScale
 70
     0
300
3/8" = 1'-0"
140
0.375
141
12.0
290
     0
  0
SCALE
  5
62
102
{ACAD_REACTORS
330
47
102
}
330
47
100
AcDbScale
 70
     0
300
1/2" = 1'-0"
140
0.5
141
12.0
290
     0
  0
SCALE
  5
63
102
{ACAD_REACTORS
330
47
102
}
330
47
100
AcDbScale
 70
     0
300
3/4" = 1'-0"
140
0.75
141
12.0
290
     0
  0
SCALE
  5
64
102
{ACAD_REACTORS
330
47
102
}
330
47
100
AcDbScale
 70
     0
300
1" = 1'-0"
140
1.0
141
12.0
290
     0
  0
SCALE
  5
65
102
{ACAD_REACTORS
330
47
102
}
330
47
100
AcDbScale
 70
     0
300
1-1/2" = 1'-0"
140
1.5
141
12.0
290
     0
  0
SCALE
  5
66
102
{ACAD_REACTORS
330
47
102
}
330
47
100
AcDbScale
 70
     0
300
3" = 1'-0"
140
3.0
141
12.0
290
     0
  0
SCALE
  5
67
102
{ACAD_REACTORS
330
47
102
}
330
47
100
AcDbScale
 70
     0
300
6" = 1'-0"
140
6.0
141
12.0
290
     0
  0
SCALE
  5
68
102
{ACAD_REACTORS
330
47
102
}
330
47
100
AcDbScale
 70
     0
300
1'-0" = 1'-0"
140
12.0
141
12.0
290
     0
  0
ENDSEC
  0
EOF
